  0
SECTION
  2
HEADER
  9
$ACADVER
  1
AC1009
  9
$INSBASE
 10
0.0
 20
0.0
 30
0.0
  9
$EXTMIN
 10
-62.1001199488811224
 20
-172.0242757427326978
 30
-0.0036618299825477
  9
$EXTMAX
 10
61.0157996229480588
 20
120.0135353165834005
 30
0.0054933037672242
  9
$LIMMIN
 10
0.0
 20
0.0
  9
$LIMMAX
 10
296.9999999999998863
 20
420.0000000000001137
  9
$ORTHOMODE
 70
     1
  9
$REGENMODE
 70
     1
  9
$FILLMODE
 70
     1
  9
$QTEXTMODE
 70
     0
  9
$MIRRTEXT
 70
     1
  9
$DRAGMODE
 70
     2
  9
$LTSCALE
 40
10.0
  9
$OSMODE
 70
  2559
  9
$ATTMODE
 70
     1
  9
$TEXTSIZE
 40
3.5
  9
$TRACEWID
 40
0.5
  9
$TEXTSTYLE
  7
STANDARD
  9
$CLAYER
  8
STEMPEL
  9
$CELTYPE
  6
BYLAYER
  9
$CECOLOR
 62
   256
  9
$DIMSCALE
 40
1.0
  9
$DIMASZ
 40
3.5
  9
$DIMEXO
 40
1.0
  9
$DIMDLI
 40
7.0
  9
$DIMRND
 40
0.0
  9
$DIMDLE
 40
0.0
  9
$DIMEXE
 40
1.0
  9
$DIMTP
 40
0.0
  9
$DIMTM
 40
0.0
  9
$DIMTXT
 40
3.5
  9
$DIMCEN
 40
1.5
  9
$DIMTSZ
 40
0.0
  9
$DIMTOL
 70
     0
  9
$DIMLIM
 70
     0
  9
$DIMTIH
 70
     0
  9
$DIMTOH
 70
     0
  9
$DIMSE1
 70
     0
  9
$DIMSE2
 70
     0
  9
$DIMTAD
 70
     1
  9
$DIMZIN
 70
     8
  9
$DIMBLK
  1

  9
$DIMASO
 70
     1
  9
$DIMSHO
 70
     0
  9
$DIMPOST
  1

  9
$DIMAPOST
  1

  9
$DIMALT
 70
     0
  9
$DIMALTD
 70
     2
  9
$DIMALTF
 40
25.3999999999999986
  9
$DIMLFAC
 40
1.0
  9
$DIMTOFL
 70
     1
  9
$DIMTVP
 40
0.0
  9
$DIMTIX
 70
     0
  9
$DIMSOXD
 70
     0
  9
$DIMSAH
 70
     0
  9
$DIMBLK1
  1

  9
$DIMBLK2
  1

  9
$DIMSTYLE
  2
STANDARD
  9
$DIMCLRD
 70
     0
  9
$DIMCLRE
 70
     0
  9
$DIMCLRT
 70
     1
  9
$DIMTFAC
 40
0.5142857142857143
  9
$DIMGAP
 40
1.5
  9
$LUNITS
 70
     2
  9
$LUPREC
 70
     2
  9
$SKETCHINC
 40
1.0
  9
$FILLETRAD
 40
0.0
  9
$AUNITS
 70
     0
  9
$AUPREC
 70
     0
  9
$MENU
  1
ACAD
  9
$ELEVATION
 40
0.0
  9
$PELEVATION
 40
0.0
  9
$THICKNESS
 40
0.0
  9
$LIMCHECK
 70
     0
  9
$BLIPMODE
 70
     0
  9
$CHAMFERA
 40
0.0
  9
$CHAMFERB
 40
0.0
  9
$SKPOLY
 70
     0
  9
$TDCREATE
 40
2451337.6017592591233552
  9
$TDUPDATE
 40
2458387.5605902778916061
  9
$TDINDWG
 40
0.1088677894
  9
$TDUSRTIMER
 40
0.1088677894
  9
$USRTIMER
 70
     1
  9
$ANGBASE
 50
0.0
  9
$ANGDIR
 70
     0
  9
$PDMODE
 70
     0
  9
$PDSIZE
 40
0.0
  9
$PLINEWID
 40
0.0
  9
$COORDS
 70
     1
  9
$SPLFRAME
 70
     0
  9
$SPLINETYPE
 70
     6
  9
$SPLINESEGS
 70
     8
  9
$ATTDIA
 70
     1
  9
$ATTREQ
 70
     1
  9
$HANDLING
 70
     1
  9
$HANDSEED
  5
2755
  9
$SURFTAB1
 70
     6
  9
$SURFTAB2
 70
     6
  9
$SURFTYPE
 70
     6
  9
$SURFU
 70
     6
  9
$SURFV
 70
     6
  9
$UCSNAME
  2

  9
$UCSORG
 10
0.0
 20
0.0
 30
0.0
  9
$UCSXDIR
 10
1.0
 20
0.0
 30
0.0
  9
$UCSYDIR
 10
0.0
 20
1.0
 30
0.0
  9
$PUCSNAME
  2

  9
$PUCSORG
 10
0.0
 20
0.0
 30
0.0
  9
$PUCSXDIR
 10
1.0
 20
0.0
 30
0.0
  9
$PUCSYDIR
 10
0.0
 20
1.0
 30
0.0
  9
$USERI1
 70
     0
  9
$USERI2
 70
     0
  9
$USERI3
 70
     0
  9
$USERI4
 70
     0
  9
$USERI5
 70
     0
  9
$USERR1
 40
0.0
  9
$USERR2
 40
0.0
  9
$USERR3
 40
0.0
  9
$USERR4
 40
0.0
  9
$USERR5
 40
0.0
  9
$WORLDVIEW
 70
     1
  9
$SHADEDGE
 70
     3
  9
$SHADEDIF
 70
    70
  9
$TILEMODE
 70
     1
  9
$MAXACTVP
 70
    16
  9
$PLIMCHECK
 70
     0
  9
$PEXTMIN
 10
-0.0852616707549388
 20
-0.1141903921360594
 30
-0.0000000349181948
  9
$PEXTMAX
 10
11.5110396165134805
 20
16.1416894021059001
 30
0.0000000814935746
  9
$PLIMMIN
 10
-0.2500002402958907
 20
-0.2499999962453767
  9
$PLIMMAX
 10
10.7499995194082203
 20
8.2499997634587334
  9
$UNITMODE
 70
     0
  9
$VISRETAIN
 70
     0
  9
$PLINEGEN
 70
     0
  9
$PSLTSCALE
 70
     0
  0
ENDSEC
  0
SECTION
  2
TABLES
  0
TABLE
  2
VPORT
 70
     1
  0
VPORT
  2
*ACTIVE
 70
     0
 10
0.0
 20
0.0
 11
1.0
 21
1.0
 12
-0.5421601629665247
 22
-55.5074969068002133
 13
0.0
 23
0.0
 14
1.0
 24
1.0
 15
10.0
 25
10.0
 16
-0.0000000000001246
 26
0.0
 36
561.3333418893522548
 17
0.0
 27
29.5021266937255895
 37
-0.0000000000000133
 40
293.5265339704085932
 41
1.868197278911564
 42
50.0
 43
0.0
 44
0.0
 50
0.0
 51
0.0
 71
     0
 72
  1500
 73
     1
 74
     0
 75
     0
 76
     0
 77
     0
 78
     0
  0
ENDTAB
  0
TABLE
  2
LTYPE
 70
     5
  0
LTYPE
  2
CONTINUOUS
 70
     0
  3
Solid line
 72
    65
 73
     0
 40
0.0
  0
LTYPE
  2
VERDECKT
 70
     0
  3
_ _ _ _ _ _ _ _ _ _ _ _ _ _ _ _ _ _ _ _ _ _ _
 72
    65
 73
     2
 40
0.375
 49
0.25
 49
-0.125
  0
ENDTAB
  0
TABLE
  2
LAYER
 70
    11
  0
LAYER
  2
0
 70
     0
 62
     7
  6
CONTINUOUS
  0
LAYER
  2
VOLL
 70
     0
 62
     1
  6
CONTINUOUS
  0
LAYER
  2
STEMPEL
 70
     0
 62
     3
  6
CONTINUOUS
  0
LAYER
  2
DEFPOINTS
 70
     0
 62
     7
  6
CONTINUOUS
  0
ENDTAB
  0
TABLE
  2
STYLE
 70
     2
  0
STYLE
  2
STANDARD
 70
     0
 40
0.0
 41
0.8
 50
0.0
 71
     0
 42
3.5
  3
simplex.shx
  4

  0
STYLE
  2
GREEKS
 70
     0
 40
0.0
 41
0.8
 50
0.0
 71
     0
 42
2.5
  3
SIMPLEX.shx
  4

  0
ENDTAB
  0
TABLE
  2
VIEW
 70
     1
  0
ENDTAB
  0
TABLE
  2
UCS
 70
     0
  0
ENDTAB
  0
TABLE
  2
APPID
 70
    10
  0
APPID
  2
ACAD
 70
     0
  0
APPID
  2
ACAD_NAV_VCDISPLAY
 70
     0
  0
APPID
  2
ACAD_PSEXT
 70
     0
  0
APPID
  2
ACAECLAYERSTANDARD
 70
     0
  0
APPID
  2
ACCMTRANSPARENCY
 70
     0
  0
APPID
  2
ACAD_STEPID
 70
     0
  0
APPID
  2
ACAD_EXEMPT_FROM_CAD_STANDARDS
 70
     0
  0
APPID
  2
ACAD_MLEADERVER
 70
     0
  0
APPID
  2
ACAD_OBJECT_CHANGE_GUID
 70
     0
  0
APPID
  2
ACADANNOMONITORALERTICONDI
 70
     0
  0
ENDTAB
  0
TABLE
  2
DIMSTYLE
 70
     2
  0
DIMSTYLE
  2
STANDARD
 70
     0
  3

  4

  5

  6

  7

 40
1.0
 41
0.18
 42
0.0625
 43
0.38
 44
0.18
 45
0.0
 46
0.0
 47
0.0
 48
0.0
140
0.18
141
0.09
142
0.0
143
25.3999999999999986
144
1.0
145
0.0
146
1.0
147
0.09
 71
     0
 72
     0
 73
     1
 74
     1
 75
     0
 76
     0
 77
     0
 78
     0
170
     0
171
     2
172
     0
173
     0
174
     0
175
     0
176
     0
177
     0
178
     0
  0
ENDTAB
  0
ENDSEC
  0
SECTION
  2
BLOCKS
  0
BLOCK
  8
0
  2
$MODEL_SPACE
 70
     0
 10
0.0
 20
0.0
 30
0.0
  3
$MODEL_SPACE
  1

  0
ENDBLK
  5
36
  8
0
  0
BLOCK
 67
     1
  8
0
  2
$PAPER_SPACE
 70
     0
 10
0.0
 20
0.0
 30
0.0
  3
$PAPER_SPACE
  1

  0
ENDBLK
  5
34
 67
     1
  8
0
  0
BLOCK
  8
0
  2
A$C44975DD4
 70
     0
 10
0.0
 20
0.0
 30
0.0
  3
A$C44975DD4
  1

  0
LINE
  5
2659
  8
0
  6
CONTINUOUS
 62
     3
 10
-15.3090940417266701
 20
56.9792211215770124
 30
0.0
 11
-41.6909059582732198
 21
41.7476749098488327
 31
0.0
  0
LINE
  5
265A
  8
0
  6
CONTINUOUS
 62
     3
 10
-56.9999999999998792
 20
15.2315462117283609
 30
0.0
 11
-57.0
 21
-15.2315462117279292
 31
0.0
  0
LINE
  5
265B
  8
0
  6
CONTINUOUS
 62
     3
 10
57.0
 20
-15.2315462117279292
 30
0.0
 11
57.0
 21
15.2315462117279008
 31
0.0
  0
LINE
  5
265C
  8
0
  6
CONTINUOUS
 62
     3
 10
-41.6909059582728716
 20
-41.7476749098490032
 30
0.0
 11
-15.3090940417268904
 21
-56.9792211215768276
 31
0.0
  0
CIRCLE
  5
265D
  8
0
  6
CONTINUOUS
 62
     3
 10
0.0
 20
0.0000000000000034
 30
0.0
 40
61.0
  0
CIRCLE
  5
265E
  8
0
  6
CONTINUOUS
 62
     3
 10
0.0
 20
0.0000000000000034
 30
0.0
 40
59.0000000000001066
  0
LINE
  5
265F
  8
0
  6
CONTINUOUS
 62
     3
 10
24.6914264549235405
 20
-45.7668051312775717
 30
0.0
 11
17.6914264549235405
 21
-33.6424494782955321
 31
0.0
  0
LINE
  5
2660
  8
0
  6
CONTINUOUS
 62
     3
 10
27.2895026662766895
 20
-44.2668051312775219
 30
0.0
 11
24.6914264549234304
 21
-45.7668051312775219
 31
0.0
  0
LINE
  5
2661
  8
0
  6
CONTINUOUS
 62
     3
 10
20.2895026662766895
 20
-32.1424494782955321
 30
0.0
 11
27.2895026662766895
 21
-44.2668051312775788
 31
0.0
  0
LINE
  5
2662
  8
0
  6
CONTINUOUS
 62
     3
 10
20.2895026662766895
 20
-32.1424494782955321
 30
0.0
 11
17.6914264549234304
 21
-33.6424494782955321
 31
0.0
  0
LINE
  5
2663
  8
0
  6
CONTINUOUS
 62
     3
 10
17.6914264549234304
 20
-33.6424494782954397
 30
0.0
 11
14.1914264549234304
 21
-27.5802716518043702
 31
0.0
  0
LINE
  5
2664
  8
0
  6
CONTINUOUS
 62
     3
 10
16.7895026662766895
 20
-26.0802716518043596
 30
0.0
 11
20.2895026662766895
 21
-32.1424494782954397
 31
0.0
  0
LINE
  5
2665
  8
0
  6
CONTINUOUS
 62
     3
 10
16.7895026662766895
 20
-26.0802716518043596
 30
0.0
 11
14.1914264549234304
 21
-27.5802716518043702
 31
0.0
  0
LINE
  5
2666
  8
0
  6
CONTINUOUS
 62
     3
 10
30.7895026662766895
 20
-50.3289829577684529
 30
0.0
 11
28.1914264549234304
 21
-51.82898295776846
 31
0.0
  0
LINE
  5
2667
  8
0
  6
CONTINUOUS
 62
     3
 10
28.1914264549233202
 20
-51.8289829577684813
 30
0.0
 11
24.6914264549233202
 21
-45.7668051312774011
 31
0.0
  0
LINE
  5
2668
  8
0
  6
CONTINUOUS
 62
     3
 10
27.2895026662766895
 20
-44.2668051312775219
 30
0.0
 11
30.7895026662766895
 21
-50.3289829577686021
 31
0.0
  0
LINE
  5
2669
  8
0
  6
CONTINUOUS
 62
     3
 10
24.6914264549235405
 20
45.7668051312776285
 30
0.0
 11
17.6914264549235405
 21
33.642449478295589
 31
0.0
  0
LINE
  5
266A
  8
0
  6
CONTINUOUS
 62
     3
 10
20.2895026662766895
 20
32.142449478295589
 30
0.0
 11
17.6914264549234304
 21
33.642449478295589
 31
0.0
  0
LINE
  5
266B
  8
0
  6
CONTINUOUS
 62
     3
 10
20.2895026662766895
 20
32.142449478295589
 30
0.0
 11
27.2895026662766895
 21
44.2668051312776285
 31
0.0
  0
LINE
  5
266C
  8
0
  6
CONTINUOUS
 62
     3
 10
27.2895026662766895
 20
44.266805131277458
 30
0.0
 11
24.6914264549234304
 21
45.7668051312774722
 31
0.0
  0
LINE
  5
266D
  8
0
  6
CONTINUOUS
 62
     3
 10
17.6914264549234304
 20
33.64244947829539
 30
0.0
 11
14.1914264549234304
 21
27.5802716518043098
 31
0.0
  0
LINE
  5
266E
  8
0
  6
CONTINUOUS
 62
     3
 10
16.7895026662766895
 20
26.0802716518043098
 30
0.0
 11
14.1914264549234304
 21
27.5802716518043098
 31
0.0
  0
LINE
  5
266F
  8
0
  6
CONTINUOUS
 62
     3
 10
16.7895026662766895
 20
26.0802716518043098
 30
0.0
 11
20.2895026662766895
 21
32.14244947829539
 31
0.0
  0
LINE
  5
2670
  8
0
  6
CONTINUOUS
 62
     3
 10
30.7895026662766895
 20
50.3289829577685168
 30
0.0
 11
28.1914264549234304
 21
51.8289829577685097
 31
0.0
  0
LINE
  5
2671
  8
0
  6
CONTINUOUS
 62
     3
 10
28.1914264549233202
 20
51.8289829577685381
 30
0.0
 11
24.6914264549233202
 21
45.7668051312774722
 31
0.0
  0
LINE
  5
2672
  8
0
  6
CONTINUOUS
 62
     3
 10
27.2895026662766895
 20
44.266805131277458
 30
0.0
 11
30.7895026662766895
 21
50.328982957768531
 31
0.0
  0
ARC
  5
2673
  8
0
  6
CONTINUOUS
 62
     3
 10
0.0
 20
-0.0000000000000176
 30
0.0
 40
50.1871728448123804
 50
180.0
 51
298.2872820859324179
  0
ARC
  5
2674
  8
0
  6
CONTINUOUS
 62
     3
 10
0.0
 20
-0.0000000000000105
 30
0.0
 40
50.1871728448123804
 50
301.7127179140675821
 51
58.287282085932361
  0
ARC
  5
2675
  8
0
  6
CONTINUOUS
 62
     3
 10
0.0
 20
-0.0000000000000069
 30
0.0
 40
50.1871728448123804
 50
61.7127179140675608
 51
180.0
  0
ARC
  5
2676
  8
0
  6
CONTINUOUS
 62
     3
 10
0.0
 20
-0.0000000000000033
 30
0.0
 40
48.9736473532500369
 50
180.0
 51
298.2448292674499726
  0
ARC
  5
2677
  8
0
  6
CONTINUOUS
 62
     3
 10
0.0
 20
-0.0000000000000104
 30
0.0
 40
48.9736473532500369
 50
301.7551707325500843
 51
58.2448292674499513
  0
ARC
  5
2678
  8
0
  6
CONTINUOUS
 62
     3
 10
0.0
 20
0.0000000000000002
 30
0.0
 40
48.9736473532500369
 50
61.755170732549999
 51
180.0
  0
ARC
  5
2679
  8
0
  6
CONTINUOUS
 62
     3
 10
0.0
 20
0.0000000000000023
 30
0.0
 40
34.8999999999999773
 50
180.0
 51
297.5366718750246946
  0
ARC
  5
267A
  8
0
  6
CONTINUOUS
 62
     3
 10
0.0
 20
-0.0000000000000119
 30
0.0
 40
34.8999999999999773
 50
302.4633281249754191
 51
57.5366718750246591
  0
ARC
  5
267B
  8
0
  6
CONTINUOUS
 62
     3
 10
0.0
 20
-0.0000000000000297
 30
0.0
 40
34.8999999999999915
 50
62.4633281249751988
 51
180.0
  0
ARC
  5
267C
  8
0
  6
CONTINUOUS
 62
     3
 10
0.0
 20
-0.0000000000000318
 30
0.0
 40
34.3818495990034876
 50
180.0
 51
297.4995249682738745
  0
ARC
  5
267D
  8
0
  6
CONTINUOUS
 62
     3
 10
0.0000000000001137
 20
-0.0000000000000193
 30
0.0
 40
34.3818495990034165
 50
302.5004750317261255
 51
57.4995249682738816
  0
ARC
  5
267E
  8
0
  6
CONTINUOUS
 62
     3
 10
0.0
 20
0.0000000000000091
 30
0.0
 40
34.3818495990034592
 50
62.5004750317261326
 51
180.0
  0
LINE
  5
267F
  8
0
  6
VERDECKT
 62
     1
 10
-59.0
 20
15.4919333848295704
 30
0.0
 11
-59.0
 21
0.0000000000000036
 31
0.0
  0
LINE
  5
2680
  8
0
  6
VERDECKT
 62
     1
 10
-59.0
 20
0.0000000000000029
 30
0.0
 11
-59.0
 21
-15.4919333848295704
 31
0.0
  0
LINE
  5
2681
  8
0
  6
VERDECKT
 62
     1
 10
58.9999999999998792
 20
-15.4919333848299807
 30
0.0
 11
59.0
 21
-0.0000000000002132
 31
0.0
  0
LINE
  5
2682
  8
0
  6
VERDECKT
 62
     1
 10
59.0
 20
-0.0000000000002138
 30
0.0
 11
59.0
 21
15.4919333848295295
 31
0.0
  0
LINE
  5
2683
  8
0
  6
VERDECKT
 62
     1
 10
-16.0835921350005684
 20
58.8414655156969033
 30
0.0
 11
-29.4999999999998792
 21
51.0954988232817513
 31
0.0
  0
LINE
  5
2684
  8
0
  6
VERDECKT
 62
     1
 10
-29.4999999999998792
 20
51.0954988232817513
 30
0.0
 11
-42.9164078649992007
 21
43.3495321308665922
 31
0.0
  0
LINE
  5
2685
  8
0
  6
VERDECKT
 62
     1
 10
-42.916407864998753
 20
-43.3495321308668977
 30
0.0
 11
-29.4999999999998792
 21
-51.0954988232817726
 31
0.0
  0
LINE
  5
2686
  8
0
  6
VERDECKT
 62
     1
 10
-29.4999999999998792
 20
-51.0954988232817726
 30
0.0
 11
-16.0835921350011404
 21
-58.8414655156965978
 31
0.0
  0
LINE
  5
2687
  8
0
  6
VERDECKT
 62
     1
 10
29.7895026662766895
 20
-48.5969321501997271
 30
0.0
 11
27.1914264549234304
 21
-50.0969321501997271
 31
0.0
  0
LINE
  5
2688
  8
0
  6
VERDECKT
 62
     1
 10
29.7895026662766895
 20
48.5969321501996774
 30
0.0
 11
27.1914264549234304
 21
50.0969321501996774
 31
0.0
  0
CIRCLE
  5
2689
  8
0
  6
VERDECKT
 62
     1
 10
0.0
 20
-0.000000000000014
 30
0.0
 40
35.8875793553185076
  0
CIRCLE
  5
268A
  8
0
  6
VERDECKT
 62
     1
 10
0.0
 20
-0.0000000000000119
 30
0.0
 40
36.5000000000000568
  0
ARC
  5
268B
  8
0
  6
VERDECKT
 62
     1
 10
0.000000000018872
 20
-0.0000000000328091
 30
0.0
 40
50.1871728447745369
 50
298.287282085931281
 51
301.7127179140690032
  0
ARC
  5
268C
  8
0
  6
VERDECKT
 62
     1
 10
0.000000000018872
 20
0.0000000000327953
 30
0.0
 40
50.1871728447745511
 50
58.287282085931011
 51
61.7127179140687687
  0
ARC
  5
268D
  8
0
  6
VERDECKT
 62
     1
 10
-0.0000000000019327
 20
0.0000000000030378
 30
0.0
 40
48.9736473532536465
 50
298.2448292674503136
 51
301.7551707325500843
  0
ARC
  5
268E
  8
0
  6
VERDECKT
 62
     1
 10
-0.0000000000053433
 20
-0.0000000000087714
 30
0.0
 40
48.9736473532602972
 50
58.2448292674500365
 51
61.7551707325493595
  0
ARC
  5
268F
  8
0
  6
VERDECKT
 62
     1
 10
0.0000000000022737
 20
-0.0000000000038098
 30
0.0
 40
34.8999999999955577
 50
297.5366718750244104
 51
302.4633281249755896
  0
ARC
  5
2690
  8
0
  6
VERDECKT
 62
     1
 10
0.0000000000013642
 20
0.000000000002308
 30
0.0
 40
34.8999999999972772
 50
57.5366718750245028
 51
62.463328124975412
  0
ARC
  5
2691
  8
0
  6
VERDECKT
 62
     1
 10
-0.0000000000029559
 20
0.0000000000050415
 30
0.0
 40
34.3818495990093282
 50
297.4995249682742724
 51
302.5004750317258981
  0
ARC
  5
2692
  8
0
  6
VERDECKT
 62
     1
 10
-0.0000000000005684
 20
-0.0000000000009093
 30
0.0
 40
34.3818495990045392
 50
57.4995249682737182
 51
62.5004750317259905
  0
CIRCLE
  5
2693
  8
0
  6
VERDECKT
 62
     1
 10
0.0
 20
-0.0000000000000108
 30
0.0
 40
48.9999999999999503
  0
CIRCLE
  5
2694
  8
0
  6
VERDECKT
 62
     1
 10
0.0
 20
-0.0000000000000108
 30
0.0
 40
51.0
  0
ENDBLK
  5
2696
  8
0
  0
BLOCK
  8
0
  2
A$C36737B92
 70
     0
 10
0.0
 20
0.0
 30
0.0
  3
A$C36737B92
  1

  0
LINE
  5
269A
  8
0
  6
CONTINUOUS
 62
     3
 10
61.0000000000003268
 20
90.0000000000000142
 30
-0.00000000000002
 11
-61.0000000000003268
 21
90.0000000000000142
 31
-0.00000000000002
210
0.0
220
1.0
230
-0.0000000000000002
  0
LINE
  5
269B
  8
0
  6
CONTINUOUS
 62
     3
 10
-59.0
 20
112.0
 30
-0.0000000000000249
 11
-59.0
 21
105.0
 31
-0.0000000000000233
210
0.0
220
1.0
230
-0.0000000000000002
  0
LINE
  5
269C
  8
0
  6
CONTINUOUS
 62
     3
 10
-61.0000000000003268
 20
105.0
 30
-0.0000000000000233
 11
-59.0000000000003411
 21
105.0
 31
-0.0000000000000233
210
0.0
220
1.0
230
-0.0000000000000002
  0
LINE
  5
269D
  8
0
  6
CONTINUOUS
 62
     3
 10
-59.0000000000003411
 20
112.0
 30
-0.0000000000000249
 11
-61.0000000000003411
 21
112.0
 31
-0.0000000000000249
210
0.0
220
1.0
230
-0.0000000000000002
  0
LINE
  5
269E
  8
0
  6
CONTINUOUS
 62
     3
 10
58.9999999999997726
 20
105.0
 30
-0.0000000000000233
 11
58.9999999999997726
 21
112.0
 31
-0.0000000000000249
210
0.0
220
1.0
230
-0.0000000000000002
  0
LINE
  5
269F
  8
0
  6
CONTINUOUS
 62
     3
 10
59.0000000000002274
 20
105.0
 30
-0.0000000000000233
 11
61.0000000000003411
 21
105.0
 31
-0.0000000000000233
210
0.0
220
1.0
230
-0.0000000000000002
  0
LINE
  5
26A0
  8
0
  6
CONTINUOUS
 62
     3
 10
61.0000000000003411
 20
112.0
 30
-0.0000000000000249
 11
59.0000000000002274
 21
112.0
 31
-0.0000000000000249
210
0.0
220
1.0
230
-0.0000000000000002
  0
LINE
  5
26A1
  8
0
  6
CONTINUOUS
 62
     3
 10
-42.9164078650003376
 20
105.0
 30
-0.0000000000000233
 11
-42.9164078650003376
 21
112.0
 31
-0.0000000000000249
210
0.0
220
1.0
230
-0.0000000000000002
  0
LINE
  5
26A2
  8
0
  6
CONTINUOUS
 62
     3
 10
-16.0835921349994315
 20
112.0
 30
-0.0000000000000249
 11
-16.0835921349994315
 21
105.0
 31
-0.0000000000000233
210
0.0
220
1.0
230
-0.0000000000000002
  0
LINE
  5
26A3
  8
0
  6
CONTINUOUS
 62
     3
 10
-16.0835921350012612
 20
112.0
 30
-0.0000000000000249
 11
-42.9164078649990799
 21
112.0
 31
-0.0000000000000249
210
0.0
220
1.0
230
-0.0000000000000002
  0
LINE
  5
26A4
  8
0
  6
CONTINUOUS
 62
     3
 10
-42.916407864999087
 20
105.0
 30
-0.0000000000000233
 11
-16.0835921350012505
 21
105.0
 31
-0.0000000000000233
210
0.0
220
1.0
230
-0.0000000000000002
  0
LINE
  5
26A5
  8
0
  6
CONTINUOUS
 62
     3
 10
-61.0
 20
120.0
 30
-0.0000000000000266
 11
61.0
 21
120.0
 31
-0.0000000000000266
210
0.0
220
1.0
230
-0.0000000000000002
  0
LINE
  5
26A6
  8
0
  6
CONTINUOUS
 62
     3
 10
61.0000000000003411
 20
120.0
 30
-0.0000000000000266
 11
61.0000000000003411
 21
112.0
 31
-0.0000000000000249
210
0.0
220
1.0
230
-0.0000000000000002
  0
LINE
  5
26A7
  8
0
  6
CONTINUOUS
 62
     3
 10
61.0000000000003411
 20
105.0
 30
-0.0000000000000233
 11
61.0000000000003411
 21
90.0000000000000142
 31
-0.00000000000002
210
0.0
220
1.0
230
-0.0000000000000002
  0
LINE
  5
26A8
  8
0
  6
CONTINUOUS
 62
     3
 10
-61.0000000000003411
 20
120.0
 30
-0.0000000000000266
 11
-61.0000000000003411
 21
112.0
 31
-0.0000000000000249
210
0.0
220
1.0
230
-0.0000000000000002
  0
LINE
  5
26A9
  8
0
  6
CONTINUOUS
 62
     3
 10
-61.0000000000003411
 20
105.0
 30
-0.0000000000000233
 11
-61.0000000000003411
 21
90.0000000000000142
 31
-0.00000000000002
210
0.0
220
1.0
230
-0.0000000000000002
  0
LINE
  5
26AA
  8
0
  6
CONTINUOUS
 62
     3
 10
-61.0000000000003268
 20
90.0000000000000142
 30
-0.00000000000002
 11
61.0000000000003268
 21
90.0000000000000142
 31
-0.00000000000002
210
0.0
220
1.0
230
-0.0000000000000002
  0
LINE
  5
26AB
  8
0
  6
CONTINUOUS
 62
     3
 10
-51.0
 20
0.0
 30
0.0
 11
51.0
 21
0.0
 31
0.0
210
0.0
220
1.0
230
-0.0000000000000002
  0
LINE
  5
26AC
  8
0
  6
CONTINUOUS
 62
     3
 10
61.0000000000001208
 20
90.0000000000000142
 30
-0.00000000000002
 11
61.0000000000001208
 21
81.6681164997397673
 31
-0.0000000000000181
210
0.0
220
1.0
230
-0.0000000000000002
  0
LINE
  5
26AD
  8
0
  6
CONTINUOUS
 62
     3
 10
-61.0000000000001208
 20
90.0000000000000142
 30
-0.00000000000002
 11
-61.0000000000001208
 21
81.6681164997397673
 31
-0.0000000000000181
210
0.0
220
1.0
230
-0.0000000000000002
  0
ARC
  5
26AE
  8
0
  6
CONTINUOUS
 62
     3
 10
46.9999999999993321
 20
81.6681164997397673
 30
0.0
 40
14.0000000000006004
210
0.0
220
-0.0000000000000002
230
-1.0
 50
336.2473682960912242
 51
0.0
  0
ARC
  5
26AF
  8
0
  6
CONTINUOUS
 62
     3
 10
-46.9999999999993321
 20
81.6681164997397673
 30
0.0
 40
14.0000000000006093
210
0.0
220
-0.0000000000000002
230
-1.0
 50
180.0
 51
203.7526317039088042
  0
LINE
  5
26B0
  8
0
  6
CONTINUOUS
 62
     3
 10
-52.0164842491923025
 20
58.3098483750781611
 30
-0.0000000000000129
 11
-59.8141017092756471
 21
76.0290742597543954
 31
-0.0000000000000169
210
0.0
220
1.0
230
-0.0000000000000002
  0
LINE
  5
26B1
  8
0
  6
CONTINUOUS
 62
     3
 10
52.0164842491923025
 20
58.3098483750781611
 30
-0.0000000000000129
 11
59.8141017092756471
 21
76.0290742597543954
 31
-0.0000000000000169
210
0.0
220
1.0
230
-0.0000000000000002
  0
ARC
  5
26B2
  8
0
  6
CONTINUOUS
 62
     3
 10
63.0000000000017266
 20
53.4763835979475886
 30
0.0
 40
12.0000000000017195
210
0.0
220
-0.0000000000000002
230
-1.0
 50
156.2473682960921906
 51
179.9999999999986073
  0
ARC
  5
26B3
  8
0
  6
CONTINUOUS
 62
     3
 10
-63.0000000000017124
 20
53.4763835979475886
 30
0.0
 40
12.0000000000017106
210
0.0
220
-0.0000000000000002
230
-1.0
 50
0.0000000000013231
 51
23.7526317039077703
  0
LINE
  5
26B4
  8
0
  6
CONTINUOUS
 62
     3
 10
51.0
 20
53.4763835979478728
 30
-0.0000000000000119
 11
51.0
 21
0.0
 31
0.0
210
0.0
220
1.0
230
-0.0000000000000002
  0
LINE
  5
26B5
  8
0
  6
CONTINUOUS
 62
     3
 10
-51.0
 20
53.4763835979478728
 30
-0.0000000000000119
 11
-51.0
 21
0.0
 31
0.0
210
0.0
220
1.0
230
-0.0000000000000002
  0
LINE
  5
26B6
  8
0
  6
VERDECKT
 62
     1
 10
-57.0
 20
105.0
 30
-0.0000000000000233
 11
-57.0
 21
112.0
 31
-0.0000000000000249
210
0.0
220
1.0
230
-0.0000000000000002
  0
LINE
  5
26B7
  8
0
  6
VERDECKT
 62
     1
 10
-57.0000000000001066
 20
105.0
 30
-0.0000000000000233
 11
-59.0000000000001066
 21
105.0
 31
-0.0000000000000233
210
0.0
220
1.0
230
-0.0000000000000002
  0
LINE
  5
26B8
  8
0
  6
VERDECKT
 62
     1
 10
-59.0000000000001066
 20
112.0
 30
-0.0000000000000249
 11
-57.0000000000001066
 21
112.0
 31
-0.0000000000000249
210
0.0
220
1.0
230
-0.0000000000000002
  0
LINE
  5
26B9
  8
0
  6
VERDECKT
 62
     1
 10
57.0
 20
112.0
 30
-0.0000000000000249
 11
57.0
 21
105.0
 31
-0.0000000000000233
210
0.0
220
1.0
230
-0.0000000000000002
  0
LINE
  5
26BA
  8
0
  6
VERDECKT
 62
     1
 10
59.0000000000001066
 20
105.0
 30
-0.0000000000000233
 11
57.0000000000001066
 21
105.0
 31
-0.0000000000000233
210
0.0
220
1.0
230
-0.0000000000000002
  0
LINE
  5
26BB
  8
0
  6
VERDECKT
 62
     1
 10
57.0000000000001208
 20
112.0
 30
-0.0000000000000249
 11
59.0000000000001066
 21
112.0
 31
-0.0000000000000249
210
0.0
220
1.0
230
-0.0000000000000002
  0
LINE
  5
26BC
  8
0
  6
VERDECKT
 62
     1
 10
-15.3090940417259809
 20
105.0
 30
-0.0000000000000233
 11
-15.3090940417259809
 21
112.0
 31
-0.0000000000000249
210
0.0
220
1.0
230
-0.0000000000000002
  0
LINE
  5
26BD
  8
0
  6
VERDECKT
 62
     1
 10
-41.6909059582735608
 20
112.0
 30
-0.0000000000000249
 11
-41.6909059582735608
 21
105.0
 31
-0.0000000000000233
210
0.0
220
1.0
230
-0.0000000000000002
  0
LINE
  5
26BE
  8
0
  6
VERDECKT
 62
     1
 10
-16.0835921350011404
 20
112.0
 30
-0.0000000000000249
 11
-15.3090940417270094
 21
112.0
 31
-0.0000000000000249
210
0.0
220
1.0
230
-0.0000000000000002
  0
LINE
  5
26BF
  8
0
  6
VERDECKT
 62
     1
 10
-15.3090940417270005
 20
105.0
 30
-0.0000000000000233
 11
-16.0835921350011297
 21
105.0
 31
-0.0000000000000233
210
0.0
220
1.0
230
-0.0000000000000002
  0
LINE
  5
26C0
  8
0
  6
VERDECKT
 62
     1
 10
59.0000000000001066
 20
120.0
 30
-0.0000000000000266
 11
59.0000000000001066
 21
112.0
 31
-0.0000000000000249
210
0.0
220
1.0
230
-0.0000000000000002
  0
LINE
  5
26C1
  8
0
  6
VERDECKT
 62
     1
 10
59.0000000000001066
 20
105.0
 30
-0.0000000000000233
 11
59.0000000000001066
 21
90.0000000000000142
 31
-0.00000000000002
210
0.0
220
1.0
230
-0.0000000000000002
  0
LINE
  5
26C2
  8
0
  6
VERDECKT
 62
     1
 10
-59.0000000000001066
 20
120.0
 30
-0.0000000000000266
 11
-59.0000000000001066
 21
112.0
 31
-0.0000000000000249
210
0.0
220
1.0
230
-0.0000000000000002
  0
LINE
  5
26C3
  8
0
  6
VERDECKT
 62
     1
 10
-59.0000000000001066
 20
105.0
 30
-0.0000000000000233
 11
-59.0000000000001066
 21
90.0000000000000142
 31
-0.00000000000002
210
0.0
220
1.0
230
-0.0000000000000002
  0
LINE
  5
26C4
  8
0
  6
VERDECKT
 62
     1
 10
24.6914264549235405
 20
112.0
 30
-0.0000000000000249
 11
17.6914264549235405
 21
107.0
 31
-0.0000000000000238
210
0.0
220
1.0
230
-0.0000000000000002
  0
LINE
  5
26C5
  8
0
  6
VERDECKT
 62
     1
 10
20.2895026662766895
 20
107.0
 30
-0.0000000000000238
 11
27.2895026662766895
 21
112.0
 31
-0.0000000000000249
210
0.0
220
1.0
230
-0.0000000000000002
  0
LINE
  5
26C6
  8
0
  6
VERDECKT
 62
     1
 10
20.2895026662766895
 20
107.0
 30
-0.0000000000000238
 11
17.6914264549234304
 21
107.0
 31
-0.0000000000000238
210
0.0
220
1.0
230
-0.0000000000000002
  0
LINE
  5
26C7
  8
0
  6
VERDECKT
 62
     1
 10
17.6914264549234304
 20
107.0
 30
-0.0000000000000238
 11
14.1914264549234304
 21
107.0000000000000995
 31
-0.0000000000000238
210
0.0
220
1.0
230
-0.0000000000000002
  0
LINE
  5
26C8
  8
0
  6
VERDECKT
 62
     1
 10
14.1914264549235405
 20
107.0000000000000995
 30
-0.0000000000000238
 11
14.1914264549235405
 21
99.8000000000002103
 31
-0.0000000000000222
210
0.0
220
1.0
230
-0.0000000000000002
  0
LINE
  5
26C9
  8
0
  6
VERDECKT
 62
     1
 10
16.7895026662766895
 20
99.8000000000001108
 30
-0.0000000000000222
 11
16.7895026662766895
 21
107.0
 31
-0.0000000000000238
210
0.0
220
1.0
230
-0.0000000000000002
  0
LINE
  5
26CA
  8
0
  6
VERDECKT
 62
     1
 10
14.1914264549234304
 20
99.8000000000002103
 30
-0.0000000000000222
 11
17.6914264549235405
 21
99.8000000000002103
 31
-0.0000000000000222
210
0.0
220
1.0
230
-0.0000000000000002
  0
LINE
  5
26CB
  8
0
  6
VERDECKT
 62
     1
 10
20.2895026662767997
 20
99.8000000000002103
 30
-0.0000000000000222
 11
17.6914264549235405
 21
99.8000000000002103
 31
-0.0000000000000222
210
0.0
220
1.0
230
-0.0000000000000002
  0
LINE
  5
26CC
  8
0
  6
VERDECKT
 62
     1
 10
17.6914264549233202
 20
99.800000000000324
 30
-0.0000000000000222
 11
24.6914264549233202
 21
94.8000000000002956
 31
-0.000000000000021
210
0.0
220
1.0
230
-0.0000000000000002
  0
LINE
  5
26CD
  8
0
  6
VERDECKT
 62
     1
 10
27.2895026662766895
 20
94.8000000000000966
 30
-0.000000000000021
 11
20.2895026662766895
 21
99.8000000000001108
 31
-0.0000000000000222
210
0.0
220
1.0
230
-0.0000000000000002
  0
LINE
  5
26CE
  8
0
  6
VERDECKT
 62
     1
 10
24.6914264549233202
 20
94.8000000000001961
 30
-0.000000000000021
 11
28.1914264549233202
 21
94.8000000000000966
 31
-0.000000000000021
210
0.0
220
1.0
230
-0.0000000000000002
  0
LINE
  5
26CF
  8
0
  6
VERDECKT
 62
     1
 10
30.7895026662765794
 20
94.8000000000000966
 30
-0.000000000000021
 11
28.1914264549233202
 21
94.8000000000000966
 31
-0.000000000000021
210
0.0
220
1.0
230
-0.0000000000000002
  0
LINE
  5
26D0
  8
0
  6
VERDECKT
 62
     1
 10
28.1914264549233202
 20
94.7999999999999545
 30
-0.000000000000021
 11
28.1914264549233202
 21
97.2999999999999829
 31
-0.0000000000000216
210
0.0
220
1.0
230
-0.0000000000000002
  0
LINE
  5
26D1
  8
0
  6
VERDECKT
 62
     1
 10
30.7895026662765794
 20
97.3000000000001108
 30
-0.0000000000000216
 11
30.7895026662765794
 21
94.8000000000000966
 31
-0.000000000000021
210
0.0
220
1.0
230
-0.0000000000000002
  0
LINE
  5
26D2
  8
0
  6
VERDECKT
 62
     1
 10
30.7895026662765794
 20
97.3000000000001108
 30
-0.0000000000000216
 11
28.1914264549233202
 21
97.3000000000001108
 31
-0.0000000000000216
210
0.0
220
1.0
230
-0.0000000000000002
  0
LINE
  5
26D3
  8
0
  6
VERDECKT
 62
     1
 10
28.1914264549233202
 20
97.3000000000001108
 30
-0.0000000000000216
 11
27.1914264549233202
 21
98.4547005383793987
 31
-0.0000000000000219
210
0.0
220
1.0
230
-0.0000000000000002
  0
LINE
  5
26D4
  8
0
  6
VERDECKT
 62
     1
 10
29.7895026662766895
 20
98.4547005383793987
 30
-0.0000000000000219
 11
30.7895026662766895
 21
97.3000000000001108
 31
-0.0000000000000216
210
0.0
220
1.0
230
-0.0000000000000002
  0
LINE
  5
26D5
  8
0
  6
VERDECKT
 62
     1
 10
29.7895026662766895
 20
98.4547005383793987
 30
-0.0000000000000219
 11
27.1914264549234304
 21
98.4547005383793987
 31
-0.0000000000000219
210
0.0
220
1.0
230
-0.0000000000000002
  0
LINE
  5
26D6
  8
0
  6
VERDECKT
 62
     1
 10
27.1914264549233202
 20
98.4547005383793987
 30
-0.0000000000000219
 11
27.1914264549233202
 21
108.3452994616207974
 31
-0.0000000000000241
210
0.0
220
1.0
230
-0.0000000000000002
  0
LINE
  5
26D7
  8
0
  6
VERDECKT
 62
     1
 10
29.7895026662766895
 20
108.3452994616206979
 30
-0.0000000000000241
 11
29.7895026662766895
 21
98.454700538379285
 31
-0.0000000000000219
210
0.0
220
1.0
230
-0.0000000000000002
  0
LINE
  5
26D8
  8
0
  6
VERDECKT
 62
     1
 10
29.7895026662766895
 20
108.3452994616206979
 30
-0.0000000000000241
 11
27.1914264549234304
 21
108.3452994616206979
 31
-0.0000000000000241
210
0.0
220
1.0
230
-0.0000000000000002
  0
LINE
  5
26D9
  8
0
  6
VERDECKT
 62
     1
 10
27.1914264549233202
 20
108.3452994616207974
 30
-0.0000000000000241
 11
28.1914264549233202
 21
109.5000000000000995
 31
-0.0000000000000243
210
0.0
220
1.0
230
-0.0000000000000002
  0
LINE
  5
26DA
  8
0
  6
VERDECKT
 62
     1
 10
30.7895026662766895
 20
109.5
 30
-0.0000000000000243
 11
29.7895026662766895
 21
108.3452994616206979
 31
-0.0000000000000241
210
0.0
220
1.0
230
-0.0000000000000002
  0
LINE
  5
26DB
  8
0
  6
VERDECKT
 62
     1
 10
30.7895026662766895
 20
109.5
 30
-0.0000000000000243
 11
28.1914264549234304
 21
109.5
 31
-0.0000000000000243
210
0.0
220
1.0
230
-0.0000000000000002
  0
LINE
  5
26DC
  8
0
  6
VERDECKT
 62
     1
 10
28.1914264549233202
 20
109.5000000000000995
 30
-0.0000000000000243
 11
28.1914264549233202
 21
112.0000000000000995
 31
-0.0000000000000249
210
0.0
220
1.0
230
-0.0000000000000002
  0
LINE
  5
26DD
  8
0
  6
VERDECKT
 62
     1
 10
30.7895026662766895
 20
112.0
 30
-0.0000000000000249
 11
30.7895026662766895
 21
109.5
 31
-0.0000000000000243
210
0.0
220
1.0
230
-0.0000000000000002
  0
LINE
  5
26DE
  8
0
  6
VERDECKT
 62
     1
 10
30.7895026662766895
 20
112.0
 30
-0.0000000000000249
 11
28.1914264549234304
 21
112.0
 31
-0.0000000000000249
210
0.0
220
1.0
230
-0.0000000000000002
  0
LINE
  5
26DF
  8
0
  6
VERDECKT
 62
     1
 10
28.1914264549233202
 20
112.0000000000000995
 30
-0.0000000000000249
 11
24.6914264549233202
 21
112.0
 31
-0.0000000000000249
210
0.0
220
1.0
230
-0.0000000000000002
  0
LINE
  5
26E0
  8
0
  6
VERDECKT
 62
     1
 10
35.8875793553185076
 20
2.0
 30
-0.0000000000000004
 11
-35.8875793553185076
 21
2.0
 31
-0.0000000000000004
210
0.0
220
1.0
230
-0.0000000000000002
  0
LINE
  5
26E1
  8
0
  6
VERDECKT
 62
     1
 10
50.1871728448123804
 20
59.1183221215614125
 30
-0.0000000000000131
 11
-50.1871728448123804
 21
59.1183221215614125
 31
-0.0000000000000131
210
0.0
220
1.0
230
-0.0000000000000002
  0
LINE
  5
26E2
  8
0
  6
VERDECKT
 62
     1
 10
48.9736473532500369
 20
60.0000000000000071
 30
-0.0000000000000133
 11
-48.9736473532500369
 21
60.0000000000000071
 31
-0.0000000000000133
210
0.0
220
1.0
230
-0.0000000000000002
  0
LINE
  5
26E3
  8
0
  6
VERDECKT
 62
     1
 10
-35.8875793553185076
 20
2.0
 30
-0.0000000000000004
 11
-36.5
 21
9.0000000000000018
 31
-0.000000000000002
210
0.0
220
1.0
230
-0.0000000000000002
  0
LINE
  5
26E4
  8
0
  6
VERDECKT
 62
     1
 10
35.8875793553185076
 20
2.0
 30
-0.0000000000000004
 11
36.5
 21
9.0000000000000018
 31
-0.000000000000002
210
0.0
220
1.0
230
-0.0000000000000002
  0
LINE
  5
26E5
  8
0
  6
VERDECKT
 62
     1
 10
-36.5
 20
9.0000000000000018
 30
-0.000000000000002
 11
-36.5
 21
36.3805085208028416
 31
-0.0000000000000081
210
0.0
220
1.0
230
-0.0000000000000002
  0
LINE
  5
26E6
  8
0
  6
VERDECKT
 62
     1
 10
36.5
 20
9.0000000000000018
 30
-0.000000000000002
 11
36.5
 21
36.3805085208028416
 31
-0.0000000000000081
210
0.0
220
1.0
230
-0.0000000000000002
  0
ARC
  5
26E7
  8
0
  6
VERDECKT
 62
     1
 10
-48.4999999999993108
 20
36.3805085208030334
 30
0.0
 40
11.9999999999992504
210
0.0
220
-0.0000000000000002
230
-1.0
 50
359.9999999999992042
 51
36.0000000000020677
  0
ARC
  5
26E8
  8
0
  6
VERDECKT
 62
     1
 10
48.4999999999994316
 20
36.3805085208029979
 30
0.0
 40
11.9999999999993694
210
0.0
220
-0.0000000000000002
230
-1.0
 50
143.9999999999980957
 51
180.0000000000007105
  0
LINE
  5
26E9
  8
0
  6
VERDECKT
 62
     1
 10
-38.791796067500762
 20
43.4339315483126427
 30
-0.0000000000000096
 11
-50.187172844812352
 21
59.1183221215614196
 31
-0.0000000000000131
210
0.0
220
1.0
230
-0.0000000000000002
  0
LINE
  5
26EA
  8
0
  6
VERDECKT
 62
     1
 10
38.791796067500762
 20
43.4339315483126427
 30
-0.0000000000000096
 11
50.187172844812352
 21
59.1183221215614196
 31
-0.0000000000000131
210
0.0
220
1.0
230
-0.0000000000000002
  0
LINE
  5
26EB
  8
0
  6
VERDECKT
 62
     1
 10
48.9736473532500369
 20
60.0000000000000071
 30
-0.0000000000000133
 11
50.1871728448123804
 21
59.1183221215614125
 31
-0.0000000000000131
210
0.0
220
1.0
230
-0.0000000000000002
  0
LINE
  5
26EC
  8
0
  6
VERDECKT
 62
     1
 10
-48.9736473532500369
 20
60.0000000000000071
 30
-0.0000000000000133
 11
-50.1871728448123804
 21
59.1183221215614125
 31
-0.0000000000000131
210
0.0
220
1.0
230
-0.0000000000000002
  0
LINE
  5
26ED
  8
0
  6
VERDECKT
 62
     1
 10
-37.4973688765007722
 20
44.2042577903100167
 30
-0.0000000000000098
 11
-48.9736473532500298
 21
60.0000000000000284
 31
-0.0000000000000133
210
0.0
220
1.0
230
-0.0000000000000002
  0
LINE
  5
26EE
  8
0
  6
VERDECKT
 62
     1
 10
37.4973688765007722
 20
44.2042577903100167
 30
-0.0000000000000098
 11
48.9736473532500298
 21
60.0000000000000284
 31
-0.0000000000000133
210
0.0
220
1.0
230
-0.0000000000000002
  0
ARC
  5
26EF
  8
0
  6
VERDECKT
 62
     1
 10
-48.5000000000007674
 20
36.2103783591320578
 30
0.0
 40
13.6000000000007493
210
0.0
220
-0.0000000000000002
230
-1.0
 50
0.0000000000013867
 51
35.9999999999993321
  0
ARC
  5
26F0
  8
0
  6
VERDECKT
 62
     1
 10
48.5000000000007532
 20
36.2103783591320578
 30
0.0
 40
13.6000000000007297
210
0.0
220
-0.0000000000000002
230
-1.0
 50
144.0000000000005969
 51
179.9999999999986073
  0
LINE
  5
26F1
  8
0
  6
VERDECKT
 62
     1
 10
-34.9000000000000412
 20
7.9224861840866661
 30
-0.0000000000000018
 11
-34.9000000000000412
 21
36.2103783591323989
 31
-0.000000000000008
210
0.0
220
1.0
230
-0.0000000000000002
  0
LINE
  5
26F2
  8
0
  6
VERDECKT
 62
     1
 10
34.9000000000000412
 20
7.9224861840866661
 30
-0.0000000000000018
 11
34.9000000000000412
 21
36.2103783591323989
 31
-0.000000000000008
210
0.0
220
1.0
230
-0.0000000000000002
  0
LINE
  5
26F3
  8
0
  6
VERDECKT
 62
     1
 10
-34.3818495990034876
 20
2.0
 30
-0.0000000000000004
 11
-34.9000000000000412
 21
7.9224861840866661
 31
-0.0000000000000018
210
0.0
220
1.0
230
-0.0000000000000002
  0
LINE
  5
26F4
  8
0
  6
VERDECKT
 62
     1
 10
34.3818495990034876
 20
2.0
 30
-0.0000000000000004
 11
34.9000000000000412
 21
7.9224861840866661
 31
-0.0000000000000018
210
0.0
220
1.0
230
-0.0000000000000002
  0
LINE
  5
26F5
  8
0
  6
VERDECKT
 62
     1
 10
48.9999999999999503
 20
53.4763835979479865
 30
-0.0000000000000119
 11
48.9999999999999503
 21
0.0
 31
0.0
210
0.0
220
1.0
230
-0.0000000000000002
  0
LINE
  5
26F6
  8
0
  6
VERDECKT
 62
     1
 10
-48.9999999999999503
 20
53.4763835979479865
 30
-0.0000000000000119
 11
-48.9999999999999503
 21
0.0
 31
0.0
210
0.0
220
1.0
230
-0.0000000000000002
  0
ARC
  5
26F7
  8
0
  6
VERDECKT
 62
     1
 10
62.99999999999892
 20
53.4763835979481499
 30
0.0
 40
13.9999999999989697
210
0.0
220
-0.0000000000000002
230
-1.0
 50
156.2473682960890926
 51
180.0000000000005969
  0
ARC
  5
26F8
  8
0
  6
VERDECKT
 62
     1
 10
-62.9999999999986429
 20
53.4763835979481996
 30
0.0
 40
13.9999999999986997
210
0.0
220
-0.0000000000000002
230
-1.0
 50
359.9999999999990905
 51
23.7526317039110886
  0
LINE
  5
26F9
  8
0
  6
VERDECKT
 62
     1
 10
-50.1858982907243529
 20
59.1154258379332873
 30
-0.0000000000000131
 11
-57.9835157508076975
 21
76.8346517226094647
 31
-0.0000000000000171
210
0.0
220
1.0
230
-0.0000000000000002
  0
LINE
  5
26FA
  8
0
  6
VERDECKT
 62
     1
 10
50.1858982907243529
 20
59.1154258379332873
 30
-0.0000000000000131
 11
57.9835157508076975
 21
76.8346517226094647
 31
-0.0000000000000171
210
0.0
220
1.0
230
-0.0000000000000002
  0
ARC
  5
26FB
  8
0
  6
VERDECKT
 62
     1
 10
46.9999999999984794
 20
81.6681164997400231
 30
0.0
 40
12.0000000000014602
210
0.0
220
-0.0000000000000002
230
-1.0
 50
336.24736829609202
 51
359.9999999999985789
  0
ARC
  5
26FC
  8
0
  6
VERDECKT
 62
     1
 10
-46.9999999999981668
 20
81.6681164997400657
 30
0.0
 40
12.0000000000017693
210
0.0
220
-0.0000000000000002
230
-1.0
 50
180.0000000000015916
 51
203.7526317039076105
  0
LINE
  5
26FD
  8
0
  6
VERDECKT
 62
     1
 10
58.9999999999999503
 20
90.0000000000000142
 30
-0.00000000000002
 11
58.9999999999999503
 21
81.6681164997397246
 31
-0.0000000000000181
210
0.0
220
1.0
230
-0.0000000000000002
  0
LINE
  5
26FE
  8
0
  6
VERDECKT
 62
     1
 10
-58.9999999999999503
 20
90.0000000000000142
 30
-0.00000000000002
 11
-58.9999999999999503
 21
81.6681164997397246
 31
-0.0000000000000181
210
0.0
220
1.0
230
-0.0000000000000002
  0
ENDBLK
  5
2700
  8
0
  0
ENDSEC
  0
SECTION
  2
ENTITIES
  0
TEXT
  5
8E
  8
VOLL
 10
78.076754716981128
 20
31.025947764705851
 30
0.0
 40
1.8
  1

  7
GREEKS
  0
INSERT
  5
2697
  8
STEMPEL
  2
A$C44975DD4
 10
-0.0000000000000037
 20
-111.0
 30
0.0
  0
INSERT
  5
2701
  8
STEMPEL
  2
A$C36737B92
 10
0.0
 20
0.0
 30
0.0
  0
VIEWPORT
  5
23A0
 67
     1
  8
0
 10
5.712417258143371
 20
8.0135572286880166
 30
0.0
 40
28.8428886546999799
 41
16.3749467461942118
 68
     1
 69
     1
1001
ACAD
1000
MVIEW
1002
{
1070
    16
1010
0.0
1020
0.0
1030
0.0
1010
0.0
1020
0.0
1030
1.0
1040
0.0
1040
16.3749467461942118
1040
5.712417258143371
1040
8.0135572286880166
1040
50.0
1040
0.0
1040
0.0
1070
     0
1070
  1500
1070
     1
1070
     1
1070
     0
1070
     0
1070
     0
1070
     0
1040
0.0
1040
0.0
1040
0.0
1040
10.0
1040
10.0
1040
10.0
1040
10.0
1070
     0
1002
{
1002
}
1002
}
  0
VIEWPORT
  5
23A4
 67
     1
  8
DEFPOINTS
 10
5.7127072017558858
 20
8.0135414202229125
 30
0.0
 40
11.5958226520767802
 41
16.2550992409954098
 68
     2
 69
     2
1001
ACAD
1000
MVIEW
1002
{
1070
    16
1010
565.7872434257674286
1020
252.9383170518356962
1030
-30.0142229299654204
1010
0.0
1020
0.0
1030
1.0
1040
0.0
1040
437.9430972120600813
1040
-413.0832643127628785
1040
-38.0642285166162821
1040
50.0
1040
0.0
1040
0.0
1070
     0
1070
  1500
1070
     1
1070
     0
1070
     0
1070
     0
1070
     0
1070
     0
1040
0.0
1040
0.0
1040
0.0
1040
1.0
1040
1.0
1040
10.0
1040
10.0
1070
     0
1002
{
1002
}
1002
}
  0
VIEWPORT
  5
23A8
 67
     1
  8
DEFPOINTS
 10
8.7179917472973756
 20
5.6553379459719819
 30
0.0
 40
3.3290657936885282
 41
3.7289656109830309
 68
     3
 69
     3
1001
ACAD
1000
MVIEW
1002
{
1070
    16
1010
506.4038209258623056
1020
274.8307140613416095
1030
-42.3504111285108635
1010
95.9259370852553843
1020
470.6830746640317216
1030
956.9333824223280089
1040
2.9173889365415149
1040
160.6176928806735873
1040
0.0
1040
0.0
1040
50.0
1040
0.0
1040
0.0
1070
     0
1070
  1500
1070
     1
1070
     0
1070
     0
1070
     0
1070
     0
1070
     0
1040
0.0
1040
0.0
1040
0.0
1040
1.0
1040
1.0
1040
10.0
1040
10.0
1070
     0
1002
{
1002
}
1002
}
  0
ENDSEC
  0
EOF
