  0
SECTION
  2
HEADER
  9
$ACADVER
  1
AC1009
  9
$INSBASE
 10
0.0
 20
0.0
 30
0.0
  9
$EXTMIN
 10
-51.6719135736354929
 20
-127.9155232862984946
 30
119.9945072550263063
  9
$EXTMAX
 10
50.6226599302294673
 20
120.0011176898155014
 30
120.0036623887761067
  9
$LIMMIN
 10
0.0
 20
0.0
  9
$LIMMAX
 10
296.9999999999998863
 20
420.0000000000001137
  9
$ORTHOMODE
 70
     1
  9
$REGENMODE
 70
     1
  9
$FILLMODE
 70
     1
  9
$QTEXTMODE
 70
     0
  9
$MIRRTEXT
 70
     1
  9
$DRAGMODE
 70
     2
  9
$LTSCALE
 40
10.0
  9
$OSMODE
 70
  1327
  9
$ATTMODE
 70
     1
  9
$TEXTSIZE
 40
3.5
  9
$TRACEWID
 40
0.5
  9
$TEXTSTYLE
  7
STANDARD
  9
$CLAYER
  8
0
  9
$CELTYPE
  6
BYLAYER
  9
$CECOLOR
 62
   256
  9
$DIMSCALE
 40
1.0
  9
$DIMASZ
 40
3.5
  9
$DIMEXO
 40
1.0
  9
$DIMDLI
 40
7.0
  9
$DIMRND
 40
0.0
  9
$DIMDLE
 40
0.0
  9
$DIMEXE
 40
1.0
  9
$DIMTP
 40
0.0
  9
$DIMTM
 40
0.0
  9
$DIMTXT
 40
3.5
  9
$DIMCEN
 40
1.5
  9
$DIMTSZ
 40
0.0
  9
$DIMTOL
 70
     0
  9
$DIMLIM
 70
     0
  9
$DIMTIH
 70
     0
  9
$DIMTOH
 70
     0
  9
$DIMSE1
 70
     0
  9
$DIMSE2
 70
     0
  9
$DIMTAD
 70
     1
  9
$DIMZIN
 70
     8
  9
$DIMBLK
  1

  9
$DIMASO
 70
     1
  9
$DIMSHO
 70
     0
  9
$DIMPOST
  1

  9
$DIMAPOST
  1

  9
$DIMALT
 70
     0
  9
$DIMALTD
 70
     2
  9
$DIMALTF
 40
25.3999999999999986
  9
$DIMLFAC
 40
1.0
  9
$DIMTOFL
 70
     1
  9
$DIMTVP
 40
0.0
  9
$DIMTIX
 70
     0
  9
$DIMSOXD
 70
     0
  9
$DIMSAH
 70
     0
  9
$DIMBLK1
  1

  9
$DIMBLK2
  1

  9
$DIMSTYLE
  2
STANDARD
  9
$DIMCLRD
 70
     0
  9
$DIMCLRE
 70
     0
  9
$DIMCLRT
 70
     1
  9
$DIMTFAC
 40
0.5142857142857143
  9
$DIMGAP
 40
1.5
  9
$LUNITS
 70
     2
  9
$LUPREC
 70
     2
  9
$SKETCHINC
 40
1.0
  9
$FILLETRAD
 40
0.0
  9
$AUNITS
 70
     0
  9
$AUPREC
 70
     0
  9
$MENU
  1
ACAD
  9
$ELEVATION
 40
0.0
  9
$PELEVATION
 40
0.0
  9
$THICKNESS
 40
0.0
  9
$LIMCHECK
 70
     0
  9
$BLIPMODE
 70
     0
  9
$CHAMFERA
 40
0.0
  9
$CHAMFERB
 40
0.0
  9
$SKPOLY
 70
     0
  9
$TDCREATE
 40
2451337.6017592591233552
  9
$TDUPDATE
 40
2458402.3594212969765067
  9
$TDINDWG
 40
0.1820535185
  9
$TDUSRTIMER
 40
0.1820535185
  9
$USRTIMER
 70
     1
  9
$ANGBASE
 50
0.0
  9
$ANGDIR
 70
     0
  9
$PDMODE
 70
     0
  9
$PDSIZE
 40
0.0
  9
$PLINEWID
 40
0.0
  9
$COORDS
 70
     1
  9
$SPLFRAME
 70
     0
  9
$SPLINETYPE
 70
     6
  9
$SPLINESEGS
 70
     8
  9
$ATTDIA
 70
     0
  9
$ATTREQ
 70
     0
  9
$HANDLING
 70
     1
  9
$HANDSEED
  5
25E1
  9
$SURFTAB1
 70
     6
  9
$SURFTAB2
 70
     6
  9
$SURFTYPE
 70
     6
  9
$SURFU
 70
     6
  9
$SURFV
 70
     6
  9
$UCSNAME
  2

  9
$UCSORG
 10
0.0
 20
0.0
 30
0.0
  9
$UCSXDIR
 10
1.0
 20
0.0
 30
0.0
  9
$UCSYDIR
 10
0.0
 20
1.0
 30
0.0
  9
$PUCSNAME
  2

  9
$PUCSORG
 10
0.0
 20
0.0
 30
0.0
  9
$PUCSXDIR
 10
1.0
 20
0.0
 30
0.0
  9
$PUCSYDIR
 10
0.0
 20
1.0
 30
0.0
  9
$USERI1
 70
     0
  9
$USERI2
 70
     0
  9
$USERI3
 70
     0
  9
$USERI4
 70
     0
  9
$USERI5
 70
     0
  9
$USERR1
 40
0.0
  9
$USERR2
 40
0.0
  9
$USERR3
 40
0.0
  9
$USERR4
 40
0.0
  9
$USERR5
 40
0.0
  9
$WORLDVIEW
 70
     1
  9
$SHADEDGE
 70
     3
  9
$SHADEDIF
 70
    70
  9
$TILEMODE
 70
     1
  9
$MAXACTVP
 70
    16
  9
$PLIMCHECK
 70
     0
  9
$PEXTMIN
 10
-0.0852780608204711
 20
-0.0931074737832205
 30
-0.000000000000013
  9
$PEXTMAX
 10
11.5733697443994004
 20
16.5239308187570693
 30
0.0000000000000023
  9
$PLIMMIN
 10
-0.2500002402958907
 20
-0.2499999962453767
  9
$PLIMMAX
 10
10.7499995194082203
 20
8.2499997634587334
  9
$UNITMODE
 70
     0
  9
$VISRETAIN
 70
     0
  9
$PLINEGEN
 70
     0
  9
$PSLTSCALE
 70
     0
  0
ENDSEC
  0
SECTION
  2
TABLES
  0
TABLE
  2
VPORT
 70
     1
  0
VPORT
  2
*ACTIVE
 70
     0
 10
0.0
 20
0.0
 11
1.0
 21
1.0
 12
-0.5246249143543196
 22
-38.6572035611809568
 13
0.0
 23
0.0
 14
1.0
 24
1.0
 15
10.0
 25
10.0
 16
-0.0000000000001334
 26
0.0
 36
600.8460406156078761
 17
-0.0000019073486897
 27
34.7000007629394673
 37
60.0
 40
249.7713789385288123
 41
1.887640449438202
 42
50.0
 43
0.0
 44
0.0
 50
0.0
 51
0.0
 71
     0
 72
  1500
 73
     1
 74
     0
 75
     0
 76
     0
 77
     0
 78
     0
  0
ENDTAB
  0
TABLE
  2
LTYPE
 70
     4
  0
LTYPE
  2
CONTINUOUS
 70
     0
  3
Solid line
 72
    65
 73
     0
 40
0.0
  0
LTYPE
  2
VERDECKT
 70
     0
  3
Verdeckt __ __ __ __ __ __ __ __ __ __ __ __ __
 72
    65
 73
     2
 40
0.375
 49
0.25
 49
-0.125
  0
ENDTAB
  0
TABLE
  2
LAYER
 70
    11
  0
LAYER
  2
0
 70
     0
 62
     7
  6
CONTINUOUS
  0
LAYER
  2
VOLL
 70
     0
 62
     1
  6
CONTINUOUS
  0
LAYER
  2
DEFPOINTS
 70
     0
 62
     7
  6
CONTINUOUS
  0
ENDTAB
  0
TABLE
  2
STYLE
 70
     4
  0
STYLE
  2
STANDARD
 70
     0
 40
0.0
 41
0.8
 50
0.0
 71
     0
 42
3.5
  3
simplex.shx
  4

  0
STYLE
  2
GREEKS
 70
     0
 40
0.0
 41
0.8
 50
0.0
 71
     0
 42
2.5
  3
SIMPLEX.shx
  4

  0
ENDTAB
  0
TABLE
  2
VIEW
 70
     2
  0
ENDTAB
  0
TABLE
  2
UCS
 70
     0
  0
ENDTAB
  0
TABLE
  2
APPID
 70
    10
  0
APPID
  2
ACAD
 70
     0
  0
APPID
  2
ACAD_NAV_VCDISPLAY
 70
     0
  0
APPID
  2
ACAECLAYERSTANDARD
 70
     0
  0
APPID
  2
ACCMTRANSPARENCY
 70
     0
  0
APPID
  2
ACAD_PSEXT
 70
     0
  0
APPID
  2
ACAD_STEPID
 70
     0
  0
APPID
  2
ACAD_EXEMPT_FROM_CAD_STANDARDS
 70
     0
  0
APPID
  2
ACAD_MLEADERVER
 70
     0
  0
APPID
  2
ACAD_OBJECT_CHANGE_GUID
 70
     0
  0
APPID
  2
ACADANNOMONITORALERTICONDI
 70
     0
  0
ENDTAB
  0
TABLE
  2
DIMSTYLE
 70
     2
  0
DIMSTYLE
  2
STANDARD
 70
     0
  3

  4

  5

  6

  7

 40
1.0
 41
0.18
 42
0.0625
 43
0.38
 44
0.18
 45
0.0
 46
0.0
 47
0.0
 48
0.0
140
0.18
141
0.09
142
0.0
143
25.3999999999999986
144
1.0
145
0.0
146
1.0
147
0.09
 71
     0
 72
     0
 73
     1
 74
     1
 75
     0
 76
     0
 77
     0
 78
     0
170
     0
171
     2
172
     0
173
     0
174
     0
175
     0
176
     0
177
     0
178
     0
  0
ENDTAB
  0
ENDSEC
  0
SECTION
  2
BLOCKS
  0
BLOCK
  8
0
  2
$MODEL_SPACE
 70
     0
 10
0.0
 20
0.0
 30
0.0
  3
$MODEL_SPACE
  1

  0
ENDBLK
  5
36
  8
0
  0
BLOCK
 67
     1
  8
0
  2
$PAPER_SPACE
 70
     0
 10
0.0
 20
0.0
 30
0.0
  3
$PAPER_SPACE
  1

  0
ENDBLK
  5
34
 67
     1
  8
0
  0
BLOCK
  8
0
  2
A$C25100151
 70
     0
 10
0.0
 20
0.0
 30
0.0
  3
A$C25100151
  1

  0
LINE
  5
24C2
  8
0
  6
CONTINUOUS
 62
     3
 10
-45.1512015381331935
 20
-0.0000000000001321
 30
0.0
 11
45.1512000122542503
 21
0.0000000000000752
 31
0.0
210
0.0000000000000002
220
1.0
230
-0.0000000000000002
  0
LINE
  5
24C3
  8
0
  6
CONTINUOUS
 62
     3
 10
-13.5674804679663605
 20
104.9999999999999005
 30
-0.0000000000000203
 11
-13.5674804679663605
 21
111.9999999999999005
 31
-0.0000000000000219
210
0.0000000000000002
220
1.0
230
-0.0000000000000002
  0
LINE
  5
24C4
  8
0
  6
CONTINUOUS
 62
     3
 10
-13.5674804679663694
 20
104.9999999999999005
 30
-0.0000000000000203
 11
-35.4325210579127514
 21
104.9999999999999005
 31
-0.0000000000000226
210
0.0000000000000002
220
1.0
230
-0.0000000000000002
  0
LINE
  5
24C5
  8
0
  6
CONTINUOUS
 62
     3
 10
-35.4325210579127372
 20
111.9999999999999005
 30
-0.0000000000000241
 11
-35.4325210579127514
 21
104.9999999999999005
 31
-0.0000000000000226
210
0.0000000000000002
220
1.0
230
-0.0000000000000002
  0
LINE
  5
24C6
  8
0
  6
CONTINUOUS
 62
     3
 10
-35.4325210579127514
 20
111.9999999999999005
 30
-0.0000000000000241
 11
-13.5674804679663605
 21
111.9999999999999005
 31
-0.0000000000000219
210
0.0000000000000002
220
1.0
230
-0.0000000000000002
  0
LINE
  5
24C7
  8
0
  6
CONTINUOUS
 62
     3
 10
50.5999992370604517
 20
104.999999999999801
 30
-0.0000000000000233
 11
48.9999992370605426
 21
104.999999999999801
 31
-0.0000000000000235
210
0.0000000000000002
220
1.0
230
-0.0000000000000002
  0
LINE
  5
24C8
  8
0
  6
CONTINUOUS
 62
     3
 10
48.9999992370605497
 20
111.999999999999801
 30
-0.0000000000000251
 11
48.9999992370605426
 21
104.999999999999801
 31
-0.0000000000000235
210
0.0000000000000002
220
1.0
230
-0.0000000000000002
  0
LINE
  5
24C9
  8
0
  6
CONTINUOUS
 62
     3
 10
48.9999992370605497
 20
111.999999999999801
 30
-0.0000000000000251
 11
50.599999237060473
 21
111.999999999999801
 31
-0.0000000000000249
210
0.0000000000000002
220
1.0
230
-0.0000000000000002
  0
LINE
  5
24CA
  8
0
  6
CONTINUOUS
 62
     3
 10
-50.6000007629395796
 20
111.9999999999999005
 30
-0.0000000000000249
 11
-49.0000007629395569
 21
111.9999999999999005
 31
-0.0000000000000246
210
0.0000000000000002
220
1.0
230
-0.0000000000000002
  0
LINE
  5
24CB
  8
0
  6
CONTINUOUS
 62
     3
 10
-49.0000007629395569
 20
104.9999999999999005
 30
-0.0000000000000231
 11
-49.0000007629395569
 21
111.9999999999999005
 31
-0.0000000000000246
210
0.0000000000000002
220
1.0
230
-0.0000000000000002
  0
LINE
  5
24CC
  8
0
  6
CONTINUOUS
 62
     3
 10
-49.0000007629395569
 20
104.9999999999999005
 30
-0.0000000000000231
 11
-50.6000007629395867
 21
104.9999999999999005
 31
-0.0000000000000233
210
0.0000000000000002
220
1.0
230
-0.0000000000000002
  0
LINE
  5
24CD
  8
0
  6
CONTINUOUS
 62
     3
 10
50.5999992370604588
 20
120.0
 30
-0.0000000000000266
 11
-50.6000007629395725
 21
120.0
 31
-0.0000000000000266
210
0.0000000000000002
220
1.0
230
-0.0000000000000002
  0
ARC
  5
24CE
  8
0
  6
CONTINUOUS
 62
     3
 10
41.0000007629402674
 20
92.504981186597746
 30
0.0
 40
9.5999999999993282
210
0.0
220
-0.0000000000000002
230
-1.0
 50
330.7511736634510271
 51
0.0000000000011196
  0
ARC
  5
24CF
  8
0
  6
CONTINUOUS
 62
     3
 10
-40.9999992370611608
 20
92.5049811865978171
 30
0.0
 40
9.5999999999993104
210
0.0
220
-0.0000000000000002
230
-1.0
 50
179.9999999999986926
 51
209.2488263365488024
  0
LINE
  5
24D0
  8
0
  6
CONTINUOUS
 62
     3
 10
-46.0199526353417809
 20
81.8213426292897879
 30
-0.0000000000000182
 11
-49.3760585160568297
 21
87.8143888448521039
 31
-0.0000000000000195
210
0.0000000000000002
220
1.0
230
-0.0000000000000002
  0
LINE
  5
24D1
  8
0
  6
CONTINUOUS
 62
     3
 10
46.0199511094626672
 20
81.8213426292898731
 30
-0.0000000000000182
 11
49.3760569901777018
 21
87.814388844852175
 31
-0.0000000000000195
210
0.0000000000000002
220
1.0
230
-0.0000000000000002
  0
ARC
  5
24D2
  8
0
  6
CONTINUOUS
 62
     3
 10
53.0000007629384911
 20
77.9125156778351453
 30
0.0
 40
7.9999999999990079
210
0.0
220
-0.0000000000000002
230
-1.0
 50
150.7511736634498902
 51
180.0000000000013074
  0
ARC
  5
24D3
  8
0
  6
CONTINUOUS
 62
     3
 10
-52.9999992370593489
 20
77.9125156778352306
 30
0.0
 40
7.9999999999990052
210
0.0
220
-0.0000000000000002
230
-1.0
 50
359.9999999999986926
 51
29.2488263365501204
  0
LINE
  5
24D4
  8
0
  6
CONTINUOUS
 62
     3
 10
44.9999992370603579
 20
77.9125156778350458
 30
-0.0000000000000173
 11
44.9999992370603721
 21
66.7825054921934509
 31
-0.0000000000000148
210
0.0000000000000002
220
1.0
230
-0.0000000000000002
  0
LINE
  5
24D5
  8
0
  6
CONTINUOUS
 62
     3
 10
-45.0000007629395213
 20
77.9125156778349606
 30
-0.0000000000000173
 11
-45.0000007629395
 21
66.7825054921933656
 31
-0.0000000000000148
210
0.0000000000000002
220
1.0
230
-0.0000000000000002
  0
ARC
  5
24D6
  8
0
  6
CONTINUOUS
 62
     3
 10
35.4000007629380775
 20
66.7825054921939056
 30
0.0
 40
9.6000000000014065
210
0.0
220
-0.0000000000000002
230
-1.0
 50
338.9624889745779228
 51
359.9999999999968168
  0
ARC
  5
24D7
  8
0
  6
CONTINUOUS
 62
     3
 10
-35.3999992370593617
 20
66.7825054921939056
 30
0.0
 40
9.6000000000009962
210
0.0
220
-0.0000000000000002
230
-1.0
 50
180.0000000000028137
 51
201.0375110254225035
  0
LINE
  5
24D8
  8
0
  6
CONTINUOUS
 62
     3
 10
-40.5332359133151172
 20
53.3864113909765265
 30
-0.0000000000000119
 11
-44.3601185824887665
 21
63.3363063308281866
 31
-0.0000000000000141
210
0.0000000000000002
220
1.0
230
-0.0000000000000002
  0
LINE
  5
24D9
  8
0
  6
CONTINUOUS
 62
     3
 10
40.5332343874360035
 20
53.3864113909766402
 30
-0.0000000000000119
 11
44.3601170566096172
 21
63.3363063308283003
 31
-0.0000000000000141
210
0.0000000000000002
220
1.0
230
-0.0000000000000002
  0
ARC
  5
24DA
  8
0
  6
CONTINUOUS
 62
     3
 10
48.0000007629366721
 20
50.5145787565058413
 30
0.0
 40
7.9999999999971498
210
0.0
220
-0.0000000000000002
230
-1.0
 50
158.962488974572409
 51
180.0000000000015916
  0
ARC
  5
24DB
  8
0
  6
CONTINUOUS
 62
     3
 10
-47.9999992370575725
 20
50.5145787565059194
 30
0.0
 40
7.9999999999972067
210
0.0
220
-0.0000000000000002
230
-1.0
 50
359.9999999999982947
 51
21.0375110254276905
  0
LINE
  5
24DC
  8
0
  6
CONTINUOUS
 62
     3
 10
39.9999992370603579
 20
50.5145787565056921
 30
-0.0000000000000112
 11
39.9999992370603792
 21
21.2047241222027303
 31
-0.0000000000000047
210
0.0000000000000002
220
1.0
230
-0.0000000000000002
  0
LINE
  5
24DD
  8
0
  6
CONTINUOUS
 62
     3
 10
-40.0000007629395284
 20
50.5145787565056068
 30
-0.0000000000000112
 11
-40.0000007629395
 21
21.204724122202709
 31
-0.0000000000000047
210
0.0000000000000002
220
1.0
230
-0.0000000000000002
  0
ARC
  5
24DE
  8
0
  6
CONTINUOUS
 62
     3
 10
48.0000007629389103
 20
21.2047241222025988
 30
0.0
 40
7.9999999999994591
210
0.0
220
-0.0000000000000002
230
-1.0
 50
179.9999999999992042
 51
194.3055518466223077
  0
ARC
  5
24DF
  8
0
  6
CONTINUOUS
 62
     3
 10
-47.9999992370605213
 20
21.2047241222027303
 30
0.0
 40
8.0000000000000142
210
0.0
220
-0.0000000000000002
230
-1.0
 50
345.6944481533781186
 51
0.0000000000000127
  0
LINE
  5
24E0
  8
0
  6
CONTINUOUS
 62
     3
 10
40.2480648918873314
 20
19.2279808641835785
 30
-0.0000000000000043
 11
45.1512000122543
 21
0.0000000000000823
 31
0.0
210
0.0000000000000002
220
1.0
230
-0.0000000000000002
  0
LINE
  5
24E1
  8
0
  6
CONTINUOUS
 62
     3
 10
-40.2480664177662888
 20
19.227980864183511
 30
-0.0000000000000043
 11
-45.1512015381332219
 21
-0.0000000000000113
 31
0.0
210
0.0000000000000002
220
1.0
230
-0.0000000000000002
  0
LINE
  5
24E2
  8
0
  6
CONTINUOUS
 62
     3
 10
50.5999992370604375
 20
120.0
 30
-0.0000000000000266
 11
50.5999992370604375
 21
111.999999999999801
 31
-0.0000000000000249
210
0.0000000000000002
220
1.0
230
-0.0000000000000002
  0
LINE
  5
24E3
  8
0
  6
CONTINUOUS
 62
     3
 10
50.5999992370604375
 20
104.999999999999801
 30
-0.0000000000000233
 11
50.5999992370604375
 21
92.5049811865980445
 31
-0.0000000000000205
210
0.0000000000000002
220
1.0
230
-0.0000000000000002
  0
LINE
  5
24E4
  8
0
  6
CONTINUOUS
 62
     3
 10
-50.6000007629395583
 20
120.0
 30
-0.0000000000000266
 11
-50.6000007629395583
 21
111.9999999999999005
 31
-0.0000000000000249
210
0.0000000000000002
220
1.0
230
-0.0000000000000002
  0
LINE
  5
24E5
  8
0
  6
CONTINUOUS
 62
     3
 10
-50.6000007629395583
 20
104.9999999999999005
 30
-0.0000000000000233
 11
-50.6000007629395583
 21
92.504981186597945
 31
-0.0000000000000205
210
0.0000000000000002
220
1.0
230
-0.0000000000000002
  0
LINE
  5
24E6
  8
0
  6
VERDECKT
 62
     1
 10
22.2990373427370194
 20
111.9999999999997016
 30
-0.0000000000000227
 11
15.2990373427371296
 21
106.999999999999801
 31
-0.0000000000000218
210
0.0000000000000002
220
1.0
230
-0.0000000000000002
  0
LINE
  5
24E7
  8
0
  6
VERDECKT
 62
     1
 10
12.7009611313838704
 20
106.999999999999801
 30
-0.000000000000023
 11
15.2990373427372397
 21
106.999999999999801
 31
-0.0000000000000229
210
0.0000000000000002
220
1.0
230
-0.0000000000000002
  0
LINE
  5
24E8
  8
0
  6
VERDECKT
 62
     1
 10
12.7009611313838704
 20
106.999999999999801
 30
-0.000000000000023
 11
19.7009611313837603
 21
111.9999999999997016
 31
-0.0000000000000239
210
0.0000000000000002
220
1.0
230
-0.0000000000000002
  0
LINE
  5
24E9
  8
0
  6
VERDECKT
 62
     1
 10
9.2009611313838686
 20
106.9999999999999005
 30
-0.0000000000000222
 11
12.7009611313838704
 21
106.999999999999801
 31
-0.0000000000000221
210
0.0000000000000002
220
1.0
230
-0.0000000000000002
  0
LINE
  5
24EA
  8
0
  6
VERDECKT
 62
     1
 10
11.7990373427372397
 20
106.9999999999999005
 30
-0.0000000000000228
 11
11.7990373427371207
 21
99.7999999999999545
 31
-0.0000000000000212
210
0.0000000000000002
220
1.0
230
-0.0000000000000002
  0
LINE
  5
24EB
  8
0
  6
VERDECKT
 62
     1
 10
9.2009611313837532
 20
99.7999999999999545
 30
-0.0000000000000207
 11
9.2009611313838686
 21
106.9999999999999005
 31
-0.0000000000000222
210
0.0000000000000002
220
1.0
230
-0.0000000000000002
  0
LINE
  5
24EC
  8
0
  6
VERDECKT
 62
     1
 10
12.7009611313838704
 20
99.7999999999999545
 30
-0.0000000000000214
 11
15.2990373427372397
 21
99.7999999999999545
 31
-0.0000000000000213
210
0.0000000000000002
220
1.0
230
-0.0000000000000002
  0
LINE
  5
24ED
  8
0
  6
VERDECKT
 62
     1
 10
12.7009611313838704
 20
99.7999999999999545
 30
-0.0000000000000214
 11
9.2009611313838668
 21
99.7999999999999545
 31
-0.0000000000000215
210
0.0000000000000002
220
1.0
230
-0.0000000000000002
  0
LINE
  5
24EE
  8
0
  6
VERDECKT
 62
     1
 10
15.2990373427372397
 20
99.7999999999999545
 30
-0.000000000000022
 11
22.2990373427371296
 21
94.7999999999999545
 31
-0.0000000000000207
210
0.0000000000000002
220
1.0
230
-0.0000000000000002
  0
LINE
  5
24EF
  8
0
  6
VERDECKT
 62
     1
 10
19.7009611313837603
 20
94.7999999999999545
 30
-0.0000000000000183
 11
12.7009611313838597
 21
99.7999999999999545
 31
-0.0000000000000197
210
0.0000000000000002
220
1.0
230
-0.0000000000000002
  0
LINE
  5
24F0
  8
0
  6
VERDECKT
 62
     1
 10
23.2009611313837603
 20
94.7999999999998266
 30
-0.0000000000000191
 11
25.7990373427371402
 21
94.7999999999998266
 31
-0.000000000000019
210
0.0000000000000002
220
1.0
230
-0.0000000000000002
  0
LINE
  5
24F1
  8
0
  6
VERDECKT
 62
     1
 10
23.2009611313837603
 20
94.7999999999998266
 30
-0.0000000000000191
 11
19.7009611313837603
 21
94.7999999999999545
 31
-0.0000000000000192
210
0.0000000000000002
220
1.0
230
-0.0000000000000002
  0
LINE
  5
24F2
  8
0
  6
VERDECKT
 62
     1
 10
25.7990373427371402
 20
94.7999999999998266
 30
-0.0000000000000197
 11
25.7990373427371402
 21
97.2999999999998408
 31
-0.0000000000000202
210
0.0000000000000002
220
1.0
230
-0.0000000000000002
  0
LINE
  5
24F3
  8
0
  6
VERDECKT
 62
     1
 10
23.2009611313837603
 20
97.2999999999998408
 30
-0.0000000000000197
 11
25.7990373427371402
 21
97.2999999999998408
 31
-0.0000000000000196
210
0.0000000000000002
220
1.0
230
-0.0000000000000002
  0
LINE
  5
24F4
  8
0
  6
VERDECKT
 62
     1
 10
23.2009611313837603
 20
97.2999999999998408
 30
-0.0000000000000197
 11
23.2009611313837603
 21
94.7999999999998266
 31
-0.0000000000000191
210
0.0000000000000002
220
1.0
230
-0.0000000000000002
  0
LINE
  5
24F5
  8
0
  6
VERDECKT
 62
     1
 10
25.7990373427371402
 20
97.2999999999998408
 30
-0.0000000000000202
 11
24.7990373427371402
 21
98.4547005383791429
 31
-0.0000000000000205
210
0.0000000000000002
220
1.0
230
-0.0000000000000002
  0
LINE
  5
24F6
  8
0
  6
VERDECKT
 62
     1
 10
22.2009611313837603
 20
98.4547005383791429
 30
-0.0000000000000197
 11
24.7990373427371402
 21
98.4547005383791429
 31
-0.0000000000000196
210
0.0000000000000002
220
1.0
230
-0.0000000000000002
  0
LINE
  5
24F7
  8
0
  6
VERDECKT
 62
     1
 10
22.2009611313837603
 20
98.4547005383791429
 30
-0.0000000000000197
 11
23.2009611313837603
 21
97.2999999999998408
 31
-0.0000000000000194
210
0.0000000000000002
220
1.0
230
-0.0000000000000002
  0
LINE
  5
24F8
  8
0
  6
VERDECKT
 62
     1
 10
24.7990373427371296
 20
98.4547005383791429
 30
-0.0000000000000203
 11
24.7990373427371402
 21
108.3452994616205984
 31
-0.0000000000000225
210
0.0000000000000002
220
1.0
230
-0.0000000000000002
  0
LINE
  5
24F9
  8
0
  6
VERDECKT
 62
     1
 10
22.2009611313837603
 20
108.3452994616205984
 30
-0.0000000000000219
 11
24.7990373427371402
 21
108.3452994616205984
 31
-0.0000000000000218
210
0.0000000000000002
220
1.0
230
-0.0000000000000002
  0
LINE
  5
24FA
  8
0
  6
VERDECKT
 62
     1
 10
22.2009611313837603
 20
108.3452994616205984
 30
-0.0000000000000219
 11
22.2009611313837603
 21
98.4547005383791429
 31
-0.0000000000000197
210
0.0000000000000002
220
1.0
230
-0.0000000000000002
  0
LINE
  5
24FB
  8
0
  6
VERDECKT
 62
     1
 10
24.7990373427371402
 20
108.3452994616205984
 30
-0.0000000000000225
 11
25.7990373427371402
 21
109.4999999999999005
 31
-0.0000000000000227
210
0.0000000000000002
220
1.0
230
-0.0000000000000002
  0
LINE
  5
24FC
  8
0
  6
VERDECKT
 62
     1
 10
23.2009611313837603
 20
109.4999999999999005
 30
-0.0000000000000224
 11
25.7990373427371402
 21
109.4999999999999005
 31
-0.0000000000000223
210
0.0000000000000002
220
1.0
230
-0.0000000000000002
  0
LINE
  5
24FD
  8
0
  6
VERDECKT
 62
     1
 10
23.2009611313837603
 20
109.4999999999999005
 30
-0.0000000000000224
 11
22.2009611313837603
 21
108.3452994616205984
 31
-0.0000000000000221
210
0.0000000000000002
220
1.0
230
-0.0000000000000002
  0
LINE
  5
24FE
  8
0
  6
VERDECKT
 62
     1
 10
25.7990373427371402
 20
109.4999999999999005
 30
-0.0000000000000229
 11
25.7990373427371402
 21
111.9999999999999005
 31
-0.0000000000000235
210
0.0000000000000002
220
1.0
230
-0.0000000000000002
  0
LINE
  5
24FF
  8
0
  6
VERDECKT
 62
     1
 10
23.2009611313837603
 20
111.9999999999999005
 30
-0.0000000000000229
 11
25.7990373427371402
 21
111.9999999999999005
 31
-0.0000000000000228
210
0.0000000000000002
220
1.0
230
-0.0000000000000002
  0
LINE
  5
2500
  8
0
  6
VERDECKT
 62
     1
 10
23.2009611313837603
 20
111.9999999999999005
 30
-0.0000000000000229
 11
23.2009611313837603
 21
109.4999999999999005
 31
-0.0000000000000224
210
0.0000000000000002
220
1.0
230
-0.0000000000000002
  0
LINE
  5
2501
  8
0
  6
VERDECKT
 62
     1
 10
19.7009611313837603
 20
111.9999999999997016
 30
-0.0000000000000221
 11
23.2009611313837603
 21
111.9999999999999005
 31
-0.000000000000022
210
0.0000000000000002
220
1.0
230
-0.0000000000000002
  0
LINE
  5
2502
  8
0
  6
VERDECKT
 62
     1
 10
46.9999992370602087
 20
112.0000000000000995
 30
-0.0000000000000246
 11
46.9999992370602087
 21
105.0000000000000995
 31
-0.0000000000000231
210
0.0000000000000002
220
1.0
230
-0.0000000000000002
  0
LINE
  5
2503
  8
0
  6
VERDECKT
 62
     1
 10
48.9999992370604431
 20
105.0000000000000995
 30
-0.0000000000000233
 11
46.9999992370604431
 21
105.0000000000000995
 31
-0.0000000000000231
210
0.0000000000000002
220
1.0
230
-0.0000000000000002
  0
LINE
  5
2504
  8
0
  6
VERDECKT
 62
     1
 10
46.9999992370604431
 20
112.0000000000000995
 30
-0.0000000000000246
 11
48.9999992370604431
 21
112.0000000000000995
 31
-0.0000000000000249
210
0.0000000000000002
220
1.0
230
-0.0000000000000002
  0
LINE
  5
2505
  8
0
  6
VERDECKT
 62
     1
 10
-11.5000007629411396
 20
105.0000000000000995
 30
-0.0000000000000208
 11
-11.5000007629411396
 21
112.0000000000000995
 31
-0.0000000000000223
210
0.0000000000000002
220
1.0
230
-0.0000000000000002
  0
LINE
  5
2506
  8
0
  6
VERDECKT
 62
     1
 10
-35.5000007629384129
 20
112.0000000000000995
 30
-0.0000000000000241
 11
-35.50000076293842
 21
105.0000000000000995
 31
-0.0000000000000225
210
0.0000000000000002
220
1.0
230
-0.0000000000000002
  0
LINE
  5
2507
  8
0
  6
VERDECKT
 62
     1
 10
-13.5674804679663605
 20
112.0000000000000995
 30
-0.0000000000000219
 11
-11.5000007629396599
 21
112.0000000000000995
 31
-0.0000000000000223
210
0.0000000000000002
220
1.0
230
-0.0000000000000002
  0
LINE
  5
2508
  8
0
  6
VERDECKT
 62
     1
 10
-35.5000007629394432
 20
112.0000000000000995
 30
-0.0000000000000241
 11
-35.4325210579127372
 21
112.0000000000000995
 31
-0.0000000000000241
210
0.0000000000000002
220
1.0
230
-0.0000000000000002
  0
LINE
  5
2509
  8
0
  6
VERDECKT
 62
     1
 10
-11.5000007629396706
 20
105.0000000000000995
 30
-0.0000000000000208
 11
-13.5674804679663605
 21
105.0000000000000995
 31
-0.0000000000000203
210
0.0000000000000002
220
1.0
230
-0.0000000000000002
  0
LINE
  5
250A
  8
0
  6
VERDECKT
 62
     1
 10
-35.4325210579127514
 20
105.0000000000000995
 30
-0.0000000000000226
 11
-35.5000007629394432
 21
105.0000000000000995
 31
-0.0000000000000225
210
0.0000000000000002
220
1.0
230
-0.0000000000000002
  0
LINE
  5
250B
  8
0
  6
VERDECKT
 62
     1
 10
-47.0000007629397913
 20
105.0000000000000995
 30
-0.0000000000000235
 11
-47.0000007629397771
 21
112.0000000000000995
 31
-0.0000000000000251
210
0.0000000000000002
220
1.0
230
-0.0000000000000002
  0
LINE
  5
250C
  8
0
  6
VERDECKT
 62
     1
 10
-47.0000007629394503
 20
105.0000000000000995
 30
-0.0000000000000235
 11
-49.0000007629395569
 21
105.0000000000000995
 31
-0.0000000000000233
210
0.0000000000000002
220
1.0
230
-0.0000000000000002
  0
LINE
  5
250D
  8
0
  6
VERDECKT
 62
     1
 10
-49.0000007629395569
 20
112.0000000000000995
 30
-0.0000000000000249
 11
-47.0000007629394432
 21
112.0000000000000995
 31
-0.0000000000000251
210
0.0000000000000002
220
1.0
230
-0.0000000000000002
  0
LINE
  5
250E
  8
0
  6
VERDECKT
 62
     1
 10
38.6976780228527915
 20
18.83263221258035
 30
-0.0000000000000042
 11
43.4999992370606492
 21
0.0000000000001289
 31
0.0
210
0.0000000000000002
220
1.0
230
-0.0000000000000002
  0
LINE
  5
250F
  8
0
  6
VERDECKT
 62
     1
 10
-38.6976795487317418
 20
18.8326322125802612
 30
-0.0000000000000042
 11
-43.5000007629395782
 21
0.0000000000000345
 31
0.0
210
0.0000000000000002
220
1.0
230
-0.0000000000000002
  0
ARC
  5
2510
  8
0
  6
VERDECKT
 62
     1
 10
48.0000007629368426
 20
21.2047241222030003
 30
0.0
 40
9.5999999999973085
210
0.0
220
-0.0000000000000002
230
-1.0
 50
179.9999999999984084
 51
194.3055518466244109
  0
ARC
  5
2511
  8
0
  6
VERDECKT
 62
     1
 10
-47.9999992370579065
 20
21.2047241222030785
 30
0.0
 40
9.5999999999973102
210
0.0
220
-0.0000000000000002
230
-1.0
 50
345.6944481533755038
 51
0.0000000000016284
  0
LINE
  5
2512
  8
0
  6
VERDECKT
 62
     1
 10
38.3999992370604488
 20
50.236010990962221
 30
-0.0000000000000112
 11
38.3999992370604701
 21
21.2047241222033591
 31
-0.0000000000000047
210
0.0000000000000002
220
1.0
230
-0.0000000000000002
  0
LINE
  5
2513
  8
0
  6
VERDECKT
 62
     1
 10
-38.4000007629396194
 20
50.2360109909621428
 30
-0.0000000000000112
 11
-38.4000007629395981
 21
21.2047241222032703
 31
-0.0000000000000047
210
0.0000000000000002
220
1.0
230
-0.0000000000000002
  0
ARC
  5
2514
  8
0
  6
VERDECKT
 62
     1
 10
48.0000007629411201
 20
50.2360109909615815
 30
0.0
 40
9.6000000000015149
210
0.0
220
-0.0000000000000002
230
-1.0
 50
158.9624889745780933
 51
179.9999999999965894
  0
ARC
  5
2515
  8
0
  6
VERDECKT
 62
     1
 10
-47.9999992370620134
 20
50.2360109909616526
 30
0.0
 40
9.6000000000015575
210
0.0
220
-0.0000000000000002
230
-1.0
 50
0.0000000000033714
 51
21.0375110254218711
  0
LINE
  5
2516
  8
0
  6
VERDECKT
 62
     1
 10
-39.0398829433903387
 20
53.6822101523272721
 30
-0.0000000000000119
 11
-42.8667656125640875
 21
63.6321050921789322
 31
-0.0000000000000141
210
0.0000000000000002
220
1.0
230
-0.0000000000000002
  0
LINE
  5
2517
  8
0
  6
VERDECKT
 62
     1
 10
39.0398814175112108
 20
53.6822101523273574
 30
-0.0000000000000119
 11
42.8667640866849382
 21
63.6321050921790388
 31
-0.0000000000000141
210
0.0000000000000002
220
1.0
230
-0.0000000000000002
  0
ARC
  5
2518
  8
0
  6
VERDECKT
 62
     1
 10
35.4000007629387596
 20
66.5039377266500651
 30
0.0
 40
8.0000000000008242
210
0.0
220
-0.0000000000000002
230
-1.0
 50
338.9624889745792871
 51
359.9999999999996021
  0
ARC
  5
2519
  8
0
  6
VERDECKT
 62
     1
 10
-35.399999237059653
 20
66.5039377266501077
 30
0.0
 40
8.0000000000007887
210
0.0
220
-0.0000000000000002
230
-1.0
 50
180.000000000000199
 51
201.037511025420514
  0
LINE
  5
251A
  8
0
  6
VERDECKT
 62
     1
 10
43.3999992370603991
 20
77.9125156778348043
 30
-0.0000000000000173
 11
43.3999992370604133
 21
66.5039377266500793
 31
-0.0000000000000148
210
0.0000000000000002
220
1.0
230
-0.0000000000000002
  0
LINE
  5
251B
  8
0
  6
VERDECKT
 62
     1
 10
-43.4000007629395483
 20
77.9125156778347332
 30
-0.0000000000000173
 11
-43.4000007629395412
 21
66.5039377266500082
 31
-0.0000000000000148
210
0.0000000000000002
220
1.0
230
-0.0000000000000002
  0
ARC
  5
251C
  8
0
  6
VERDECKT
 62
     1
 10
53.000000762940239
 20
77.9125156778345769
 30
0.0
 40
9.6000000000007706
210
0.0
220
-0.0000000000000002
230
-1.0
 50
150.7511736634534998
 51
179.9999999999990052
  0
ARC
  5
251D
  8
0
  6
VERDECKT
 62
     1
 10
-52.9999992370609618
 20
77.912515677834719
 30
0.0
 40
9.6000000000006196
210
0.0
220
-0.0000000000000002
230
-1.0
 50
0.0000000000000127
 51
29.2488263365461911
  0
LINE
  5
251E
  8
0
  6
VERDECKT
 62
     1
 10
-44.6239430098221774
 20
82.6031080195805885
 30
-0.0000000000000183
 11
-47.9800488905372404
 21
88.5961542351431603
 31
-0.0000000000000197
210
0.0000000000000002
220
1.0
230
-0.0000000000000002
  0
LINE
  5
251F
  8
0
  6
VERDECKT
 62
     1
 10
44.6239414839430708
 20
82.6031080195806737
 30
-0.0000000000000183
 11
47.9800473646581196
 21
88.5961542351432456
 31
-0.0000000000000197
210
0.0000000000000002
220
1.0
230
-0.0000000000000002
  0
ARC
  5
2520
  8
0
  6
VERDECKT
 62
     1
 10
41.0000007629393721
 20
92.5049811865978739
 30
0.0
 40
8.0000000000000906
210
0.0
220
-0.0000000000000002
230
-1.0
 50
330.751173663453585
 51
359.9999999999997158
  0
ARC
  5
2521
  8
0
  6
VERDECKT
 62
     1
 10
-40.9999992370602371
 20
92.5049811865979308
 30
0.0
 40
8.0000000000000782
210
0.0
220
-0.0000000000000002
230
-1.0
 50
180.0000000000001137
 51
209.2488263365461876
  0
LINE
  5
2522
  8
0
  6
VERDECKT
 62
     1
 10
48.9999992370604431
 20
120.0000000000000995
 30
-0.0000000000000266
 11
48.9999992370604431
 21
112.0000000000000995
 31
-0.0000000000000249
210
0.0000000000000002
220
1.0
230
-0.0000000000000002
  0
LINE
  5
2523
  8
0
  6
VERDECKT
 62
     1
 10
48.9999992370604431
 20
105.0000000000000995
 30
-0.0000000000000233
 11
48.9999992370604431
 21
92.5049811865979166
 31
-0.0000000000000205
210
0.0000000000000002
220
1.0
230
-0.0000000000000002
  0
LINE
  5
2524
  8
0
  6
VERDECKT
 62
     1
 10
-49.0000007629395569
 20
120.0000000000000995
 30
-0.0000000000000266
 11
-49.0000007629395569
 21
112.0000000000000995
 31
-0.0000000000000249
210
0.0000000000000002
220
1.0
230
-0.0000000000000002
  0
LINE
  5
2525
  8
0
  6
VERDECKT
 62
     1
 10
-49.0000007629395569
 20
105.0000000000000995
 30
-0.0000000000000233
 11
-49.0000007629395569
 21
92.5049811865978171
 31
-0.0000000000000205
210
0.0000000000000002
220
1.0
230
-0.0000000000000002
  0
LINE
  5
2526
  8
0
  6
VERDECKT
 62
     1
 10
-37.8356910605889922
 20
52.0504073814836872
 30
-0.0000000000000116
 11
37.8356895347099709
 21
52.0504073814837867
 31
-0.0000000000000116
210
0.0000000000000002
220
1.0
230
-0.0000000000000002
  0
LINE
  5
2527
  8
0
  6
VERDECKT
 62
     1
 10
-38.4063674639675625
 20
50.5855823354031031
 30
-0.0000000000000112
 11
38.4063659380884204
 21
50.5855823354032026
 31
-0.0000000000000112
210
0.0000000000000002
220
1.0
230
-0.0000000000000002
  0
LINE
  5
2528
  8
0
  6
VERDECKT
 62
     1
 10
-25.8875801182579792
 20
1.9999999999999769
 30
-0.0000000000000004
 11
25.8875785923790396
 21
2.0000000000000231
 31
-0.0000000000000004
210
0.0000000000000002
220
1.0
230
-0.0000000000000002
  0
LINE
  5
2529
  8
0
  6
VERDECKT
 62
     1
 10
-24.3818503619430196
 20
1.999999999999948
 30
-0.0000000000000004
 11
-25.0000007629395817
 21
9.0654914143626755
 31
-0.000000000000002
210
0.0000000000000002
220
1.0
230
-0.0000000000000002
  0
LINE
  5
252A
  8
0
  6
VERDECKT
 62
     1
 10
24.3818488360640799
 20
1.9999999999999929
 30
-0.0000000000000004
 11
24.9999992370606385
 21
9.0654914143627217
 31
-0.000000000000002
210
0.0000000000000002
220
1.0
230
-0.0000000000000002
  0
LINE
  5
252B
  8
0
  6
VERDECKT
 62
     1
 10
24.9999992370606989
 20
30.8258493095720496
 30
-0.0000000000000068
 11
24.9999992370607096
 21
9.0654914143627217
 31
-0.000000000000002
210
0.0000000000000002
220
1.0
230
-0.0000000000000002
  0
LINE
  5
252C
  8
0
  6
VERDECKT
 62
     1
 10
-25.0000007629396492
 20
30.8258493095720105
 30
-0.0000000000000068
 11
-25.0000007629396315
 21
9.0654914143626755
 31
-0.000000000000002
210
0.0000000000000002
220
1.0
230
-0.0000000000000002
  0
ARC
  5
252D
  8
0
  6
VERDECKT
 62
     1
 10
34.5000007629379226
 20
30.8258493095721704
 30
0.0
 40
9.4999999999982023
210
0.0
220
-0.0000000000000002
230
-1.0
 50
163.300755766005409
 51
180.0000000000009095
  0
ARC
  5
252E
  8
0
  6
VERDECKT
 62
     1
 10
-34.4999992370590007
 20
30.8258493095722201
 30
0.0
 40
9.4999999999983302
210
0.0
220
-0.0000000000000002
230
-1.0
 50
359.9999999999989768
 51
16.6992442339942606
  0
LINE
  5
252F
  8
0
  6
VERDECKT
 62
     1
 10
-25.40065105333872
 20
33.5556542224520769
 30
-0.0000000000000075
 11
-27.9908525060026214
 21
42.189659064665797
 31
-0.0000000000000094
210
0.0000000000000002
220
1.0
230
-0.0000000000000002
  0
LINE
  5
2530
  8
0
  6
VERDECKT
 62
     1
 10
25.4006495274596809
 20
33.5556542224521266
 30
-0.0000000000000075
 11
27.9908509801235788
 21
42.189659064665868
 31
-0.0000000000000094
210
0.0000000000000002
220
1.0
230
-0.0000000000000002
  0
ARC
  5
2531
  8
0
  6
VERDECKT
 62
     1
 10
37.1859848441264376
 20
39.4311193632282908
 30
0.0
 40
9.6000000000008843
210
0.0
220
-0.0000000000000002
230
-1.0
 50
127.6119684579474978
 51
163.3007557660041869
  0
ARC
  5
2532
  8
0
  6
VERDECKT
 62
     1
 10
-37.1859833182473665
 20
39.4311193632283832
 30
0.0
 40
9.6000000000008541
210
0.0
220
-0.0000000000000002
230
-1.0
 50
16.6992442339957385
 51
52.3880315420525733
  0
LINE
  5
2533
  8
0
  6
VERDECKT
 62
     1
 10
-31.3270025928197207
 20
47.0358762284337715
 30
-0.0000000000000104
 11
-37.835691060588978
 21
52.0504073814836872
 31
-0.0000000000000116
210
0.0000000000000002
220
1.0
230
-0.0000000000000002
  0
LINE
  5
2534
  8
0
  6
VERDECKT
 62
     1
 10
31.3270010669406886
 20
47.0358762284338425
 30
-0.0000000000000104
 11
37.8356895347099567
 21
52.0504073814837795
 31
-0.0000000000000116
210
0.0000000000000002
220
1.0
230
-0.0000000000000002
  0
LINE
  5
2535
  8
0
  6
VERDECKT
 62
     1
 10
37.8356895347099282
 20
52.0504073814837582
 30
-0.0000000000000116
 11
38.4063659380884488
 21
50.5855823354031671
 31
-0.0000000000000112
210
0.0000000000000002
220
1.0
230
-0.0000000000000002
  0
LINE
  5
2536
  8
0
  6
VERDECKT
 62
     1
 10
-37.8356910605889709
 20
52.0504073814836801
 30
-0.0000000000000116
 11
-38.4063674639674915
 21
50.5855823354030889
 31
-0.0000000000000112
210
0.0000000000000002
220
1.0
230
-0.0000000000000002
  0
LINE
  5
2537
  8
0
  6
VERDECKT
 62
     1
 10
-32.23105385947337
 20
45.8388137528873898
 30
-0.0000000000000102
 11
-38.4063674639675199
 21
50.5855823354030676
 31
-0.0000000000000112
210
0.0000000000000002
220
1.0
230
-0.0000000000000002
  0
LINE
  5
2538
  8
0
  6
VERDECKT
 62
     1
 10
32.2310523335943273
 20
45.8388137528874609
 30
-0.0000000000000102
 11
38.4063659380884985
 21
50.58558233540316
 31
-0.0000000000000112
210
0.0000000000000002
220
1.0
230
-0.0000000000000002
  0
ARC
  5
2539
  8
0
  6
VERDECKT
 62
     1
 10
37.0994525122371286
 20
39.4906884738956023
 30
0.0
 40
8.0000000000004583
210
0.0
220
-0.0000000000000002
230
-1.0
 50
127.4847200510391048
 51
163.3007557660068869
  0
ARC
  5
253A
  8
0
  6
VERDECKT
 62
     1
 10
-37.0994509863580575
 20
39.4906884738957018
 30
0.0
 40
8.0000000000004192
210
0.0
220
-0.0000000000000002
230
-1.0
 50
16.6992442339930491
 51
52.5152799489610018
  0
LINE
  5
253B
  8
0
  6
VERDECKT
 62
     1
 10
-26.8373904811703916
 20
33.1246323941025267
 30
-0.0000000000000074
 11
-29.4368422304674802
 21
41.7894715584264134
 31
-0.0000000000000093
210
0.0000000000000002
220
1.0
230
-0.0000000000000002
  0
LINE
  5
253C
  8
0
  6
VERDECKT
 62
     1
 10
26.8373889552913489
 20
33.1246323941025835
 30
-0.0000000000000074
 11
29.4368407045884304
 21
41.7894715584264915
 31
-0.0000000000000093
210
0.0000000000000002
220
1.0
230
-0.0000000000000002
  0
ARC
  5
253D
  8
0
  6
VERDECKT
 62
     1
 10
34.5000007629397203
 20
30.8258493095717796
 30
0.0
 40
8.000000000000119
210
0.0
220
-0.0000000000000002
230
-1.0
 50
163.300755766006688
 51
180.000000000000199
  0
ARC
  5
253E
  8
0
  6
VERDECKT
 62
     1
 10
-34.4999992370605923
 20
30.8258493095718613
 30
0.0
 40
8.0000000000000355
210
0.0
220
-0.0000000000000002
230
-1.0
 50
359.9999999999996021
 51
16.6992442339932197
  0
LINE
  5
253F
  8
0
  6
VERDECKT
 62
     1
 10
26.4999992370606385
 20
30.8258493095718009
 30
-0.0000000000000068
 11
26.4999992370606599
 21
9.0000000000000533
 31
-0.000000000000002
210
0.0000000000000002
220
1.0
230
-0.0000000000000002
  0
LINE
  5
2540
  8
0
  6
VERDECKT
 62
     1
 10
-26.5000007629395888
 20
30.8258493095717512
 30
-0.0000000000000068
 11
-26.5000007629395711
 21
9.0000000000000071
 31
-0.000000000000002
210
0.0000000000000002
220
1.0
230
-0.0000000000000002
  0
LINE
  5
2541
  8
0
  6
VERDECKT
 62
     1
 10
-25.8875801182580112
 20
1.99999999999998
 30
-0.0000000000000004
 11
-26.5000007629395498
 21
9.0000000000000089
 31
-0.000000000000002
210
0.0000000000000002
220
1.0
230
-0.0000000000000002
  0
LINE
  5
2542
  8
0
  6
VERDECKT
 62
     1
 10
25.8875785923790787
 20
2.0000000000000249
 30
-0.0000000000000004
 11
26.4999992370606101
 21
9.0000000000000568
 31
-0.000000000000002
210
0.0000000000000002
220
1.0
230
-0.0000000000000002
  0
ENDBLK
  5
2544
  8
0
  0
BLOCK
  8
0
  2
A$C28074413
 70
     0
 10
0.0
 20
0.0
 30
0.0
  3
A$C28074413
  1

  0
LINE
  5
2548
  8
0
  6
CONTINUOUS
 62
     3
 10
22.2990381056764804
 20
-35.6230669589463389
 30
0.0
 11
15.2990381056765994
 21
-23.4987113059642887
 31
-0.0000000000000018
  0
LINE
  5
2549
  8
0
  6
CONTINUOUS
 62
     3
 10
12.7009618943233296
 20
-24.9987113059642887
 30
0.0
 11
15.2990381056767095
 21
-23.4987113059642887
 31
0.0000000000000006
  0
LINE
  5
254A
  8
0
  6
CONTINUOUS
 62
     3
 10
12.7009618943233296
 20
-24.9987113059642887
 30
0.0
 11
19.7009618943232212
 21
-37.1230669589463389
 31
0.0000000000000018
  0
LINE
  5
254B
  8
0
  6
CONTINUOUS
 62
     3
 10
19.7009618943232212
 20
-37.1230669589463389
 30
0.0
 11
22.2990381056766012
 21
-35.6230669589463389
 31
0.0000000000000006
  0
LINE
  5
254C
  8
0
  6
CONTINUOUS
 62
     3
 10
15.2990381056765905
 20
-23.4987113059644201
 30
0.0
 11
11.7990381056765905
 21
-17.4365334794733506
 31
-0.0000000000000008
  0
LINE
  5
254D
  8
0
  6
CONTINUOUS
 62
     3
 10
9.2009618943233367
 20
-18.9365334794732405
 30
0.0
 11
11.7990381056767095
 21
-17.4365334794732405
 31
0.0000000000000006
  0
LINE
  5
254E
  8
0
  6
CONTINUOUS
 62
     3
 10
9.2009618943233367
 20
-18.9365334794732405
 30
0.0
 11
12.7009618943233296
 21
-24.99871130596431
 31
0.0000000000000008
  0
LINE
  5
254F
  8
0
  6
CONTINUOUS
 62
     3
 10
25.7875558231702584
 20
-41.665356888749578
 30
0.0
 11
22.2990381056766012
 21
-35.6230669589463389
 31
-0.0000000000000008
  0
LINE
  5
2550
  8
0
  6
CONTINUOUS
 62
     3
 10
19.7009618943232212
 20
-37.1230669589463389
 30
0.0
 11
23.1894796118168891
 21
-43.1653568887495922
 31
0.0000000000000008
  0
ARC
  5
2551
  8
0
  6
CONTINUOUS
 62
     3
 10
-0.0000000000000964
 20
0.0000000000000724
 30
0.0
 40
43.3999999999998565
 50
61.9806633431356815
 51
180.0
  0
ARC
  5
2552
  8
0
  6
CONTINUOUS
 62
     3
 10
-0.0000000000002101
 20
0.0000000000000297
 30
0.0
 40
43.3999999999999488
 50
301.980663343135916
 51
58.0193366568640201
  0
ARC
  5
2553
  8
0
  6
CONTINUOUS
 62
     3
 10
-0.0000000000000964
 20
-0.00000000000002
 30
0.0
 40
43.3999999999998423
 50
179.9999999999998863
 51
298.0193366568644251
  0
CIRCLE
  5
2554
  8
0
  6
CONTINUOUS
 62
     3
 10
-0.000000000000087
 20
0.0000000000000363
 30
0.0
 40
50.6000000000000014
  0
LINE
  5
2555
  8
0
  6
CONTINUOUS
 62
     3
 10
46.9999999999996874
 20
-13.8564064605510406
 30
0.0000000000000142
 11
46.9999999999996874
 21
13.8564064605504296
 31
0.0000000000000142
  0
LINE
  5
2556
  8
0
  6
CONTINUOUS
 62
     3
 10
-35.5000000000003126
 20
-33.7749907475934776
 30
-0.0000000000000142
 11
-11.5000000000003109
 21
-47.6313972081444703
 31
-0.0000000000000089
  0
LINE
  5
2557
  8
0
  6
CONTINUOUS
 62
     3
 10
-47.0000000000003126
 20
13.8564064605508594
 30
-0.0000000000000142
 11
-47.0000000000003126
 21
-13.8564064605514705
 31
-0.0000000000000142
  0
LINE
  5
2558
  8
0
  6
CONTINUOUS
 62
     3
 10
-11.5000000000004299
 20
47.6313972081437882
 30
0.0
 11
-35.500000000000199
 21
33.7749907475929092
 31
-0.0000000000000053
  0
CIRCLE
  5
2559
  8
0
  6
CONTINUOUS
 62
     3
 10
-0.000000000000087
 20
0.0000000000000323
 30
0.0
 40
49.0
  0
ARC
  5
255A
  8
0
  6
CONTINUOUS
 62
     3
 10
0.0000000000000004
 20
-0.0000000000000257
 30
0.0
 40
24.3818495990035409
 50
63.5271309306105891
 51
179.9999999999998863
  0
ARC
  5
255B
  8
0
  6
CONTINUOUS
 62
     3
 10
0.0000000000000573
 20
0.0000000000000152
 30
0.0
 40
24.3818495990035196
 50
303.5271309306099283
 51
56.4728690693901072
  0
ARC
  5
255C
  8
0
  6
CONTINUOUS
 62
     3
 10
0.0000000000000004
 20
0.0000000000000152
 30
0.0
 40
24.3818495990035515
 50
180.0
 51
296.4728690693895032
  0
ARC
  5
255D
  8
0
  6
CONTINUOUS
 62
     3
 10
0.0000000000000068
 20
0.000000000000001
 30
0.0
 40
25.0000000000002309
 50
63.4398127675154129
 51
179.9999999999998863
  0
ARC
  5
255E
  8
0
  6
CONTINUOUS
 62
     3
 10
-0.00000000000005
 20
0.000000000000017
 30
0.0
 40
25.0000000000001883
 50
303.4398127675149226
 51
56.5601872324850987
  0
ARC
  5
255F
  8
0
  6
CONTINUOUS
 62
     3
 10
-0.00000000000005
 20
-0.0000000000000097
 30
0.0
 40
25.0000000000001812
 50
179.9999999999998863
 51
296.5601872324849069
  0
ARC
  5
2560
  8
0
  6
CONTINUOUS
 62
     3
 10
-0.0000000000000453
 20
-0.0000000000000119
 30
0.0
 40
37.835690297649478
 50
62.2720927772251827
 51
179.9999999999998863
  0
ARC
  5
2561
  8
0
  6
CONTINUOUS
 62
     3
 10
-0.0000000000000453
 20
0.0000000000000218
 30
0.0
 40
37.835690297649478
 50
302.2720927772249979
 51
57.7279072227749879
  0
ARC
  5
2562
  8
0
  6
CONTINUOUS
 62
     3
 10
-0.0000000000000453
 20
0.0000000000000307
 30
0.0
 40
37.8356902976494922
 50
180.0
 51
297.7279072227747747
  0
ARC
  5
2563
  8
0
  6
CONTINUOUS
 62
     3
 10
-0.0000000000000456
 20
0.0000000000000448
 30
0.0
 40
38.4063667010279772
 50
62.2383146604248694
 51
180.0
  0
ARC
  5
2564
  8
0
  6
CONTINUOUS
 62
     3
 10
-0.0000000000002161
 20
0.0000000000000235
 30
0.0
 40
38.4063667010280767
 50
302.2383146604249191
 51
57.7616853395751235
  0
ARC
  5
2565
  8
0
  6
CONTINUOUS
 62
     3
 10
0.0000000000000112
 20
0.0000000000000555
 30
0.0
 40
38.4063667010279985
 50
180.0
 51
297.761685339575024
  0
LINE
  5
2566
  8
0
  6
CONTINUOUS
 62
     3
 10
19.7009618943233384
 20
37.1230669589465094
 30
0.0
 11
12.7009618943233402
 21
24.9987113059644592
 31
-0.0000000000000018
  0
LINE
  5
2567
  8
0
  6
CONTINUOUS
 62
     3
 10
15.2990381056765905
 20
23.4987113059644699
 30
0.0
 11
12.7009618943233296
 21
24.9987113059644699
 31
-0.0000000000000006
  0
LINE
  5
2568
  8
0
  6
CONTINUOUS
 62
     3
 10
15.2990381056765905
 20
23.4987113059644699
 30
0.0
 11
22.2990381056766012
 21
35.6230669589465094
 31
0.0000000000000018
  0
LINE
  5
2569
  8
0
  6
CONTINUOUS
 62
     3
 10
22.2990381056766012
 20
35.6230669589464526
 30
0.0
 11
19.7009618943233384
 21
37.1230669589464526
 31
-0.0000000000000006
  0
LINE
  5
256A
  8
0
  6
CONTINUOUS
 62
     3
 10
12.7009618943233296
 20
24.9987113059644805
 30
0.0
 11
9.2009618943233367
 21
18.936533479473411
 31
-0.0000000000000008
  0
LINE
  5
256B
  8
0
  6
CONTINUOUS
 62
     3
 10
11.7990381056765905
 20
17.436533479473411
 30
0.0
 11
9.2009618943233367
 21
18.936533479473411
 31
-0.0000000000000006
  0
LINE
  5
256C
  8
0
  6
CONTINUOUS
 62
     3
 10
11.7990381056765905
 20
17.436533479473411
 30
0.0
 11
15.2990381056765905
 21
23.4987113059644912
 31
0.0000000000000008
  0
LINE
  5
256D
  8
0
  6
CONTINUOUS
 62
     3
 10
23.1894796118168891
 20
43.1653568887496633
 30
0.0
 11
19.7009618943232212
 21
37.1230669589464526
 31
-0.0000000000000008
  0
LINE
  5
256E
  8
0
  6
CONTINUOUS
 62
     3
 10
22.2990381056766012
 20
35.6230669589464526
 30
0.0
 11
25.7875558231702584
 21
41.6653568887496419
 31
0.0000000000000008
  0
LINE
  5
256F
  8
0
  6
VERDECKT
 62
     1
 10
22.2009618943232283
 20
-41.4531939778685512
 30
0.0
 11
24.7990381056766012
 21
-39.9531939778685512
 31
0.0000000000000006
  0
LINE
  5
2570
  8
0
  6
VERDECKT
 62
     1
 10
23.2009618943232283
 20
-43.1852447854374475
 30
0.0
 11
25.7990381056766012
 21
-41.6852447854374404
 31
0.0000000000000006
  0
LINE
  5
2571
  8
0
  6
VERDECKT
 62
     1
 10
25.7990381056766012
 20
-41.685244785437412
 30
0.0
 11
25.7875558231702584
 21
-41.665356888749578
 31
0.0
  0
LINE
  5
2572
  8
0
  6
VERDECKT
 62
     1
 10
23.1894796118168891
 20
-43.1653568887495922
 30
0.0
 11
23.2009618943232283
 21
-43.185244785437412
 31
0.0
  0
CIRCLE
  5
2573
  8
0
  6
VERDECKT
 62
     1
 10
0.0
 20
0.000000000000025
 30
0.0
 40
43.5000000000001066
  0
CIRCLE
  5
2574
  8
0
  6
VERDECKT
 62
     1
 10
-0.0000000000001025
 20
0.000000000000028
 30
0.0
 40
38.400000000000027
  0
ARC
  5
2575
  8
0
  6
VERDECKT
 62
     1
 10
-0.0000000000234022
 20
-0.0000000000403078
 30
0.0
 40
43.4000000000464468
 50
58.0193366568662867
 51
61.9806633431335712
  0
ARC
  5
2576
  8
0
  6
VERDECKT
 62
     1
 10
-0.0000000000206737
 20
0.0000000000358411
 30
0.0
 40
43.4000000000411674
 50
298.0193366568660736
 51
301.9806633431339264
  0
CIRCLE
  5
2577
  8
0
  6
VERDECKT
 62
     1
 10
-0.0000000000000964
 20
0.0000000000000297
 30
0.0
 40
44.9999999999999218
  0
CIRCLE
  5
2578
  8
0
  6
VERDECKT
 62
     1
 10
-0.0000000000001025
 20
0.0000000000000281
 30
0.0
 40
39.9999999999999503
  0
CIRCLE
  5
2579
  8
0
  6
VERDECKT
 62
     1
 10
0.0
 20
0.000000000000025
 30
0.0
 40
45.1512007751937219
  0
LINE
  5
257A
  8
0
  6
VERDECKT
 62
     1
 10
-24.5000000000000888
 20
-42.4352447854374475
 30
0.0
 11
-13.5674797050268996
 21
-48.7471383206612714
 31
0.0000000000000024
  0
LINE
  5
257B
  8
0
  6
VERDECKT
 62
     1
 10
-35.4325202949732727
 20
-36.1233512502136378
 30
-0.0000000000000142
 11
-24.5000000000000888
 21
-42.4352447854374475
 31
-0.0000000000000118
  0
LINE
  5
257C
  8
0
  6
VERDECKT
 62
     1
 10
-24.5000000000000888
 20
42.4352447854375185
 30
0.0
 11
-35.4325202949732727
 21
36.1233512502137089
 31
-0.0000000000000024
  0
LINE
  5
257D
  8
0
  6
VERDECKT
 62
     1
 10
-13.5674797050268996
 20
48.7471383206613424
 30
0.0
 11
-24.5000000000000888
 21
42.4352447854375185
 31
-0.0000000000000024
  0
LINE
  5
257E
  8
0
  6
VERDECKT
 62
     1
 10
49.0000000000000284
 20
0.0000000000000318
 30
0.0000000000000142
 11
49.0000000000000284
 21
12.6237870704471895
 31
0.0000000000000142
  0
LINE
  5
257F
  8
0
  6
VERDECKT
 62
     1
 10
49.0000000000000284
 20
-12.6237870704471202
 30
0.0000000000000142
 11
49.0000000000000284
 21
0.000000000000032
 31
0.0000000000000142
  0
LINE
  5
2580
  8
0
  6
VERDECKT
 62
     1
 10
-49.0000000000000924
 20
12.6237870704476407
 30
-0.0000000000000142
 11
-49.0000000000000924
 21
0.000000000000032
 31
-0.0000000000000142
  0
LINE
  5
2581
  8
0
  6
VERDECKT
 62
     1
 10
-49.0000000000000924
 20
0.0000000000000318
 30
-0.0000000000000142
 11
-49.0000000000000924
 21
-12.6237870704475696
 31
-0.0000000000000142
  0
ARC
  5
2582
  8
0
  6
VERDECKT
 62
     1
 10
-0.0000000000017049
 20
-0.0000000000030668
 30
0.0
 40
24.3818495990070616
 50
56.4728690693906685
 51
63.5271309306102197
  0
ARC
  5
2583
  8
0
  6
VERDECKT
 62
     1
 10
-0.0000000000056271
 20
0.0000000000097727
 30
0.0
 40
24.3818495990147888
 50
296.4728690693912085
 51
303.5271309306083936
  0
ARC
  5
2584
  8
0
  6
VERDECKT
 62
     1
 10
0.0000000000056343
 20
0.0000000000099024
 30
0.0
 40
24.999999999988809
 50
56.5601872324835
 51
63.4398127675168197
  0
ARC
  5
2585
  8
0
  6
VERDECKT
 62
     1
 10
0.0000000000015416
 20
-0.0000000000028021
 30
0.0
 40
24.9999999999969695
 50
296.560187232484509
 51
303.4398127675153773
  0
ARC
  5
2586
  8
0
  6
VERDECKT
 62
     1
 10
0.0000000000045022
 20
0.0000000000078609
 30
0.0
 40
37.8356902976404186
 50
57.7279072227744621
 51
62.2720927772257298
  0
ARC
  5
2587
  8
0
  6
VERDECKT
 62
     1
 10
0.0000000000044453
 20
-0.0000000000077853
 30
0.0
 40
37.8356902976404825
 50
297.72790722277432
 51
302.2720927772255095
  0
ARC
  5
2588
  8
0
  6
VERDECKT
 62
     1
 10
0.0000000000032513
 20
0.0000000000057931
 30
0.0
 40
38.4063667010213479
 50
57.761685339574889
 51
62.2383146604252602
  0
ARC
  5
2589
  8
0
  6
VERDECKT
 62
     1
 10
0.0000000000033082
 20
-0.0000000000058314
 30
0.0
 40
38.4063667010212484
 50
297.7616853395747967
 51
302.2383146604250896
  0
CIRCLE
  5
258A
  8
0
  6
VERDECKT
 62
     1
 10
-0.00000000000005
 20
0.0000000000000152
 30
0.0
 40
26.5000000000000817
  0
CIRCLE
  5
258B
  8
0
  6
VERDECKT
 62
     1
 10
0.0000000000000004
 20
0.0000000000000134
 30
0.0
 40
25.8875793553185716
  0
LINE
  5
258C
  8
0
  6
VERDECKT
 62
     1
 10
24.7990381056766012
 20
39.953193977868672
 30
0.0
 11
22.2009618943233384
 21
41.4531939778686578
 31
-0.0000000000000006
  0
LINE
  5
258D
  8
0
  6
VERDECKT
 62
     1
 10
25.7990381056766012
 20
41.6852447854374972
 30
0.0
 11
23.2009618943233384
 21
43.1852447854374972
 31
-0.0000000000000006
  0
LINE
  5
258E
  8
0
  6
VERDECKT
 62
     1
 10
23.2009618943232283
 20
43.1852447854375185
 30
0.0
 11
23.1894796118168891
 21
43.1653568887496633
 31
0.0
  0
LINE
  5
258F
  8
0
  6
VERDECKT
 62
     1
 10
25.7875558231702584
 20
41.6653568887496419
 30
0.0
 11
25.7990381056766012
 21
41.6852447854375114
 31
0.0
  0
ENDBLK
  5
2591
  8
0
  0
ENDSEC
  0
SECTION
  2
ENTITIES
  0
TEXT
  5
8E
  8
VOLL
 10
78.076754716981128
 20
31.025947764705851
 30
0.0
 40
1.8
  1

  7
GREEKS
  0
INSERT
  5
2545
  8
0
  2
A$C25100151
 10
-0.0000000000001137
 20
0.0000000000000323
 30
120.0
  0
INSERT
  5
2592
  8
0
  2
A$C28074413
 10
-0.0000007629395853
 20
-77.2934862035126571
 30
120.0
  0
VIEWPORT
  5
2136
 67
     1
  8
0
 10
6.800349237637163
 20
8.2147522225449219
 30
0.0
 40
31.5892187758286802
 41
16.7347647086235192
 68
     1
 69
     1
1001
ACAD
1000
MVIEW
1002
{
1070
    16
1010
0.0
1020
0.0
1030
0.0
1010
0.0
1020
0.0
1030
1.0
1040
0.0
1040
16.7347647086235192
1040
6.800349237637163
1040
8.2147522225449219
1040
50.0
1040
0.0
1040
0.0
1070
     0
1070
  1500
1070
     1
1070
     1
1070
     0
1070
     0
1070
     0
1070
     0
1040
0.0
1040
0.0
1040
0.0
1040
10.0
1040
10.0
1040
10.0
1040
10.0
1070
     0
1002
{
1002
}
1002
}
  0
ENDSEC
  0
EOF
