  0
SECTION
  2
HEADER
  9
$ACADVER
  1
AC1009
  9
$INSBASE
 10
0.0
 20
0.0
 30
0.0
  9
$EXTMIN
 10
-51.7874857450328818
 20
-150.8740117765078139
 30
-0.0028989487362026
  9
$EXTMAX
 10
50.8722017173286076
 20
95.0189513710315623
 30
0.0043488654823705
  9
$LIMMIN
 10
0.0
 20
0.0
  9
$LIMMAX
 10
296.9999999999998863
 20
420.0000000000001137
  9
$ORTHOMODE
 70
     1
  9
$REGENMODE
 70
     1
  9
$FILLMODE
 70
     1
  9
$QTEXTMODE
 70
     0
  9
$MIRRTEXT
 70
     1
  9
$DRAGMODE
 70
     2
  9
$LTSCALE
 40
10.0
  9
$OSMODE
 70
   511
  9
$ATTMODE
 70
     1
  9
$TEXTSIZE
 40
3.5
  9
$TRACEWID
 40
0.5
  9
$TEXTSTYLE
  7
STANDARD
  9
$CLAYER
  8
STEMPEL
  9
$CELTYPE
  6
BYLAYER
  9
$CECOLOR
 62
   256
  9
$DIMSCALE
 40
1.0
  9
$DIMASZ
 40
3.5
  9
$DIMEXO
 40
1.0
  9
$DIMDLI
 40
0.38
  9
$DIMRND
 40
0.0
  9
$DIMDLE
 40
0.0
  9
$DIMEXE
 40
1.0
  9
$DIMTP
 40
0.0
  9
$DIMTM
 40
0.000000001
  9
$DIMTXT
 40
3.5
  9
$DIMCEN
 40
0.09
  9
$DIMTSZ
 40
0.0
  9
$DIMTOL
 70
     0
  9
$DIMLIM
 70
     0
  9
$DIMTIH
 70
     0
  9
$DIMTOH
 70
     0
  9
$DIMSE1
 70
     0
  9
$DIMSE2
 70
     0
  9
$DIMTAD
 70
     1
  9
$DIMZIN
 70
     8
  9
$DIMBLK
  1

  9
$DIMASO
 70
     1
  9
$DIMSHO
 70
     0
  9
$DIMPOST
  1

  9
$DIMAPOST
  1

  9
$DIMALT
 70
     0
  9
$DIMALTD
 70
     2
  9
$DIMALTF
 40
25.3999999999999986
  9
$DIMLFAC
 40
1.0
  9
$DIMTOFL
 70
     1
  9
$DIMTVP
 40
0.0
  9
$DIMTIX
 70
     0
  9
$DIMSOXD
 70
     0
  9
$DIMSAH
 70
     0
  9
$DIMBLK1
  1

  9
$DIMBLK2
  1

  9
$DIMSTYLE
  2
LORO
  9
$DIMCLRD
 70
     0
  9
$DIMCLRE
 70
     0
  9
$DIMCLRT
 70
     1
  9
$DIMTFAC
 40
0.5
  9
$DIMGAP
 40
1.5
  9
$LUNITS
 70
     2
  9
$LUPREC
 70
     2
  9
$SKETCHINC
 40
1.0
  9
$FILLETRAD
 40
0.0
  9
$AUNITS
 70
     0
  9
$AUPREC
 70
     0
  9
$MENU
  1
ACAD
  9
$ELEVATION
 40
0.0
  9
$PELEVATION
 40
0.0
  9
$THICKNESS
 40
0.0
  9
$LIMCHECK
 70
     0
  9
$BLIPMODE
 70
     0
  9
$CHAMFERA
 40
0.0
  9
$CHAMFERB
 40
0.0
  9
$SKPOLY
 70
     0
  9
$TDCREATE
 40
2451337.6017592591233552
  9
$TDUPDATE
 40
2460333.5793171301484108
  9
$TDINDWG
 40
0.6657468981
  9
$TDUSRTIMER
 40
0.6657468981
  9
$USRTIMER
 70
     1
  9
$ANGBASE
 50
0.0
  9
$ANGDIR
 70
     0
  9
$PDMODE
 70
     0
  9
$PDSIZE
 40
0.0
  9
$PLINEWID
 40
0.0
  9
$COORDS
 70
     1
  9
$SPLFRAME
 70
     0
  9
$SPLINETYPE
 70
     6
  9
$SPLINESEGS
 70
     8
  9
$ATTDIA
 70
     1
  9
$ATTREQ
 70
     1
  9
$HANDLING
 70
     1
  9
$HANDSEED
  5
4EC9
  9
$SURFTAB1
 70
     6
  9
$SURFTAB2
 70
     6
  9
$SURFTYPE
 70
     6
  9
$SURFU
 70
     6
  9
$SURFV
 70
     6
  9
$UCSNAME
  2

  9
$UCSORG
 10
0.0
 20
0.0
 30
0.0
  9
$UCSXDIR
 10
1.0
 20
0.0
 30
0.0
  9
$UCSYDIR
 10
0.0
 20
1.0
 30
0.0
  9
$PUCSNAME
  2

  9
$PUCSORG
 10
0.0
 20
0.0
 30
0.0
  9
$PUCSXDIR
 10
1.0
 20
0.0
 30
0.0
  9
$PUCSYDIR
 10
0.0
 20
1.0
 30
0.0
  9
$USERI1
 70
     0
  9
$USERI2
 70
     0
  9
$USERI3
 70
     0
  9
$USERI4
 70
     0
  9
$USERI5
 70
     0
  9
$USERR1
 40
0.0
  9
$USERR2
 40
0.0
  9
$USERR3
 40
0.0
  9
$USERR4
 40
0.0
  9
$USERR5
 40
0.0
  9
$WORLDVIEW
 70
     1
  9
$SHADEDGE
 70
     3
  9
$SHADEDIF
 70
    70
  9
$TILEMODE
 70
     1
  9
$MAXACTVP
 70
    16
  9
$PLIMCHECK
 70
     0
  9
$PEXTMIN
 10
1.0000000000000000E+20
 20
1.0000000000000000E+20
 30
1.0000000000000000E+20
  9
$PEXTMAX
 10
-1.0000000000000000E+20
 20
-1.0000000000000000E+20
 30
-1.0000000000000000E+20
  9
$PLIMMIN
 10
-0.2527045896481468
 20
-0.2508170298086156
  9
$PLIMMAX
 10
296.74729541035191
 20
419.7491829701913275
  9
$UNITMODE
 70
     0
  9
$VISRETAIN
 70
     0
  9
$PLINEGEN
 70
     0
  9
$PSLTSCALE
 70
     0
  0
ENDSEC
  0
SECTION
  2
TABLES
  0
TABLE
  2
VPORT
 70
     1
  0
VPORT
  2
*ACTIVE
 70
     0
 10
0.0
 20
0.0
 11
1.0
 21
1.0
 12
-0.4576420138521087
 22
-50.0043028925574617
 13
0.0
 23
0.0
 14
1.0
 24
1.0
 15
10.0
 25
10.0
 16
-0.0000000000001017
 26
0.0
 36
457.9548297637451242
 17
0.0
 27
22.0767726898193288
 37
-0.0000000000000105
 40
247.1517594998850029
 41
1.8720136518771331
 42
50.0
 43
0.0
 44
0.0
 50
0.0
 51
0.0
 71
     0
 72
  1500
 73
     1
 74
     0
 75
     0
 76
     0
 77
     0
 78
     0
  0
ENDTAB
  0
TABLE
  2
LTYPE
 70
     3
  0
LTYPE
  2
CONTINUOUS
 70
     0
  3
Solid line
 72
    65
 73
     0
 40
0.0
  0
LTYPE
  2
STRICHPUNKT
 70
     0
  3
__ . __ . __ . __ . __ . __ . __ . __ . __ . __
 72
    65
 73
     4
 40
1.0
 49
0.5
 49
-0.25
 49
0.0
 49
-0.25
  0
LTYPE
  2
VERDECKT
 70
     0
  3
Verdeckt __ __ __ __ __ __ __ __ __ __ __ __ __
 72
    65
 73
     2
 40
0.375
 49
0.25
 49
-0.125
  0
ENDTAB
  0
TABLE
  2
LAYER
 70
     6
  0
LAYER
  2
0
 70
     0
 62
     7
  6
CONTINUOUS
  0
LAYER
  2
VOLL
 70
     0
 62
     1
  6
CONTINUOUS
  0
LAYER
  2
STEMPEL
 70
     0
 62
     3
  6
CONTINUOUS
  0
LAYER
  2
ADSK_ASSOC_ENTITY_BACKUPS
 70
     1
 62
    -7
  6
CONTINUOUS
  0
ENDTAB
  0
TABLE
  2
STYLE
 70
     3
  0
STYLE
  2
STANDARD
 70
     0
 40
0.0
 41
0.8
 50
0.0
 71
     0
 42
3.5
  3
simplex.shx
  4

  0
STYLE
  2
GREEKS
 70
     0
 40
0.0
 41
0.8
 50
0.0
 71
     0
 42
2.5
  3
SIMPLEX.shx
  4

  0
ENDTAB
  0
TABLE
  2
VIEW
 70
     0
  0
ENDTAB
  0
TABLE
  2
UCS
 70
     0
  0
ENDTAB
  0
TABLE
  2
APPID
 70
    25
  0
APPID
  2
ACAD
 70
     0
  0
APPID
  2
ACAD_EXEMPT_FROM_CAD_STANDARDS
 70
     0
  0
APPID
  2
ACAD_NAV_VCDISPLAY
 70
     0
  0
APPID
  2
ACAD_PSEXT
 70
     0
  0
APPID
  2
ACAECLAYERSTANDARD
 70
     0
  0
APPID
  2
ACCMTRANSPARENCY
 70
     0
  0
APPID
  2
ACAD_MLEADERVER
 70
     0
  0
APPID
  2
ACAD_OBJECT_CHANGE_GUID
 70
     0
  0
APPID
  2
ACDBDYNAMICBLOCKGUID
 70
     0
  0
APPID
  2
ACSYNERGY
 70
     0
  0
APPID
  2
SYNERGY_BODY_TBR_ID
 70
     0
  0
APPID
  2
ACAD_VIEW_EDGE_ID
 70
     0
  0
APPID
  2
ACAD_DSTYLE_DIMJAG
 70
     0
  0
APPID
  2
ACAD_DSTYLE_DIMBREAK
 70
     0
  0
APPID
  2
ACAD_DSTYLE_DIMTALN
 70
     0
  0
APPID
  2
ACAD_STEPID
 70
     0
  0
APPID
  2
ACSYNERGYSKETCH
 70
     0
  0
APPID
  2
ACAD_MODELDOC_XFORM
 70
     0
  0
APPID
  2
ACADANNOMONITORALERTICONDI
 70
     0
  0
APPID
  2
ACADANNOPO
 70
     0
  0
APPID
  2
ACAD_DIMASSOC_CALC_DIMLFAC
 70
     0
  0
APPID
  2
ACAD_DIMASSOC_DIMLFAC
 70
     0
  0
APPID
  2
ACAD_DIMASSOC_OVERRIDDEN_D
 70
     0
  0
APPID
  2
ACAD_DSTYLE_DIMRADIAL_EXTENSION
 70
     0
  0
APPID
  2
ACADANNOTATIVE
 70
     0
  0
ENDTAB
  0
TABLE
  2
DIMSTYLE
 70
     4
  0
DIMSTYLE
  2
LORO
 70
     0
  3

  4

  5

  6

  7

 40
1.0
 41
3.5
 42
1.0
 43
0.38
 44
1.0
 45
0.0
 46
0.0
 47
0.0
 48
0.000000001
140
3.5
141
0.09
142
0.0
143
25.3999999999999986
144
1.0
145
0.0
146
0.5
147
1.5
 71
     0
 72
     0
 73
     0
 74
     0
 75
     0
 76
     0
 77
     1
 78
     8
170
     0
171
     2
172
     1
173
     0
174
     0
175
     0
176
     0
177
     0
178
     1
  0
ENDTAB
  0
ENDSEC
  0
SECTION
  2
BLOCKS
  0
BLOCK
  8
0
  2
$MODEL_SPACE
 70
     0
 10
0.0
 20
0.0
 30
0.0
  3
$MODEL_SPACE
  1

  0
ENDBLK
  5
36
  8
0
  0
BLOCK
 67
     1
  8
0
  2
$PAPER_SPACE
 70
     0
 10
0.0
 20
0.0
 30
0.0
  3
$PAPER_SPACE
  1

  0
ENDBLK
  5
34
 67
     1
  8
0
  0
BLOCK
  8
0
  2
*S0
 70
     1
 10
0.0
 20
0.0
 30
0.0
  3
*S0
  1

  0
ENDBLK
  5
2548
  8
0
  0
BLOCK
  8
0
  2
A$C5E1C1A49
 70
     0
 10
0.0
 20
0.0
 30
0.0
  3
A$C5E1C1A49
  1

  0
CIRCLE
  5
4E22
  8
0
  6
CONTINUOUS
 62
     3
 10
-0.0000000000000374
 20
0.0000000000000284
 30
0.0
 40
24.5074442146850302
  0
CIRCLE
  5
4E23
  8
0
  6
CONTINUOUS
 62
     3
 10
-0.0000000000000735
 20
0.0000000000000392
 30
0.0
 40
24.9999999999999787
  0
CIRCLE
  5
4E24
  8
0
  6
CONTINUOUS
 62
     3
 10
-0.0000000000000744
 20
0.0000000000000403
 30
0.0
 40
43.1500000000000128
  0
CIRCLE
  5
4E25
  8
0
  6
CONTINUOUS
 62
     3
 10
-0.0000000000000745
 20
0.0000000000000404
 30
0.0
 40
42.6513784936070905
  0
CIRCLE
  5
4E26
  8
0
  6
CONTINUOUS
 62
     3
 10
-0.0000000000000747
 20
0.0000000000000419
 30
0.0
 40
49.25
  0
CIRCLE
  5
4E27
  8
0
  6
CONTINUOUS
 62
     3
 10
-0.0000000000000747
 20
0.0000000000000419
 30
0.0
 40
50.8500000000000014
  0
CIRCLE
  5
4E28
  8
0
  6
VERDECKT
 62
     1
 10
-0.0000000000000374
 20
0.0000000000000284
 30
0.0
 40
26.0000000000000107
  0
CIRCLE
  5
4E29
  8
0
  6
VERDECKT
 62
     1
 10
-0.0000000000000735
 20
0.0000000000000392
 30
0.0
 40
26.5000000000000213
  0
CIRCLE
  5
4E2A
  8
0
  6
VERDECKT
 62
     1
 10
-0.0000000000000722
 20
0.0000000000000401
 30
0.0
 40
42.9000000000000625
  0
CIRCLE
  5
4E2B
  8
0
  6
VERDECKT
 62
     1
 10
-0.0000000000000722
 20
0.0000000000000401
 30
0.0
 40
44.5000000000000568
  0
ENDBLK
  5
4E2D
  8
0
  0
BLOCK
  8
0
  2
A$CEE7D0003
 70
     0
 10
0.0
 20
0.0
 30
0.0
  3
A$CEE7D0003
  1

  0
LINE
  5
4E31
  8
0
  6
CONTINUOUS
 62
     3
 10
-44.5000000000000924
 20
-0.0000000000000426
 30
0.0
 11
44.4999999999999503
 21
-0.0000000000000142
 31
0.0
210
0.0
220
1.0
230
-0.0000000000000002
  0
LINE
  5
4E32
  8
0
  6
CONTINUOUS
 62
     3
 10
-50.8500000000000867
 20
95.0000000000000711
 30
-0.0000000000000211
 11
50.8499999999999091
 21
95.0000000000000711
 31
-0.0000000000000211
210
0.0
220
1.0
230
-0.0000000000000002
  0
LINE
  5
4E33
  8
0
  6
CONTINUOUS
 62
     3
 10
50.8499999999999091
 20
95.0000000000000568
 30
-0.0000000000000211
 11
50.8499999999999091
 21
89.0000000000000284
 31
-0.0000000000000198
210
0.0
220
1.0
230
-0.0000000000000002
  0
LINE
  5
4E34
  8
0
  6
CONTINUOUS
 62
     3
 10
-50.8500000000000867
 20
95.0000000000000284
 30
-0.0000000000000211
 11
-50.8500000000000867
 21
89.0000000000000284
 31
-0.0000000000000198
210
0.0
220
1.0
230
-0.0000000000000002
  0
ARC
  5
4E35
  8
0
  6
CONTINUOUS
 62
     3
 10
34.2500000000001066
 20
89.0000000000000284
 30
0.0
 40
16.5999999999999801
210
0.0
220
-0.0000000000000002
230
-1.0
 50
340.1597924204239121
 51
0.0000000000000127
  0
ARC
  5
4E36
  8
0
  6
CONTINUOUS
 62
     3
 10
-34.2499999999994884
 20
89.0000000000001137
 30
0.0
 40
16.6000000000004206
210
0.0
220
-0.0000000000000002
230
-1.0
 50
180.000000000000199
 51
199.8402075795758037
  0
LINE
  5
4E37
  8
0
  6
CONTINUOUS
 62
     3
 10
-45.687143472181539
 20
71.7879620847286333
 30
-0.0000000000000159
 11
-49.8646709180895087
 21
83.3659914696752651
 31
-0.0000000000000185
210
0.0
220
1.0
230
-0.0000000000000002
  0
LINE
  5
4E38
  8
0
  6
CONTINUOUS
 62
     3
 10
45.6871434721813472
 20
71.7879620847286333
 30
-0.0000000000000159
 11
49.8646709180893311
 21
83.3659914696753077
 31
-0.0000000000000185
210
0.0
220
1.0
230
-0.0000000000000002
  0
ARC
  5
4E39
  8
0
  6
CONTINUOUS
 62
     3
 10
64.4999999999998437
 20
65.0000000000000711
 30
0.0
 40
19.9999999999997016
210
0.0
220
-0.0000000000000002
230
-1.0
 50
160.1597924204237131
 51
180.0
  0
ARC
  5
4E3A
  8
0
  6
CONTINUOUS
 62
     3
 10
-64.5000000000000711
 20
65.0000000000000568
 30
0.0
 40
20.0000000000000995
210
0.0
220
-0.0000000000000002
230
-1.0
 50
359.9999999999998863
 51
19.8402075795759387
  0
LINE
  5
4E3B
  8
0
  6
CONTINUOUS
 62
     3
 10
44.4999999999999432
 20
65.0000000000000426
 30
-0.0000000000000144
 11
44.4999999999999574
 21
-0.0000000000000142
 31
0.0
210
0.0
220
1.0
230
-0.0000000000000002
  0
LINE
  5
4E3C
  8
0
  6
CONTINUOUS
 62
     3
 10
-44.5000000000001066
 20
65.0000000000000284
 30
-0.0000000000000144
 11
-44.5000000000000924
 21
-0.0000000000000426
 31
0.0
210
0.0
220
1.0
230
-0.0000000000000002
  0
LINE
  5
4E3D
  8
0
  6
VERDECKT
 62
     1
 10
-26.0000000000000604
 20
2.0
 30
-0.0000000000000004
 11
25.9999999999999716
 21
2.0
 31
-0.0000000000000004
210
0.0
220
1.0
230
-0.0000000000000002
  0
LINE
  5
4E3E
  8
0
  6
VERDECKT
 62
     1
 10
-24.5074442146850693
 20
2.149255578531466
 30
-0.0000000000000005
 11
24.5074442146849911
 21
2.149255578531466
 31
-0.0000000000000005
210
0.0
220
1.0
230
-0.0000000000000002
  0
LINE
  5
4E3F
  8
0
  6
VERDECKT
 62
     1
 10
-43.1500000000001123
 20
68.585299822095763
 30
-0.0000000000000152
 11
43.1499999999999204
 21
68.585299822095763
 31
-0.0000000000000152
210
0.0
220
1.0
230
-0.0000000000000002
  0
LINE
  5
4E40
  8
0
  6
VERDECKT
 62
     1
 10
-42.6513784936071687
 20
70.0000000000000426
 30
-0.0000000000000155
 11
42.6513784936069769
 21
70.0000000000000426
 31
-0.0000000000000155
210
0.0
220
1.0
230
-0.0000000000000002
  0
ARC
  5
4E41
  8
0
  6
VERDECKT
 62
     1
 10
25.4999999999996199
 20
7.0498756211209841
 30
0.0
 40
1.0000000000004761
210
0.0
220
-0.0000000000000002
230
-1.0
 50
354.2894068625030854
 51
359.9999999999992042
  0
ARC
  5
4E42
  8
0
  6
VERDECKT
 62
     1
 10
-25.5000000000009202
 20
7.049875621120953
 30
0.0
 40
0.9999999999990195
210
0.0
220
-0.0000000000000002
230
-1.0
 50
179.9999999999986073
 51
185.7105931375029968
  0
LINE
  5
4E43
  8
0
  6
VERDECKT
 62
     1
 10
-26.0000000000000497
 20
1.9999999999999929
 30
-0.0000000000000004
 11
-26.4950371902100485
 21
6.950371902099989
 31
-0.0000000000000015
210
0.0
220
1.0
230
-0.0000000000000002
  0
LINE
  5
4E44
  8
0
  6
VERDECKT
 62
     1
 10
25.9999999999999716
 20
1.999999999999986
 30
-0.0000000000000004
 11
26.4950371902099704
 21
6.950371902099989
 31
-0.0000000000000015
210
0.0
220
1.0
230
-0.0000000000000002
  0
LINE
  5
4E45
  8
0
  6
VERDECKT
 62
     1
 10
26.4999999999999289
 20
50.5000000000000497
 30
-0.0000000000000112
 11
26.4999999999999503
 21
7.0498756211209761
 31
-0.0000000000000016
210
0.0
220
1.0
230
-0.0000000000000002
  0
LINE
  5
4E46
  8
0
  6
VERDECKT
 62
     1
 10
-26.5000000000000995
 20
50.5000000000000426
 30
-0.0000000000000112
 11
-26.5000000000000888
 21
7.049875621120969
 31
-0.0000000000000016
210
0.0
220
1.0
230
-0.0000000000000002
  0
ARC
  5
4E47
  8
0
  6
VERDECKT
 62
     1
 10
23.9999999999995914
 20
7.1246890528020774
 30
0.0
 40
1.0000000000004761
210
0.0
220
-0.0000000000000002
230
-1.0
 50
354.2894068625030854
 51
359.9999999999992042
  0
ARC
  5
4E48
  8
0
  6
VERDECKT
 62
     1
 10
-23.9999999999994387
 20
7.1246890528020836
 30
0.0
 40
1.0000000000004761
210
0.0
220
-0.0000000000000002
230
-1.0
 50
180.0000000000007105
 51
185.7105931374968009
  0
LINE
  5
4E49
  8
0
  6
VERDECKT
 62
     1
 10
-24.5074442146850693
 20
2.1492555785314602
 30
-0.0000000000000005
 11
-24.9950371902100201
 21
7.0251853337810832
 31
-0.0000000000000016
210
0.0
220
1.0
230
-0.0000000000000002
  0
LINE
  5
4E4A
  8
0
  6
VERDECKT
 62
     1
 10
24.5074442146849911
 20
2.1492555785314811
 30
-0.0000000000000005
 11
24.9950371902099384
 21
7.0251853337810832
 31
-0.0000000000000016
210
0.0
220
1.0
230
-0.0000000000000002
  0
LINE
  5
4E4B
  8
0
  6
VERDECKT
 62
     1
 10
24.9999999999999112
 20
50.5000000000000497
 30
-0.0000000000000112
 11
24.9999999999999183
 21
7.1246890528020703
 31
-0.0000000000000016
210
0.0
220
1.0
230
-0.0000000000000002
  0
LINE
  5
4E4C
  8
0
  6
VERDECKT
 62
     1
 10
-25.0000000000000711
 20
50.5000000000000426
 30
-0.0000000000000112
 11
-25.0000000000000711
 21
7.1246890528020632
 31
-0.0000000000000016
210
0.0
220
1.0
230
-0.0000000000000002
  0
LINE
  5
4E4D
  8
0
  6
VERDECKT
 62
     1
 10
24.5074442146849911
 20
2.1492555785314882
 30
-0.0000000000000005
 11
25.9999999999999716
 21
1.999999999999992
 31
-0.0000000000000004
210
0.0
220
1.0
230
-0.0000000000000002
  0
LINE
  5
4E4E
  8
0
  6
VERDECKT
 62
     1
 10
-24.5074442146850693
 20
2.1492555785314749
 30
-0.0000000000000005
 11
-26.0000000000000497
 21
1.999999999999978
 31
-0.0000000000000004
210
0.0
220
1.0
230
-0.0000000000000002
  0
LINE
  5
4E4F
  8
0
  6
VERDECKT
 62
     1
 10
-39.3981168812238423
 20
67.2629209592715256
 30
-0.0000000000000149
 11
-43.1500000000001123
 21
68.5852998220957346
 31
-0.0000000000000152
210
0.0
220
1.0
230
-0.0000000000000002
  0
LINE
  5
4E50
  8
0
  6
VERDECKT
 62
     1
 10
39.3981168812236504
 20
67.262920959271554
 30
-0.0000000000000149
 11
43.1499999999999204
 21
68.5852998220957772
 31
-0.0000000000000152
210
0.0
220
1.0
230
-0.0000000000000002
  0
ARC
  5
4E51
  8
0
  6
VERDECKT
 62
     1
 10
40.0629455564143768
 20
65.3766540553991291
 30
0.0
 40
1.999999999999994
210
0.0
220
-0.0000000000000002
230
-1.0
 50
109.4153816328301048
 51
135.0
  0
ARC
  5
4E52
  8
0
  6
VERDECKT
 62
     1
 10
-40.0629455564141068
 20
65.3766540553992712
 30
0.0
 40
1.999999999999845
210
0.0
220
-0.0000000000000002
230
-1.0
 50
44.9999999999991331
 51
70.5846183671709611
  0
LINE
  5
4E53
  8
0
  6
VERDECKT
 62
     1
 10
-29.4289321881346098
 20
57.571067811865511
 30
-0.0000000000000128
 11
-38.6487319940412988
 21
66.7908676177721929
 31
-0.0000000000000148
210
0.0
220
1.0
230
-0.0000000000000002
  0
LINE
  5
4E54
  8
0
  6
VERDECKT
 62
     1
 10
29.4289321881344392
 20
57.5710678118655181
 30
-0.0000000000000128
 11
38.6487319940411211
 21
66.7908676177721929
 31
-0.0000000000000148
210
0.0
220
1.0
230
-0.0000000000000002
  0
ARC
  5
4E55
  8
0
  6
VERDECKT
 62
     1
 10
36.5000000000000924
 20
50.5000000000000426
 30
0.0
 40
9.9999999999999893
210
0.0
220
-0.0000000000000002
230
-1.0
 50
135.0
 51
180.0
  0
ARC
  5
4E56
  8
0
  6
VERDECKT
 62
     1
 10
-36.4999999999999503
 20
50.5000000000000426
 30
0.0
 40
10.0000000000000302
210
0.0
220
-0.0000000000000002
230
-1.0
 50
360.0
 51
44.9999999999998579
  0
ARC
  5
4E57
  8
0
  6
VERDECKT
 62
     1
 10
36.5000000000000711
 20
50.5000000000000426
 30
0.0
 40
11.5
210
0.0
220
-0.0000000000000002
230
-1.0
 50
134.9999999999998863
 51
180.0
  0
ARC
  5
4E58
  8
0
  6
VERDECKT
 62
     1
 10
-36.4999999999998934
 20
50.5000000000000568
 30
0.0
 40
11.4999999999999805
210
0.0
220
-0.0000000000000002
230
-1.0
 50
0.0
 51
45.0000000000001492
  0
LINE
  5
4E59
  8
0
  6
VERDECKT
 62
     1
 10
-28.3682720163547692
 20
58.6317279836453409
 30
-0.000000000000013
 11
-37.5880718222614192
 21
67.8515277895519517
 31
-0.0000000000000151
210
0.0
220
1.0
230
-0.0000000000000002
  0
LINE
  5
4E5A
  8
0
  6
VERDECKT
 62
     1
 10
28.3682720163545987
 20
58.6317279836453622
 30
-0.000000000000013
 11
37.5880718222612416
 21
67.851527789551966
 31
-0.0000000000000151
210
0.0
220
1.0
230
-0.0000000000000002
  0
ARC
  5
4E5B
  8
0
  6
VERDECKT
 62
     1
 10
40.0629455564142987
 20
65.3766540553991149
 30
0.0
 40
3.499999999999917
210
0.0
220
-0.0000000000000002
230
-1.0
 50
109.4153816328297069
 51
135.0000000000003979
  0
ARC
  5
4E5C
  8
0
  6
VERDECKT
 62
     1
 10
-40.06294555641405
 20
65.3766540553992286
 30
0.0
 40
3.4999999999998019
210
0.0
220
-0.0000000000000002
230
-1.0
 50
44.9999999999991118
 51
70.5846183671707053
  0
LINE
  5
4E5D
  8
0
  6
VERDECKT
 62
     1
 10
-38.8994953748308916
 20
68.6776211371757341
 30
-0.0000000000000152
 11
-42.6513784936071829
 21
70.0000000000000284
 31
-0.0000000000000155
210
0.0
220
1.0
230
-0.0000000000000002
  0
LINE
  5
4E5E
  8
0
  6
VERDECKT
 62
     1
 10
38.8994953748306926
 20
68.6776211371757768
 30
-0.0000000000000152
 11
42.6513784936069911
 21
70.0000000000000568
 31
-0.0000000000000155
210
0.0
220
1.0
230
-0.0000000000000002
  0
LINE
  5
4E5F
  8
0
  6
VERDECKT
 62
     1
 10
42.6513784936070124
 20
70.0000000000000426
 30
-0.0000000000000155
 11
43.1499999999999275
 21
68.585299822095763
 31
-0.0000000000000152
210
0.0
220
1.0
230
-0.0000000000000002
  0
LINE
  5
4E60
  8
0
  6
VERDECKT
 62
     1
 10
-42.6513784936071829
 20
70.0000000000000284
 30
-0.0000000000000155
 11
-43.1500000000001123
 21
68.5852998220957346
 31
-0.0000000000000152
210
0.0
220
1.0
230
-0.0000000000000002
  0
LINE
  5
4E61
  8
0
  6
VERDECKT
 62
     1
 10
42.8999999999999417
 20
65.0000000000000426
 30
-0.0000000000000144
 11
42.8999999999999631
 21
-0.0000000000000142
 31
0.0
210
0.0
220
1.0
230
-0.0000000000000002
  0
LINE
  5
4E62
  8
0
  6
VERDECKT
 62
     1
 10
-42.9000000000001123
 20
65.0000000000000284
 30
-0.0000000000000144
 11
-42.9000000000000767
 21
-0.0000000000000426
 31
0.0
210
0.0
220
1.0
230
-0.0000000000000002
  0
ARC
  5
4E63
  8
0
  6
VERDECKT
 62
     1
 10
64.5000000000003979
 20
65.0
 30
0.0
 40
21.6000000000002501
210
0.0
220
-0.0000000000000002
230
-1.0
 50
160.159792420424111
 51
179.9999999999998863
  0
ARC
  5
4E64
  8
0
  6
VERDECKT
 62
     1
 10
-64.5
 20
65.0000000000000568
 30
0.0
 40
21.6000000000000298
210
0.0
220
-0.0000000000000002
230
-1.0
 50
359.9999999999998863
 51
19.8402075795759387
  0
LINE
  5
4E65
  8
0
  6
VERDECKT
 62
     1
 10
-44.1821149499560306
 20
72.3309990515068932
 30
-0.0000000000000161
 11
-48.3596423958640216
 21
83.9090284364535393
 31
-0.0000000000000186
210
0.0
220
1.0
230
-0.0000000000000002
  0
LINE
  5
4E66
  8
0
  6
VERDECKT
 62
     1
 10
44.1821149499558388
 20
72.3309990515069074
 30
-0.0000000000000161
 11
48.359642395863851
 21
83.9090284364535535
 31
-0.0000000000000186
210
0.0
220
1.0
230
-0.0000000000000002
  0
ARC
  5
4E67
  8
0
  6
VERDECKT
 62
     1
 10
34.2500000000001492
 20
89.0
 30
0.0
 40
14.9999999999999307
210
0.0
220
-0.0000000000000002
230
-1.0
 50
340.1597924204237984
 51
0.0000000000001145
  0
ARC
  5
4E68
  8
0
  6
VERDECKT
 62
     1
 10
-34.2500000000001705
 20
88.9999999999999858
 30
0.0
 40
14.9999999999997407
210
0.0
220
-0.0000000000000002
230
-1.0
 50
179.999999999999801
 51
199.8402075795762869
  0
LINE
  5
4E69
  8
0
  6
VERDECKT
 62
     1
 10
49.2499999999999005
 20
95.0000000000000568
 30
-0.0000000000000211
 11
49.2499999999999005
 21
89.0000000000000284
 31
-0.0000000000000198
210
0.0
220
1.0
230
-0.0000000000000002
  0
LINE
  5
4E6A
  8
0
  6
VERDECKT
 62
     1
 10
-49.2500000000000924
 20
95.0000000000000284
 30
-0.0000000000000211
 11
-49.2500000000000924
 21
89.0000000000000284
 31
-0.0000000000000198
210
0.0
220
1.0
230
-0.0000000000000002
  0
ENDBLK
  5
4E6C
  8
0
  0
ENDSEC
  0
SECTION
  2
ENTITIES
  0
TEXT
  5
8E
  8
VOLL
 10
78.076754716981128
 20
31.025947764705851
 30
0.0
 40
1.8
  1

  7
GREEKS
  0
INSERT
  5
254A
  8
ADSK_ASSOC_ENTITY_BACKUPS
  2
*S0
 10
0.0
 20
0.0
 30
0.0
  0
INSERT
  5
4E2E
  8
STEMPEL
  2
A$C5E1C1A49
 10
0.0
 20
-100.0
 30
0.0
  0
INSERT
  5
4E6D
  8
STEMPEL
  2
A$CEE7D0003
 10
0.0
 20
0.0
 30
0.0
  0
VIEWPORT
  5
228B
 67
     1
  8
0
 10
148.2472954103517964
 20
209.7491829701914128
 30
0.0
 40
790.2674510967764263
 41
422.1483375959078899
 68
     1
 69
     1
1001
ACAD
1000
MVIEW
1002
{
1070
    16
1010
0.0
1020
0.0
1030
0.0
1010
0.0
1020
0.0
1030
1.0
1040
0.0
1040
422.1483375959078899
1040
148.2472954103517964
1040
209.7491829701914128
1040
50.0
1040
0.0
1040
0.0
1070
     0
1070
  1500
1070
     1
1070
     1
1070
     0
1070
     0
1070
     0
1070
     0
1040
0.0
1040
0.0
1040
0.0
1040
10.0
1040
10.0
1040
10.0
1040
10.0
1070
     0
1002
{
1002
}
1002
}
  0
ENDSEC
  0
EOF
