  0
SECTION
  2
HEADER
  9
$ACADVER
  1
AC1009
  9
$INSBASE
 10
0.0
 20
0.0
 30
0.0
  9
$EXTMIN
 10
-50.8500000000000725
 20
-150.8499999999999943
 30
-0.00000000000004
  9
$EXTMAX
 10
50.849999999999973
 20
180.0000000000001137
 30
0.0
  9
$LIMMIN
 10
0.0
 20
0.0
  9
$LIMMAX
 10
296.9999999999998863
 20
420.0000000000001137
  9
$ORTHOMODE
 70
     1
  9
$REGENMODE
 70
     1
  9
$FILLMODE
 70
     1
  9
$QTEXTMODE
 70
     0
  9
$MIRRTEXT
 70
     1
  9
$DRAGMODE
 70
     2
  9
$LTSCALE
 40
10.0
  9
$OSMODE
 70
   511
  9
$ATTMODE
 70
     1
  9
$TEXTSIZE
 40
3.5
  9
$TRACEWID
 40
0.5
  9
$TEXTSTYLE
  7
STANDARD
  9
$CLAYER
  8
STEMPEL
  9
$CELTYPE
  6
BYLAYER
  9
$CECOLOR
 62
   256
  9
$DIMSCALE
 40
1.0
  9
$DIMASZ
 40
3.5
  9
$DIMEXO
 40
1.0
  9
$DIMDLI
 40
0.38
  9
$DIMRND
 40
0.0
  9
$DIMDLE
 40
0.0
  9
$DIMEXE
 40
1.0
  9
$DIMTP
 40
0.0
  9
$DIMTM
 40
0.000000001
  9
$DIMTXT
 40
3.5
  9
$DIMCEN
 40
0.09
  9
$DIMTSZ
 40
0.0
  9
$DIMTOL
 70
     0
  9
$DIMLIM
 70
     0
  9
$DIMTIH
 70
     0
  9
$DIMTOH
 70
     0
  9
$DIMSE1
 70
     0
  9
$DIMSE2
 70
     0
  9
$DIMTAD
 70
     1
  9
$DIMZIN
 70
     8
  9
$DIMBLK
  1

  9
$DIMASO
 70
     1
  9
$DIMSHO
 70
     0
  9
$DIMPOST
  1

  9
$DIMAPOST
  1

  9
$DIMALT
 70
     0
  9
$DIMALTD
 70
     2
  9
$DIMALTF
 40
25.3999999999999986
  9
$DIMLFAC
 40
1.0
  9
$DIMTOFL
 70
     1
  9
$DIMTVP
 40
0.0
  9
$DIMTIX
 70
     0
  9
$DIMSOXD
 70
     0
  9
$DIMSAH
 70
     0
  9
$DIMBLK1
  1

  9
$DIMBLK2
  1

  9
$DIMSTYLE
  2
LORO
  9
$DIMCLRD
 70
     0
  9
$DIMCLRE
 70
     0
  9
$DIMCLRT
 70
     1
  9
$DIMTFAC
 40
0.5
  9
$DIMGAP
 40
1.5
  9
$LUNITS
 70
     2
  9
$LUPREC
 70
     2
  9
$SKETCHINC
 40
1.0
  9
$FILLETRAD
 40
0.0
  9
$AUNITS
 70
     0
  9
$AUPREC
 70
     0
  9
$MENU
  1
ACAD
  9
$ELEVATION
 40
0.0
  9
$PELEVATION
 40
0.0
  9
$THICKNESS
 40
0.0
  9
$LIMCHECK
 70
     0
  9
$BLIPMODE
 70
     0
  9
$CHAMFERA
 40
0.0
  9
$CHAMFERB
 40
0.0
  9
$SKPOLY
 70
     0
  9
$TDCREATE
 40
2451337.6017592591233552
  9
$TDUPDATE
 40
2460333.5789930559694767
  9
$TDINDWG
 40
0.6811751389
  9
$TDUSRTIMER
 40
0.6811751389
  9
$USRTIMER
 70
     1
  9
$ANGBASE
 50
0.0
  9
$ANGDIR
 70
     0
  9
$PDMODE
 70
     0
  9
$PDSIZE
 40
0.0
  9
$PLINEWID
 40
0.0
  9
$COORDS
 70
     1
  9
$SPLFRAME
 70
     0
  9
$SPLINETYPE
 70
     6
  9
$SPLINESEGS
 70
     8
  9
$ATTDIA
 70
     1
  9
$ATTREQ
 70
     1
  9
$HANDLING
 70
     1
  9
$HANDSEED
  5
5160
  9
$SURFTAB1
 70
     6
  9
$SURFTAB2
 70
     6
  9
$SURFTYPE
 70
     6
  9
$SURFU
 70
     6
  9
$SURFV
 70
     6
  9
$UCSNAME
  2

  9
$UCSORG
 10
0.0
 20
0.0
 30
0.0
  9
$UCSXDIR
 10
1.0
 20
0.0
 30
0.0
  9
$UCSYDIR
 10
0.0
 20
1.0
 30
0.0
  9
$PUCSNAME
  2

  9
$PUCSORG
 10
0.0
 20
0.0
 30
0.0
  9
$PUCSXDIR
 10
1.0
 20
0.0
 30
0.0
  9
$PUCSYDIR
 10
0.0
 20
1.0
 30
0.0
  9
$USERI1
 70
     0
  9
$USERI2
 70
     0
  9
$USERI3
 70
     0
  9
$USERI4
 70
     0
  9
$USERI5
 70
     0
  9
$USERR1
 40
0.0
  9
$USERR2
 40
0.0
  9
$USERR3
 40
0.0
  9
$USERR4
 40
0.0
  9
$USERR5
 40
0.0
  9
$WORLDVIEW
 70
     1
  9
$SHADEDGE
 70
     3
  9
$SHADEDIF
 70
    70
  9
$TILEMODE
 70
     1
  9
$MAXACTVP
 70
    16
  9
$PLIMCHECK
 70
     0
  9
$PEXTMIN
 10
1.0000000000000000E+20
 20
1.0000000000000000E+20
 30
1.0000000000000000E+20
  9
$PEXTMAX
 10
-1.0000000000000000E+20
 20
-1.0000000000000000E+20
 30
-1.0000000000000000E+20
  9
$PLIMMIN
 10
-0.2395012616179883
 20
-0.2499990221112966
  9
$PLIMMAX
 10
296.7604987383820117
 20
419.7500009778885897
  9
$UNITMODE
 70
     0
  9
$VISRETAIN
 70
     0
  9
$PLINEGEN
 70
     0
  9
$PSLTSCALE
 70
     0
  0
ENDSEC
  0
SECTION
  2
TABLES
  0
TABLE
  2
VPORT
 70
     1
  0
VPORT
  2
*ACTIVE
 70
     0
 10
0.0
 20
0.0
 11
1.0
 21
1.0
 12
0.0
 22
-50.0017726898192905
 13
0.0
 23
0.0
 14
1.0
 24
1.0
 15
10.0
 25
10.0
 16
-0.0000000000001443
 26
0.0
 36
649.7159065039832058
 17
0.0
 27
64.5767726898193359
 37
-0.00000000000002
 40
332.5437157039492035
 41
1.8720136518771331
 42
50.0
 43
0.0
 44
0.0
 50
0.0
 51
0.0
 71
     0
 72
  1500
 73
     1
 74
     0
 75
     0
 76
     0
 77
     0
 78
     0
  0
ENDTAB
  0
TABLE
  2
LTYPE
 70
     3
  0
LTYPE
  2
CONTINUOUS
 70
     0
  3
Solid line
 72
    65
 73
     0
 40
0.0
  0
LTYPE
  2
STRICHPUNKT
 70
     0
  3
__ . __ . __ . __ . __ . __ . __ . __ . __ . __
 72
    65
 73
     4
 40
1.0
 49
0.5
 49
-0.25
 49
0.0
 49
-0.25
  0
LTYPE
  2
VERDECKT
 70
     0
  3
Verdeckt __ __ __ __ __ __ __ __ __ __ __ __ __
 72
    65
 73
     2
 40
0.375
 49
0.25
 49
-0.125
  0
ENDTAB
  0
TABLE
  2
LAYER
 70
     6
  0
LAYER
  2
0
 70
     0
 62
     7
  6
CONTINUOUS
  0
LAYER
  2
VOLL
 70
     0
 62
     1
  6
CONTINUOUS
  0
LAYER
  2
STEMPEL
 70
     0
 62
     3
  6
CONTINUOUS
  0
LAYER
  2
ADSK_ASSOC_ENTITY_BACKUPS
 70
     1
 62
    -7
  6
CONTINUOUS
  0
ENDTAB
  0
TABLE
  2
STYLE
 70
     2
  0
STYLE
  2
STANDARD
 70
     0
 40
0.0
 41
0.8
 50
0.0
 71
     0
 42
3.5
  3
simplex.shx
  4

  0
STYLE
  2
GREEKS
 70
     0
 40
0.0
 41
0.8
 50
0.0
 71
     0
 42
2.5
  3
SIMPLEX.shx
  4

  0
ENDTAB
  0
TABLE
  2
VIEW
 70
     0
  0
ENDTAB
  0
TABLE
  2
UCS
 70
     0
  0
ENDTAB
  0
TABLE
  2
APPID
 70
    25
  0
APPID
  2
ACAD
 70
     0
  0
APPID
  2
ACAD_EXEMPT_FROM_CAD_STANDARDS
 70
     0
  0
APPID
  2
ACAD_NAV_VCDISPLAY
 70
     0
  0
APPID
  2
ACAD_PSEXT
 70
     0
  0
APPID
  2
ACAECLAYERSTANDARD
 70
     0
  0
APPID
  2
ACCMTRANSPARENCY
 70
     0
  0
APPID
  2
ACAD_MLEADERVER
 70
     0
  0
APPID
  2
ACAD_OBJECT_CHANGE_GUID
 70
     0
  0
APPID
  2
ACDBDYNAMICBLOCKGUID
 70
     0
  0
APPID
  2
ACSYNERGY
 70
     0
  0
APPID
  2
SYNERGY_BODY_TBR_ID
 70
     0
  0
APPID
  2
ACAD_VIEW_EDGE_ID
 70
     0
  0
APPID
  2
ACAD_DSTYLE_DIMJAG
 70
     0
  0
APPID
  2
ACAD_DSTYLE_DIMBREAK
 70
     0
  0
APPID
  2
ACAD_DSTYLE_DIMTALN
 70
     0
  0
APPID
  2
ACAD_STEPID
 70
     0
  0
APPID
  2
ACSYNERGYSKETCH
 70
     0
  0
APPID
  2
ACAD_MODELDOC_XFORM
 70
     0
  0
APPID
  2
ACADANNOMONITORALERTICONDI
 70
     0
  0
APPID
  2
ACADANNOPO
 70
     0
  0
APPID
  2
ACAD_DIMASSOC_CALC_DIMLFAC
 70
     0
  0
APPID
  2
ACAD_DIMASSOC_DIMLFAC
 70
     0
  0
APPID
  2
ACAD_DIMASSOC_OVERRIDDEN_D
 70
     0
  0
APPID
  2
ACAD_DSTYLE_DIMRADIAL_EXTENSION
 70
     0
  0
APPID
  2
ACADANNOTATIVE
 70
     0
  0
ENDTAB
  0
TABLE
  2
DIMSTYLE
 70
     3
  0
DIMSTYLE
  2
LORO
 70
     0
  3

  4

  5

  6

  7

 40
1.0
 41
3.5
 42
1.0
 43
0.38
 44
1.0
 45
0.0
 46
0.0
 47
0.0
 48
0.000000001
140
3.5
141
0.09
142
0.0
143
25.3999999999999986
144
1.0
145
0.0
146
0.5
147
1.5
 71
     0
 72
     0
 73
     0
 74
     0
 75
     0
 76
     0
 77
     1
 78
     8
170
     0
171
     2
172
     1
173
     0
174
     0
175
     0
176
     0
177
     0
178
     1
  0
ENDTAB
  0
ENDSEC
  0
SECTION
  2
BLOCKS
  0
BLOCK
  8
0
  2
$MODEL_SPACE
 70
     0
 10
0.0
 20
0.0
 30
0.0
  3
$MODEL_SPACE
  1

  0
ENDBLK
  5
36
  8
0
  0
BLOCK
 67
     1
  8
0
  2
$PAPER_SPACE
 70
     0
 10
0.0
 20
0.0
 30
0.0
  3
$PAPER_SPACE
  1

  0
ENDBLK
  5
34
 67
     1
  8
0
  0
BLOCK
  8
0
  2
*S0
 70
     1
 10
0.0
 20
0.0
 30
0.0
  3
*S0
  1

  0
ENDBLK
  5
2548
  8
0
  0
BLOCK
  8
0
  2
A$C6FB251D8
 70
     0
 10
0.0
 20
0.0
 30
0.0
  3
A$C6FB251D8
  1

  0
CIRCLE
  5
50C2
  8
0
  6
CONTINUOUS
 62
     3
 10
0.0000000000000268
 20
-0.0000000000000141
 30
0.0
 40
24.5074442146850302
  0
CIRCLE
  5
50C3
  8
0
  6
CONTINUOUS
 62
     3
 10
-0.0000000000000262
 20
0.0000000000000107
 30
0.0
 40
24.9999999999999787
  0
CIRCLE
  5
50C4
  8
0
  6
CONTINUOUS
 62
     3
 10
-0.0000000000000271
 20
0.0000000000000119
 30
0.0
 40
43.1500000000000128
  0
CIRCLE
  5
50C5
  8
0
  6
CONTINUOUS
 62
     3
 10
-0.0000000000000272
 20
0.0000000000000119
 30
0.0
 40
42.6513784936070905
  0
CIRCLE
  5
50C6
  8
0
  6
CONTINUOUS
 62
     3
 10
-0.0000000000000274
 20
0.0000000000000135
 30
0.0
 40
49.25
  0
CIRCLE
  5
50C7
  8
0
  6
CONTINUOUS
 62
     3
 10
-0.0000000000000274
 20
0.0000000000000135
 30
0.0
 40
50.8500000000000014
  0
CIRCLE
  5
50C8
  8
0
  6
VERDECKT
 62
     1
 10
-0.0000000000000262
 20
0.0000000000000107
 30
0.0
 40
26.5000000000000213
  0
CIRCLE
  5
50C9
  8
0
  6
VERDECKT
 62
     1
 10
0.0000000000000268
 20
-0.0000000000000141
 30
0.0
 40
26.0000000000000107
  0
CIRCLE
  5
50CA
  8
0
  6
VERDECKT
 62
     1
 10
-0.0000000000000249
 20
0.0000000000000116
 30
0.0
 40
42.9000000000000625
  0
CIRCLE
  5
50CB
  8
0
  6
VERDECKT
 62
     1
 10
-0.0000000000000249
 20
0.0000000000000116
 30
0.0
 40
44.5000000000000568
  0
ENDBLK
  5
50CD
  8
0
  0
BLOCK
  8
0
  2
A$C43440BFE
 70
     0
 10
0.0
 20
0.0
 30
0.0
  3
A$C43440BFE
  1

  0
LINE
  5
50D1
  8
0
  6
CONTINUOUS
 62
     3
 10
-44.5000000000000497
 20
-0.0000000000000142
 30
0.0
 11
44.5000000000000071
 21
0.0000000000000142
 31
0.0
210
0.0
220
1.0
230
-0.0000000000000002
  0
LINE
  5
50D2
  8
0
  6
CONTINUOUS
 62
     3
 10
-50.8500000000000725
 20
180.0000000000001137
 30
-0.00000000000004
 11
50.8499999999999304
 21
180.0000000000001137
 31
-0.00000000000004
210
0.0
220
1.0
230
-0.0000000000000002
  0
LINE
  5
50D3
  8
0
  6
CONTINUOUS
 62
     3
 10
50.8499999999999304
 20
180.0
 30
-0.00000000000004
 11
50.8499999999999304
 21
174.0
 31
-0.0000000000000386
210
0.0
220
1.0
230
-0.0000000000000002
  0
LINE
  5
50D4
  8
0
  6
CONTINUOUS
 62
     3
 10
-50.8500000000000725
 20
180.0
 30
-0.00000000000004
 11
-50.8500000000000725
 21
174.0
 31
-0.0000000000000386
210
0.0
220
1.0
230
-0.0000000000000002
  0
ARC
  5
50D5
  8
0
  6
CONTINUOUS
 62
     3
 10
34.2499999999998579
 20
174.0000000000001137
 30
0.0
 40
16.600000000000211
210
0.0
220
-0.0000000000000002
230
-1.0
 50
340.1597924204239121
 51
359.9999999999997726
  0
ARC
  5
50D6
  8
0
  6
CONTINUOUS
 62
     3
 10
-34.2500000000001279
 20
174.0
 30
0.0
 40
16.5999999999998096
210
0.0
220
-0.0000000000000002
230
-1.0
 50
179.9999999999998863
 51
199.8402075795760879
  0
LINE
  5
50D7
  8
0
  6
CONTINUOUS
 62
     3
 10
-45.6871434721815177
 20
156.7879620847286049
 30
-0.0000000000000348
 11
-49.8646709180894874
 21
168.3659914696752082
 31
-0.0000000000000374
210
0.0
220
1.0
230
-0.0000000000000002
  0
LINE
  5
50D8
  8
0
  6
CONTINUOUS
 62
     3
 10
45.6871434721813827
 20
156.7879620847286049
 30
-0.0000000000000348
 11
49.8646709180893595
 21
168.3659914696752935
 31
-0.0000000000000374
210
0.0
220
1.0
230
-0.0000000000000002
  0
ARC
  5
50D9
  8
0
  6
CONTINUOUS
 62
     3
 10
64.5000000000001279
 20
150.0
 30
0.0
 40
20.0000000000000107
210
0.0
220
-0.0000000000000002
230
-1.0
 50
160.1597924204237984
 51
179.9999999999998863
  0
ARC
  5
50DA
  8
0
  6
CONTINUOUS
 62
     3
 10
-64.5000000000002274
 20
150.0
 30
0.0
 40
20.0000000000002309
210
0.0
220
-0.0000000000000002
230
-1.0
 50
0.0
 51
19.8402075795758392
  0
LINE
  5
50DB
  8
0
  6
CONTINUOUS
 62
     3
 10
44.4999999999999716
 20
150.0
 30
-0.0000000000000333
 11
44.5000000000000071
 21
0.0000000000000284
 31
0.0
210
0.0
220
1.0
230
-0.0000000000000002
  0
LINE
  5
50DC
  8
0
  6
CONTINUOUS
 62
     3
 10
-44.5000000000000924
 20
150.0
 30
-0.0000000000000333
 11
-44.5000000000000426
 21
-0.0000000000000284
 31
0.0
210
0.0
220
1.0
230
-0.0000000000000002
  0
LINE
  5
50DD
  8
0
  6
VERDECKT
 62
     1
 10
-24.5074442146850089
 20
2.1492555785314869
 30
-0.0000000000000005
 11
24.5074442146850515
 21
2.1492555785315011
 31
-0.0000000000000005
210
0.0
220
1.0
230
-0.0000000000000002
  0
LINE
  5
50DE
  8
0
  6
VERDECKT
 62
     1
 10
-25.9999999999999893
 20
2.0000000000000209
 30
-0.0000000000000004
 11
26.0000000000000391
 21
2.0000000000000351
 31
-0.0000000000000004
210
0.0
220
1.0
230
-0.0000000000000002
  0
LINE
  5
50DF
  8
0
  6
VERDECKT
 62
     1
 10
-43.1500000000000625
 20
153.5852998220958057
 30
-0.0000000000000341
 11
43.1499999999999488
 21
153.5852998220958057
 31
-0.0000000000000341
210
0.0
220
1.0
230
-0.0000000000000002
  0
LINE
  5
50E0
  8
0
  6
VERDECKT
 62
     1
 10
-42.6513784936071332
 20
155.0
 30
-0.0000000000000344
 11
42.6513784936070124
 21
155.0
 31
-0.0000000000000344
210
0.0
220
1.0
230
-0.0000000000000002
  0
ARC
  5
50E1
  8
0
  6
VERDECKT
 62
     1
 10
24.0000000000006608
 20
7.1246890528020694
 30
0.0
 40
0.9999999999993107
210
0.0
220
-0.0000000000000002
230
-1.0
 50
354.289406862497799
 51
0.0000000000012722
  0
ARC
  5
50E2
  8
0
  6
VERDECKT
 62
     1
 10
-24.0000000000006999
 20
7.1246890528020801
 30
0.0
 40
0.9999999999993214
210
0.0
220
-0.0000000000000002
230
-1.0
 50
179.9999999999986073
 51
185.7105931375020873
  0
LINE
  5
50E3
  8
0
  6
VERDECKT
 62
     1
 10
-24.5074442146849982
 20
2.1492555785314882
 30
-0.0000000000000005
 11
-24.9950371902099597
 21
7.0251853337810948
 31
-0.0000000000000016
210
0.0
220
1.0
230
-0.0000000000000002
  0
LINE
  5
50E4
  8
0
  6
VERDECKT
 62
     1
 10
24.5074442146850515
 20
2.1492555785315091
 30
-0.0000000000000005
 11
24.9950371902100095
 21
7.0251853337811063
 31
-0.0000000000000016
210
0.0
220
1.0
230
-0.0000000000000002
  0
LINE
  5
50E5
  8
0
  6
VERDECKT
 62
     1
 10
24.9999999999999893
 20
135.5
 30
-0.0000000000000301
 11
25.0000000000000213
 21
7.1246890528020979
 31
-0.0000000000000016
210
0.0
220
1.0
230
-0.0000000000000002
  0
LINE
  5
50E6
  8
0
  6
VERDECKT
 62
     1
 10
-25.0
 20
135.5
 30
-0.0000000000000301
 11
-24.9999999999999716
 21
7.1246890528020979
 31
-0.0000000000000016
210
0.0
220
1.0
230
-0.0000000000000002
  0
ARC
  5
50E7
  8
0
  6
VERDECKT
 62
     1
 10
25.5000000000006892
 20
7.0498756211209876
 30
0.0
 40
0.9999999999993036
210
0.0
220
-0.0000000000000002
230
-1.0
 50
354.289406862497799
 51
0.000000000001374
  0
ARC
  5
50E8
  8
0
  6
VERDECKT
 62
     1
 10
-25.5000000000007283
 20
7.0498756211210019
 30
0.0
 40
0.9999999999993036
210
0.0
220
-0.0000000000000002
230
-1.0
 50
179.9999999999986073
 51
185.7105931375020873
  0
LINE
  5
50E9
  8
0
  6
VERDECKT
 62
     1
 10
26.5000000000000107
 20
135.5
 30
-0.0000000000000301
 11
26.5000000000000391
 21
7.0498756211210054
 31
-0.0000000000000016
210
0.0
220
1.0
230
-0.0000000000000002
  0
LINE
  5
50EA
  8
0
  6
VERDECKT
 62
     1
 10
-26.5000000000000213
 20
135.5
 30
-0.0000000000000301
 11
-26.4999999999999893
 21
7.0498756211210054
 31
-0.0000000000000016
210
0.0
220
1.0
230
-0.0000000000000002
  0
LINE
  5
50EB
  8
0
  6
VERDECKT
 62
     1
 10
-25.9999999999999787
 20
2.0000000000000209
 30
-0.0000000000000004
 11
-26.495037190209981
 21
6.9503719021000139
 31
-0.0000000000000015
210
0.0
220
1.0
230
-0.0000000000000002
  0
LINE
  5
50EC
  8
0
  6
VERDECKT
 62
     1
 10
26.0000000000000284
 20
2.0000000000000142
 30
-0.0000000000000004
 11
26.4950371902100308
 21
6.9503719021000281
 31
-0.0000000000000015
210
0.0
220
1.0
230
-0.0000000000000002
  0
LINE
  5
50ED
  8
0
  6
VERDECKT
 62
     1
 10
-39.3981168812238067
 20
152.2629209592714972
 30
-0.0000000000000338
 11
-43.1500000000000696
 21
153.5852998220958057
 31
-0.0000000000000341
210
0.0
220
1.0
230
-0.0000000000000002
  0
LINE
  5
50EE
  8
0
  6
VERDECKT
 62
     1
 10
39.3981168812236788
 20
152.2629209592714972
 30
-0.0000000000000338
 11
43.1499999999999488
 21
153.5852998220958057
 31
-0.0000000000000341
210
0.0
220
1.0
230
-0.0000000000000002
  0
ARC
  5
50EF
  8
0
  6
VERDECKT
 62
     1
 10
40.0629455564143129
 20
150.3766540553992002
 30
0.0
 40
1.9999999999998841
210
0.0
220
-0.0000000000000002
230
-1.0
 50
109.4153816328297069
 51
135.0000000000007958
  0
ARC
  5
50F0
  8
0
  6
VERDECKT
 62
     1
 10
-40.0629455564141281
 20
150.3766540553993138
 30
0.0
 40
1.9999999999997899
210
0.0
220
-0.0000000000000002
230
-1.0
 50
44.9999999999984226
 51
70.58461836717062
  0
LINE
  5
50F1
  8
0
  6
VERDECKT
 62
     1
 10
-29.4289321881345884
 20
142.5710678118655039
 30
-0.0000000000000317
 11
-38.6487319940412632
 21
151.7908676177721929
 31
-0.0000000000000337
210
0.0
220
1.0
230
-0.0000000000000002
  0
LINE
  5
50F2
  8
0
  6
VERDECKT
 62
     1
 10
29.4289321881344712
 20
142.5710678118655039
 30
-0.0000000000000317
 11
38.6487319940411567
 21
151.7908676177721929
 31
-0.0000000000000337
210
0.0
220
1.0
230
-0.0000000000000002
  0
ARC
  5
50F3
  8
0
  6
VERDECKT
 62
     1
 10
36.5000000000001066
 20
135.5
 30
0.0
 40
10.0000000000000497
210
0.0
220
-0.0000000000000002
230
-1.0
 50
135.0000000000001137
 51
179.999999999999801
  0
ARC
  5
50F4
  8
0
  6
VERDECKT
 62
     1
 10
-36.5000000000000213
 20
135.5
 30
0.0
 40
10.0000000000000604
210
0.0
220
-0.0000000000000002
230
-1.0
 50
0.0
 51
44.9999999999996732
  0
ARC
  5
50F5
  8
0
  6
VERDECKT
 62
     1
 10
36.5000000000000995
 20
135.5
 30
0.0
 40
11.5000000000000604
210
0.0
220
-0.0000000000000002
230
-1.0
 50
135.0
 51
179.999999999999801
  0
ARC
  5
50F6
  8
0
  6
VERDECKT
 62
     1
 10
-36.4999999999999716
 20
135.5
 30
0.0
 40
11.5000000000000409
210
0.0
220
-0.0000000000000002
230
-1.0
 50
0.0
 51
44.9999999999999076
  0
LINE
  5
50F7
  8
0
  6
VERDECKT
 62
     1
 10
-28.3682720163547408
 20
143.6317279836453054
 30
-0.0000000000000319
 11
-37.5880718222613979
 21
152.8515277895519091
 31
-0.0000000000000339
210
0.0
220
1.0
230
-0.0000000000000002
  0
LINE
  5
50F8
  8
0
  6
VERDECKT
 62
     1
 10
28.3682720163546414
 20
143.6317279836453054
 30
-0.0000000000000319
 11
37.58807182226127
 21
152.8515277895519091
 31
-0.0000000000000339
210
0.0
220
1.0
230
-0.0000000000000002
  0
ARC
  5
50F9
  8
0
  6
VERDECKT
 62
     1
 10
40.0629455564143129
 20
150.3766540553990012
 30
0.0
 40
3.5000000000000391
210
0.0
220
-0.0000000000000002
230
-1.0
 50
109.4153816328297069
 51
134.9999999999994031
  0
ARC
  5
50FA
  8
0
  6
VERDECKT
 62
     1
 10
-40.0629455564140216
 20
150.3766540553993138
 30
0.0
 40
3.4999999999996612
210
0.0
220
-0.0000000000000002
230
-1.0
 50
44.9999999999981171
 51
70.5846183671709895
  0
LINE
  5
50FB
  8
0
  6
VERDECKT
 62
     1
 10
-38.8994953748308632
 20
153.6776211371758052
 30
-0.0000000000000341
 11
-42.6513784936071474
 21
155.0
 31
-0.0000000000000344
210
0.0
220
1.0
230
-0.0000000000000002
  0
LINE
  5
50FC
  8
0
  6
VERDECKT
 62
     1
 10
38.8994953748307282
 20
153.6776211371758052
 30
-0.0000000000000341
 11
42.6513784936070195
 21
155.0
 31
-0.0000000000000344
210
0.0
220
1.0
230
-0.0000000000000002
  0
LINE
  5
50FD
  8
0
  6
VERDECKT
 62
     1
 10
42.6513784936070266
 20
155.0
 30
-0.0000000000000344
 11
43.1499999999999488
 21
153.5852998220958057
 31
-0.0000000000000341
210
0.0
220
1.0
230
-0.0000000000000002
  0
LINE
  5
50FE
  8
0
  6
VERDECKT
 62
     1
 10
-42.6513784936071616
 20
155.0
 30
-0.0000000000000344
 11
-43.1500000000000696
 21
153.5852998220958057
 31
-0.0000000000000341
210
0.0
220
1.0
230
-0.0000000000000002
  0
LINE
  5
50FF
  8
0
  6
VERDECKT
 62
     1
 10
24.5074442146850515
 20
2.1492555785315162
 30
-0.0000000000000005
 11
26.0000000000000391
 21
2.00000000000002
 31
-0.0000000000000004
210
0.0
220
1.0
230
-0.0000000000000002
  0
LINE
  5
5100
  8
0
  6
VERDECKT
 62
     1
 10
-24.5074442146849982
 20
2.1492555785315028
 30
-0.0000000000000005
 11
-25.9999999999999893
 21
2.0000000000000071
 31
-0.0000000000000004
210
0.0
220
1.0
230
-0.0000000000000002
  0
LINE
  5
5101
  8
0
  6
VERDECKT
 62
     1
 10
42.8999999999999702
 20
150.0
 30
-0.0000000000000333
 11
42.9000000000000128
 21
0.0000000000000284
 31
0.0
210
0.0
220
1.0
230
-0.0000000000000002
  0
LINE
  5
5102
  8
0
  6
VERDECKT
 62
     1
 10
-42.9000000000000767
 20
150.0
 30
-0.0000000000000333
 11
-42.9000000000000412
 21
-0.0000000000000284
 31
0.0
210
0.0
220
1.0
230
-0.0000000000000002
  0
ARC
  5
5103
  8
0
  6
VERDECKT
 62
     1
 10
64.5000000000001705
 20
150.0
 30
0.0
 40
21.6000000000000689
210
0.0
220
-0.0000000000000002
230
-1.0
 50
160.1597924204239121
 51
179.999999999999801
  0
ARC
  5
5104
  8
0
  6
VERDECKT
 62
     1
 10
-64.5000000000000426
 20
150.0000000000001137
 30
0.0
 40
21.6000000000000512
210
0.0
220
-0.0000000000000002
230
-1.0
 50
359.9999999999998863
 51
19.8402075795758783
  0
LINE
  5
5105
  8
0
  6
VERDECKT
 62
     1
 10
-44.1821149499560093
 20
157.3309990515068932
 30
-0.0000000000000349
 11
-48.3596423958639932
 21
168.9090284364534966
 31
-0.0000000000000375
210
0.0
220
1.0
230
-0.0000000000000002
  0
LINE
  5
5106
  8
0
  6
VERDECKT
 62
     1
 10
44.1821149499558672
 20
157.3309990515068932
 30
-0.0000000000000349
 11
48.3596423958638724
 21
168.9090284364536103
 31
-0.0000000000000375
210
0.0
220
1.0
230
-0.0000000000000002
  0
ARC
  5
5107
  8
0
  6
VERDECKT
 62
     1
 10
34.2499999999999005
 20
174.0
 30
0.0
 40
15.0000000000001492
210
0.0
220
-0.0000000000000002
230
-1.0
 50
340.1597924204239121
 51
359.9999999999998863
  0
ARC
  5
5108
  8
0
  6
VERDECKT
 62
     1
 10
-34.2500000000001918
 20
174.0
 30
0.0
 40
14.9999999999997407
210
0.0
220
-0.0000000000000002
230
-1.0
 50
179.999999999999801
 51
199.8402075795762869
  0
LINE
  5
5109
  8
0
  6
VERDECKT
 62
     1
 10
49.2499999999999289
 20
180.0
 30
-0.00000000000004
 11
49.2499999999999289
 21
174.0
 31
-0.0000000000000386
210
0.0
220
1.0
230
-0.0000000000000002
  0
LINE
  5
510A
  8
0
  6
VERDECKT
 62
     1
 10
-49.2500000000000568
 20
180.0
 30
-0.00000000000004
 11
-49.2500000000000568
 21
174.0
 31
-0.0000000000000386
210
0.0
220
1.0
230
-0.0000000000000002
  0
ENDBLK
  5
510C
  8
0
  0
ENDSEC
  0
SECTION
  2
ENTITIES
  0
TEXT
  5
8E
  8
VOLL
 10
78.076754716981128
 20
31.025947764705851
 30
0.0
 40
1.8
  1

  7
GREEKS
  0
INSERT
  5
254A
  8
ADSK_ASSOC_ENTITY_BACKUPS
  2
*S0
 10
0.0
 20
0.0
 30
0.0
  0
INSERT
  5
50CE
  8
STEMPEL
  2
A$C6FB251D8
 10
0.0
 20
-100.0
 30
0.0
  0
INSERT
  5
510D
  8
STEMPEL
  2
A$C43440BFE
 10
0.0
 20
0.0
 30
0.0
  0
VIEWPORT
  5
228B
 67
     1
  8
0
 10
148.2604987383820117
 20
209.7500009778887033
 30
0.0
 40
790.2674510967764263
 41
422.1483375959078899
 68
     1
 69
     1
1001
ACAD
1000
MVIEW
1002
{
1070
    16
1010
0.0
1020
0.0
1030
0.0
1010
0.0
1020
0.0
1030
1.0
1040
0.0
1040
422.1483375959078899
1040
148.2604987383820117
1040
209.7500009778887033
1040
50.0
1040
0.0
1040
0.0
1070
     0
1070
  1500
1070
     1
1070
     1
1070
     0
1070
     0
1070
     0
1070
     0
1040
0.0
1040
0.0
1040
0.0
1040
10.0
1040
10.0
1040
10.0
1040
10.0
1070
     0
1002
{
1002
}
1002
}
  0
ENDSEC
  0
EOF
