  0
SECTION
  2
HEADER
  9
$ACADVER
  1
AC1009
  9
$INSBASE
 10
0.0
 20
0.0
 30
0.0
  9
$EXTMIN
 10
-61.9401499596764324
 20
-61.943903335408443
 30
-0.0048824399767682
  9
$EXTMAX
 10
61.9456291769789686
 20
260.0359227878602724
 30
0.0073244050229278
  9
$LIMMIN
 10
0.0
 20
0.0
  9
$LIMMAX
 10
296.9999999999998863
 20
420.0000000000001137
  9
$ORTHOMODE
 70
     1
  9
$REGENMODE
 70
     1
  9
$FILLMODE
 70
     1
  9
$QTEXTMODE
 70
     0
  9
$MIRRTEXT
 70
     1
  9
$DRAGMODE
 70
     2
  9
$LTSCALE
 40
10.0
  9
$OSMODE
 70
   511
  9
$ATTMODE
 70
     1
  9
$TEXTSIZE
 40
3.5
  9
$TRACEWID
 40
0.5
  9
$TEXTSTYLE
  7
STANDARD
  9
$CLAYER
  8
STEMPEL
  9
$CELTYPE
  6
BYLAYER
  9
$CECOLOR
 62
   256
  9
$DIMSCALE
 40
1.0
  9
$DIMASZ
 40
3.5
  9
$DIMEXO
 40
1.0
  9
$DIMDLI
 40
0.38
  9
$DIMRND
 40
0.0
  9
$DIMDLE
 40
0.0
  9
$DIMEXE
 40
1.0
  9
$DIMTP
 40
0.0
  9
$DIMTM
 40
0.000000001
  9
$DIMTXT
 40
3.5
  9
$DIMCEN
 40
0.09
  9
$DIMTSZ
 40
0.0
  9
$DIMTOL
 70
     0
  9
$DIMLIM
 70
     0
  9
$DIMTIH
 70
     0
  9
$DIMTOH
 70
     0
  9
$DIMSE1
 70
     0
  9
$DIMSE2
 70
     0
  9
$DIMTAD
 70
     1
  9
$DIMZIN
 70
     8
  9
$DIMBLK
  1

  9
$DIMASO
 70
     1
  9
$DIMSHO
 70
     0
  9
$DIMPOST
  1

  9
$DIMAPOST
  1

  9
$DIMALT
 70
     0
  9
$DIMALTD
 70
     2
  9
$DIMALTF
 40
25.3999999999999986
  9
$DIMLFAC
 40
1.0
  9
$DIMTOFL
 70
     1
  9
$DIMTVP
 40
0.0
  9
$DIMTIX
 70
     0
  9
$DIMSOXD
 70
     0
  9
$DIMSAH
 70
     0
  9
$DIMBLK1
  1

  9
$DIMBLK2
  1

  9
$DIMSTYLE
  2
LORO
  9
$DIMCLRD
 70
     0
  9
$DIMCLRE
 70
     0
  9
$DIMCLRT
 70
     1
  9
$DIMTFAC
 40
0.5
  9
$DIMGAP
 40
1.5
  9
$LUNITS
 70
     2
  9
$LUPREC
 70
     2
  9
$SKETCHINC
 40
1.0
  9
$FILLETRAD
 40
0.0
  9
$AUNITS
 70
     0
  9
$AUPREC
 70
     0
  9
$MENU
  1
ACAD
  9
$ELEVATION
 40
0.0
  9
$PELEVATION
 40
0.0
  9
$THICKNESS
 40
0.0
  9
$LIMCHECK
 70
     0
  9
$BLIPMODE
 70
     0
  9
$CHAMFERA
 40
0.0
  9
$CHAMFERB
 40
0.0
  9
$SKPOLY
 70
     0
  9
$TDCREATE
 40
2451337.6017592591233552
  9
$TDUPDATE
 40
2459954.5614930558949709
  9
$TDINDWG
 40
0.5425524537
  9
$TDUSRTIMER
 40
0.5425524537
  9
$USRTIMER
 70
     1
  9
$ANGBASE
 50
0.0
  9
$ANGDIR
 70
     0
  9
$PDMODE
 70
     0
  9
$PDSIZE
 40
0.0
  9
$PLINEWID
 40
0.0
  9
$COORDS
 70
     1
  9
$SPLFRAME
 70
     0
  9
$SPLINETYPE
 70
     6
  9
$SPLINESEGS
 70
     8
  9
$ATTDIA
 70
     1
  9
$ATTREQ
 70
     1
  9
$HANDLING
 70
     1
  9
$HANDSEED
  5
4173
  9
$SURFTAB1
 70
     6
  9
$SURFTAB2
 70
     6
  9
$SURFTYPE
 70
     6
  9
$SURFU
 70
     6
  9
$SURFV
 70
     6
  9
$UCSNAME
  2

  9
$UCSORG
 10
0.0
 20
0.0
 30
0.0
  9
$UCSXDIR
 10
1.0
 20
0.0
 30
0.0
  9
$UCSYDIR
 10
0.0
 20
1.0
 30
0.0
  9
$PUCSNAME
  2

  9
$PUCSORG
 10
0.0
 20
0.0
 30
0.0
  9
$PUCSXDIR
 10
1.0
 20
0.0
 30
0.0
  9
$PUCSYDIR
 10
0.0
 20
1.0
 30
0.0
  9
$USERI1
 70
     0
  9
$USERI2
 70
     0
  9
$USERI3
 70
     0
  9
$USERI4
 70
     0
  9
$USERI5
 70
     0
  9
$USERR1
 40
0.0
  9
$USERR2
 40
0.0
  9
$USERR3
 40
0.0
  9
$USERR4
 40
0.0
  9
$USERR5
 40
0.0
  9
$WORLDVIEW
 70
     1
  9
$SHADEDGE
 70
     3
  9
$SHADEDIF
 70
    70
  9
$TILEMODE
 70
     1
  9
$MAXACTVP
 70
    16
  9
$PLIMCHECK
 70
     0
  9
$PEXTMIN
 10
1.0000000000000000E+20
 20
1.0000000000000000E+20
 30
1.0000000000000000E+20
  9
$PEXTMAX
 10
-1.0000000000000000E+20
 20
-1.0000000000000000E+20
 30
-1.0000000000000000E+20
  9
$PLIMMIN
 10
-5.5177132616180407
 20
-5.2652080567718249
  9
$PLIMMAX
 10
291.4822867383819016
 20
414.7347919432281742
  9
$UNITMODE
 70
     0
  9
$VISRETAIN
 70
     0
  9
$PLINEGEN
 70
     0
  9
$PSLTSCALE
 70
     0
  0
ENDSEC
  0
SECTION
  2
TABLES
  0
TABLE
  2
VPORT
 70
     1
  0
VPORT
  2
*ACTIVE
 70
     0
 10
0.0
 20
0.0
 11
1.0
 21
1.0
 12
0.0027396086512681
 22
0.0084483095999417
 13
0.0
 23
0.0
 14
1.0
 24
1.0
 15
10.0
 25
10.0
 16
-0.0000000000001973
 26
0.0
 36
888.4091647867230677
 17
0.0
 27
99.0375614166259766
 37
-0.0000000000000178
 40
323.6267817556127966
 41
1.8720136518771331
 42
50.0
 43
0.0
 44
0.0
 50
0.0
 51
0.0
 71
     0
 72
  1500
 73
     1
 74
     0
 75
     0
 76
     0
 77
     0
 78
     0
  0
ENDTAB
  0
TABLE
  2
LTYPE
 70
     3
  0
LTYPE
  2
CONTINUOUS
 70
     0
  3
Solid line
 72
    65
 73
     0
 40
0.0
  0
LTYPE
  2
STRICHPUNKT
 70
     0
  3
__ . __ . __ . __ . __ . __ . __ . __ . __ . __
 72
    65
 73
     4
 40
1.0
 49
0.5
 49
-0.25
 49
0.0
 49
-0.25
  0
LTYPE
  2
VERDECKT
 70
     0
  3
Verdeckt __ __ __ __ __ __ __ __ __ __ __ __ __
 72
    65
 73
     2
 40
0.375
 49
0.25
 49
-0.125
  0
ENDTAB
  0
TABLE
  2
LAYER
 70
     6
  0
LAYER
  2
0
 70
     0
 62
     7
  6
CONTINUOUS
  0
LAYER
  2
VOLL
 70
     0
 62
     1
  6
CONTINUOUS
  0
LAYER
  2
STEMPEL
 70
     0
 62
     3
  6
CONTINUOUS
  0
LAYER
  2
ADSK_ASSOC_ENTITY_BACKUPS
 70
     1
 62
    -7
  6
CONTINUOUS
  0
ENDTAB
  0
TABLE
  2
STYLE
 70
     3
  0
STYLE
  2
STANDARD
 70
     0
 40
0.0
 41
0.8
 50
0.0
 71
     0
 42
3.5
  3
simplex.shx
  4

  0
STYLE
  2
GREEKS
 70
     0
 40
0.0
 41
0.8
 50
0.0
 71
     0
 42
2.5
  3
SIMPLEX.shx
  4

  0
ENDTAB
  0
TABLE
  2
VIEW
 70
     0
  0
ENDTAB
  0
TABLE
  2
UCS
 70
     0
  0
ENDTAB
  0
TABLE
  2
APPID
 70
    24
  0
APPID
  2
ACAD
 70
     0
  0
APPID
  2
ACAD_EXEMPT_FROM_CAD_STANDARDS
 70
     0
  0
APPID
  2
ACAD_NAV_VCDISPLAY
 70
     0
  0
APPID
  2
ACAD_PSEXT
 70
     0
  0
APPID
  2
ACAECLAYERSTANDARD
 70
     0
  0
APPID
  2
ACCMTRANSPARENCY
 70
     0
  0
APPID
  2
ACAD_MLEADERVER
 70
     0
  0
APPID
  2
ACAD_OBJECT_CHANGE_GUID
 70
     0
  0
APPID
  2
ACDBDYNAMICBLOCKGUID
 70
     0
  0
APPID
  2
ACSYNERGY
 70
     0
  0
APPID
  2
SYNERGY_BODY_TBR_ID
 70
     0
  0
APPID
  2
ACAD_VIEW_EDGE_ID
 70
     0
  0
APPID
  2
ACAD_DSTYLE_DIMJAG
 70
     0
  0
APPID
  2
ACAD_DSTYLE_DIMBREAK
 70
     0
  0
APPID
  2
ACAD_DSTYLE_DIMTALN
 70
     0
  0
APPID
  2
ACAD_STEPID
 70
     0
  0
APPID
  2
ACSYNERGYSKETCH
 70
     0
  0
APPID
  2
ACAD_MODELDOC_XFORM
 70
     0
  0
APPID
  2
ACADANNOMONITORALERTICONDI
 70
     0
  0
APPID
  2
ACADANNOPO
 70
     0
  0
APPID
  2
ACAD_DIMASSOC_CALC_DIMLFAC
 70
     0
  0
APPID
  2
ACAD_DIMASSOC_DIMLFAC
 70
     0
  0
APPID
  2
ACAD_DIMASSOC_OVERRIDDEN_D
 70
     0
  0
APPID
  2
ACAD_DSTYLE_DIMRADIAL_EXTENSION
 70
     0
  0
ENDTAB
  0
TABLE
  2
DIMSTYLE
 70
     1
  0
DIMSTYLE
  2
LORO
 70
     0
  3

  4

  5

  6

  7

 40
1.0
 41
3.5
 42
1.0
 43
0.38
 44
1.0
 45
0.0
 46
0.0
 47
0.0
 48
0.000000001
140
3.5
141
0.09
142
0.0
143
25.3999999999999986
144
1.0
145
0.0
146
0.5
147
1.5
 71
     0
 72
     0
 73
     0
 74
     0
 75
     0
 76
     0
 77
     1
 78
     8
170
     0
171
     2
172
     1
173
     0
174
     0
175
     0
176
     0
177
     0
178
     1
  0
ENDTAB
  0
ENDSEC
  0
SECTION
  2
BLOCKS
  0
BLOCK
  8
0
  2
$MODEL_SPACE
 70
     0
 10
0.0
 20
0.0
 30
0.0
  3
$MODEL_SPACE
  1

  0
ENDBLK
  5
36
  8
0
  0
BLOCK
 67
     1
  8
0
  2
$PAPER_SPACE
 70
     0
 10
0.0
 20
0.0
 30
0.0
  3
$PAPER_SPACE
  1

  0
ENDBLK
  5
34
 67
     1
  8
0
  0
BLOCK
  8
0
  2
*S0
 70
     1
 10
0.0
 20
0.0
 30
0.0
  3
*S0
  1

  0
ENDBLK
  5
2548
  8
0
  0
BLOCK
  8
0
  2
A$CEF9865F0
 70
     0
 10
0.0
 20
0.0
 30
0.0
  3
A$CEF9865F0
  1

  0
LINE
  5
40BF
  8
0
  6
CONTINUOUS
 62
     3
 10
-51.0000000000000213
 20
0.0
 30
0.0
 11
51.0000000000000071
 21
0.0
 31
0.0
210
0.0
220
1.0
230
-0.0000000000000002
  0
LINE
  5
40C0
  8
0
  6
CONTINUOUS
 62
     3
 10
-60.0
 20
160.0
 30
-0.0000000000000355
 11
60.0
 21
160.0
 31
-0.0000000000000355
210
0.0
220
1.0
230
-0.0000000000000002
  0
LINE
  5
40C1
  8
0
  6
CONTINUOUS
 62
     3
 10
-61.9291971455455865
 20
159.4725548619821041
 30
-0.0000000000000354
 11
61.9291971455455865
 21
159.4725548619821041
 31
-0.0000000000000354
210
0.0
220
1.0
230
-0.0000000000000002
  0
LINE
  5
40C2
  8
0
  6
CONTINUOUS
 62
     3
 10
51.0000000000000071
 20
90.0000000000000142
 30
-0.00000000000002
 11
51.0000000000000071
 21
0.0
 31
0.0
210
0.0
220
1.0
230
-0.0000000000000002
  0
LINE
  5
40C3
  8
0
  6
CONTINUOUS
 62
     3
 10
-51.0000000000000071
 20
90.0000000000000142
 30
-0.00000000000002
 11
-51.0000000000000071
 21
0.0
 31
0.0
210
0.0
220
1.0
230
-0.0000000000000002
  0
LINE
  5
40C4
  8
0
  6
CONTINUOUS
 62
     3
 10
60.0
 20
160.0
 30
-0.0000000000000355
 11
61.9291971455455794
 21
159.4725548619819904
 31
-0.0000000000000354
210
0.0
220
1.0
230
-0.0000000000000002
  0
LINE
  5
40C5
  8
0
  6
CONTINUOUS
 62
     3
 10
-60.0
 20
160.0
 30
-0.0000000000000355
 11
-61.9291971455455794
 21
159.4725548619819904
 31
-0.0000000000000354
210
0.0
220
1.0
230
-0.0000000000000002
  0
LINE
  5
40C6
  8
0
  6
CONTINUOUS
 62
     3
 10
-61.283211417817661
 20
157.1097805520718111
 30
-0.0000000000000349
 11
-61.9291971455455865
 21
159.4725548619821041
 31
-0.0000000000000354
210
0.0
220
1.0
230
-0.0000000000000002
  0
LINE
  5
40C7
  8
0
  6
CONTINUOUS
 62
     3
 10
61.283211417817661
 20
157.1097805520718111
 30
-0.0000000000000349
 11
61.9291971455455865
 21
159.4725548619821041
 31
-0.0000000000000354
210
0.0
220
1.0
230
-0.0000000000000002
  0
ARC
  5
40C8
  8
0
  6
CONTINUOUS
 62
     3
 10
69.0000000000004547
 20
155.0
 30
0.0
 40
8.0000000000004565
210
0.0
220
-0.0000000000000002
230
-1.0
 50
164.7089385448566929
 51
179.9999999999996021
  0
ARC
  5
40C9
  8
0
  6
CONTINUOUS
 62
     3
 10
-69.0000000000004547
 20
155.0
 30
0.0
 40
8.0000000000004547
210
0.0
220
-0.0000000000000002
230
-1.0
 50
0.0000000000004071
 51
15.2910614551433195
  0
LINE
  5
40CA
  8
0
  6
CONTINUOUS
 62
     3
 10
61.0
 20
155.0
 30
-0.0000000000000344
 11
61.0
 21
152.0
 31
-0.0000000000000338
210
0.0
220
1.0
230
-0.0000000000000002
  0
LINE
  5
40CB
  8
0
  6
CONTINUOUS
 62
     3
 10
-61.0
 20
155.0
 30
-0.0000000000000344
 11
-61.0
 21
152.0
 31
-0.0000000000000338
210
0.0
220
1.0
230
-0.0000000000000002
  0
ARC
  5
40CC
  8
0
  6
CONTINUOUS
 62
     3
 10
49.0000000000000284
 20
152.0000000000001137
 30
0.0
 40
11.9999999999999805
210
0.0
220
-0.0000000000000002
230
-1.0
 50
344.7089385448562098
 51
359.9999999999997726
  0
ARC
  5
40CD
  8
0
  6
CONTINUOUS
 62
     3
 10
-49.0000000000004121
 20
152.0
 30
0.0
 40
11.9999999999995897
210
0.0
220
-0.0000000000000002
230
-1.0
 50
179.9999999999996874
 51
195.2910614551437902
  0
LINE
  5
40CE
  8
0
  6
CONTINUOUS
 62
     3
 10
-59.283211417817661
 20
144.1097805520718111
 30
-0.000000000000032
 11
-60.575182873273512
 21
148.8353291718923117
 31
-0.000000000000033
210
0.0
220
1.0
230
-0.0000000000000002
  0
LINE
  5
40CF
  8
0
  6
CONTINUOUS
 62
     3
 10
59.2832114178176468
 20
144.1097805520718111
 30
-0.000000000000032
 11
60.575182873273512
 21
148.8353291718923117
 31
-0.000000000000033
210
0.0
220
1.0
230
-0.0000000000000002
  0
ARC
  5
40D0
  8
0
  6
CONTINUOUS
 62
     3
 10
67.0000000000004547
 20
141.9999999999998863
 30
0.0
 40
8.0000000000004565
210
0.0
220
-0.0000000000000002
230
-1.0
 50
164.7089385448566929
 51
179.9999999999996021
  0
ARC
  5
40D1
  8
0
  6
CONTINUOUS
 62
     3
 10
-66.9999999999991331
 20
142.0000000000001137
 30
0.0
 40
7.9999999999991473
210
0.0
220
-0.0000000000000002
230
-1.0
 50
359.9999999999993747
 51
15.2910614551446002
  0
LINE
  5
40D2
  8
0
  6
CONTINUOUS
 62
     3
 10
59.0
 20
142.0
 30
-0.0000000000000315
 11
59.0
 21
115.0
 31
-0.0000000000000255
210
0.0
220
1.0
230
-0.0000000000000002
  0
LINE
  5
40D3
  8
0
  6
CONTINUOUS
 62
     3
 10
-59.0
 20
142.0
 30
-0.0000000000000315
 11
-59.0
 21
115.0
 31
-0.0000000000000255
210
0.0
220
1.0
230
-0.0000000000000002
  0
ARC
  5
40D4
  8
0
  6
CONTINUOUS
 62
     3
 10
36.9999999999998508
 20
115.0000000000000995
 30
0.0
 40
22.0000000000001705
210
0.0
220
-0.0000000000000002
230
-1.0
 50
329.2798888954512222
 51
359.9999999999998863
  0
ARC
  5
40D5
  8
0
  6
CONTINUOUS
 62
     3
 10
-36.9999999999998508
 20
115.0000000000000995
 30
0.0
 40
22.0000000000001705
210
0.0
220
-0.0000000000000002
230
-1.0
 50
180.0
 51
210.7201111045486925
  0
LINE
  5
40D6
  8
0
  6
CONTINUOUS
 62
     3
 10
-53.8065396896076393
 20
100.2168939778663059
 30
-0.0000000000000223
 11
-55.9128063414316401
 21
103.7614166243470066
 31
-0.000000000000023
210
0.0
220
1.0
230
-0.0000000000000002
  0
LINE
  5
40D7
  8
0
  6
CONTINUOUS
 62
     3
 10
53.8065396896076393
 20
100.2168939778663059
 30
-0.0000000000000223
 11
55.9128063414316401
 21
103.7614166243470066
 31
-0.000000000000023
210
0.0
220
1.0
230
-0.0000000000000002
  0
ARC
  5
40D8
  8
0
  6
CONTINUOUS
 62
     3
 10
70.9999999999999147
 20
90.0000000000000568
 30
0.0
 40
19.9999999999999112
210
0.0
220
-0.0000000000000002
230
-1.0
 50
149.2798888954509948
 51
180.0
  0
ARC
  5
40D9
  8
0
  6
CONTINUOUS
 62
     3
 10
-70.9999999999999147
 20
90.0000000000000568
 30
0.0
 40
19.9999999999999112
210
0.0
220
-0.0000000000000002
230
-1.0
 50
359.9999999999998863
 51
30.7201111045490016
  0
LINE
  5
40DA
  8
0
  6
VERDECKT
 62
     1
 10
49.0
 20
90.0000000000000142
 30
-0.00000000000002
 11
49.0
 21
0.0
 31
0.0
210
0.0
220
1.0
230
-0.0000000000000002
  0
LINE
  5
40DB
  8
0
  6
VERDECKT
 62
     1
 10
-49.0
 20
90.0000000000000142
 30
-0.00000000000002
 11
-49.0
 21
0.0
 31
0.0
210
0.0
220
1.0
230
-0.0000000000000002
  0
ARC
  5
40DC
  8
0
  6
VERDECKT
 62
     1
 10
71.0000000000000853
 20
89.9999999999999858
 30
0.0
 40
22.0000000000000888
210
0.0
220
-0.0000000000000002
230
-1.0
 50
149.2798888954511085
 51
179.9999999999998863
  0
ARC
  5
40DD
  8
0
  6
VERDECKT
 62
     1
 10
-71.0000000000001705
 20
89.9999999999999858
 30
0.0
 40
22.0000000000001705
210
0.0
220
-0.0000000000000002
230
-1.0
 50
0.0000000000001145
 51
30.7201111045488098
  0
LINE
  5
40DE
  8
0
  6
VERDECKT
 62
     1
 10
-52.087193658568367
 20
101.2385833756529934
 30
-0.0000000000000225
 11
-54.1934603103923891
 21
104.7831060221335946
 31
-0.0000000000000233
210
0.0
220
1.0
230
-0.0000000000000002
  0
LINE
  5
40DF
  8
0
  6
VERDECKT
 62
     1
 10
52.087193658568367
 20
101.2385833756529934
 30
-0.0000000000000225
 11
54.1934603103923891
 21
104.7831060221335946
 31
-0.0000000000000233
210
0.0
220
1.0
230
-0.0000000000000002
  0
ARC
  5
40E0
  8
0
  6
VERDECKT
 62
     1
 10
37.0000000000000995
 20
115.0
 30
0.0
 40
19.9999999999999112
210
0.0
220
-0.0000000000000002
230
-1.0
 50
329.2798888954508811
 51
0.0000000000000891
  0
ARC
  5
40E1
  8
0
  6
VERDECKT
 62
     1
 10
-37.0000000000000995
 20
115.0
 30
0.0
 40
19.9999999999999112
210
0.0
220
-0.0000000000000002
230
-1.0
 50
179.9999999999998863
 51
210.7201111045490052
  0
LINE
  5
40E2
  8
0
  6
VERDECKT
 62
     1
 10
56.9999999999999929
 20
142.0
 30
-0.0000000000000315
 11
56.9999999999999929
 21
115.0
 31
-0.0000000000000255
210
0.0
220
1.0
230
-0.0000000000000002
  0
LINE
  5
40E3
  8
0
  6
VERDECKT
 62
     1
 10
-56.9999999999999929
 20
142.0
 30
-0.0000000000000315
 11
-56.9999999999999929
 21
115.0
 31
-0.0000000000000255
210
0.0
220
1.0
230
-0.0000000000000002
  0
ARC
  5
40E4
  8
0
  6
VERDECKT
 62
     1
 10
66.9999999999999716
 20
142.0
 30
0.0
 40
9.9999999999999716
210
0.0
220
-0.0000000000000002
230
-1.0
 50
164.708938544856295
 51
180.0
  0
ARC
  5
40E5
  8
0
  6
VERDECKT
 62
     1
 10
-66.9999999999999716
 20
142.0
 30
0.0
 40
9.9999999999999716
210
0.0
220
-0.0000000000000002
230
-1.0
 50
0.0
 51
15.2910614551436606
  0
LINE
  5
40E6
  8
0
  6
VERDECKT
 62
     1
 10
-57.3540142722720816
 20
144.6372256900897071
 30
-0.0000000000000321
 11
-58.6459857277279113
 21
149.3627743099102929
 31
-0.0000000000000332
210
0.0
220
1.0
230
-0.0000000000000002
  0
LINE
  5
40E7
  8
0
  6
VERDECKT
 62
     1
 10
57.3540142722720816
 20
144.6372256900897071
 30
-0.0000000000000321
 11
58.6459857277279184
 21
149.3627743099102929
 31
-0.0000000000000332
210
0.0
220
1.0
230
-0.0000000000000002
  0
ARC
  5
40E8
  8
0
  6
VERDECKT
 62
     1
 10
49.0000000000000284
 20
152.0
 30
0.0
 40
9.9999999999999645
210
0.0
220
-0.0000000000000002
230
-1.0
 50
344.7089385448563235
 51
0.0
  0
ARC
  5
40E9
  8
0
  6
VERDECKT
 62
     1
 10
-49.0000000000000284
 20
152.0
 30
0.0
 40
9.9999999999999645
210
0.0
220
-0.0000000000000002
230
-1.0
 50
180.0
 51
195.2910614551435913
  0
LINE
  5
40EA
  8
0
  6
VERDECKT
 62
     1
 10
59.0
 20
155.0
 30
-0.0000000000000344
 11
59.0
 21
152.0
 31
-0.0000000000000338
210
0.0
220
1.0
230
-0.0000000000000002
  0
LINE
  5
40EB
  8
0
  6
VERDECKT
 62
     1
 10
-59.0
 20
155.0
 30
-0.0000000000000344
 11
-59.0
 21
152.0
 31
-0.0000000000000338
210
0.0
220
1.0
230
-0.0000000000000002
  0
ARC
  5
40EC
  8
0
  6
VERDECKT
 62
     1
 10
68.9999999999999716
 20
155.0
 30
0.0
 40
9.9999999999999716
210
0.0
220
-0.0000000000000002
230
-1.0
 50
164.708938544856295
 51
180.0
  0
ARC
  5
40ED
  8
0
  6
VERDECKT
 62
     1
 10
-68.9999999999999716
 20
155.0
 30
0.0
 40
9.9999999999999716
210
0.0
220
-0.0000000000000002
230
-1.0
 50
0.0
 51
15.2910614551436606
  0
LINE
  5
40EE
  8
0
  6
VERDECKT
 62
     1
 10
-59.3540142722720816
 20
157.6372256900897071
 30
-0.000000000000035
 11
-60.0
 21
160.0
 31
-0.0000000000000355
210
0.0
220
1.0
230
-0.0000000000000002
  0
LINE
  5
40EF
  8
0
  6
VERDECKT
 62
     1
 10
59.3540142722720816
 20
157.6372256900897071
 30
-0.000000000000035
 11
60.0
 21
160.0
 31
-0.0000000000000355
210
0.0
220
1.0
230
-0.0000000000000002
  0
LINE
  5
40F0
  8
0
  6
VERDECKT
 62
     1
 10
-49.3740368225885788
 20
100.0
 30
-0.0000000000000222
 11
49.3740368225885788
 21
100.0
 31
-0.0000000000000222
210
0.0
220
1.0
230
-0.0000000000000002
  0
LINE
  5
40F1
  8
0
  6
VERDECKT
 62
     1
 10
-50.5442027451792484
 20
98.9088026239000442
 30
-0.000000000000022
 11
50.5442027451792626
 21
98.9088026239000442
 31
-0.000000000000022
210
0.0
220
1.0
230
-0.0000000000000002
  0
LINE
  5
40F2
  8
0
  6
VERDECKT
 62
     1
 10
-35.7000000000000028
 20
1.999999999999996
 30
-0.0000000000000004
 11
35.7000000000000028
 21
1.99999999999999
 31
-0.0000000000000004
210
0.0
220
1.0
230
-0.0000000000000002
  0
LINE
  5
40F3
  8
0
  6
VERDECKT
 62
     1
 10
-34.1240150093808623
 20
2.276172607879928
 30
-0.0000000000000005
 11
34.1240150093808623
 21
2.2761726078799218
 31
-0.0000000000000005
210
0.0
220
1.0
230
-0.0000000000000002
  0
ARC
  5
40F4
  8
0
  6
VERDECKT
 62
     1
 10
45.0
 20
80.5
 30
0.0
 40
8.5000000000000089
210
0.0
220
-0.0000000000000002
230
-1.0
 50
137.0
 51
180.0
  0
ARC
  5
40F5
  8
0
  6
VERDECKT
 62
     1
 10
-45.0000000000000071
 20
80.5
 30
0.0
 40
8.5000000000000071
210
0.0
220
-0.0000000000000002
230
-1.0
 50
0.0
 51
42.9999999999999574
  0
ARC
  5
40F6
  8
0
  6
VERDECKT
 62
     1
 10
44.9999999999999218
 20
80.5000000000000142
 30
0.0
 40
10.0999999999999197
210
0.0
220
-0.0000000000000002
230
-1.0
 50
136.9999999999998863
 51
180.0000000000001137
  0
ARC
  5
40F7
  8
0
  6
VERDECKT
 62
     1
 10
-44.9999999999999218
 20
80.5000000000000142
 30
0.0
 40
10.0999999999999108
210
0.0
220
-0.0000000000000002
230
-1.0
 50
359.9999999999997726
 51
43.0000000000001421
  0
LINE
  5
40F8
  8
0
  6
VERDECKT
 62
     1
 10
-37.6133276136463621
 20
87.3881834366312233
 30
-0.0000000000000194
 11
-49.3740368225885788
 21
100.0
 31
-0.0000000000000222
210
0.0
220
1.0
230
-0.0000000000000002
  0
LINE
  5
40F9
  8
0
  6
VERDECKT
 62
     1
 10
37.6133276136463692
 20
87.3881834366312233
 30
-0.0000000000000194
 11
49.3740368225886002
 21
100.0
 31
-0.0000000000000222
210
0.0
220
1.0
230
-0.0000000000000002
  0
LINE
  5
40FA
  8
0
  6
VERDECKT
 62
     1
 10
49.3740368225885788
 20
100.0
 30
-0.0000000000000222
 11
50.5442027451792626
 21
98.9088026239000158
 31
-0.000000000000022
210
0.0
220
1.0
230
-0.0000000000000002
  0
LINE
  5
40FB
  8
0
  6
VERDECKT
 62
     1
 10
-49.3740368225885717
 20
100.0
 30
-0.0000000000000222
 11
-50.5442027451792626
 21
98.9088026239000158
 31
-0.000000000000022
210
0.0
220
1.0
230
-0.0000000000000002
  0
LINE
  5
40FC
  8
0
  6
VERDECKT
 62
     1
 10
-38.7834935362370388
 20
86.2969860605312249
 30
-0.0000000000000192
 11
-50.5442027451792626
 21
98.9088026239000442
 31
-0.000000000000022
210
0.0
220
1.0
230
-0.0000000000000002
  0
LINE
  5
40FD
  8
0
  6
VERDECKT
 62
     1
 10
38.7834935362370601
 20
86.2969860605312249
 30
-0.0000000000000192
 11
50.5442027451792697
 21
98.9088026239000442
 31
-0.000000000000022
210
0.0
220
1.0
230
-0.0000000000000002
  0
LINE
  5
40FE
  8
0
  6
VERDECKT
 62
     1
 10
36.5000000000000213
 20
80.5
 30
-0.0000000000000179
 11
36.5000000000000213
 21
7.0000000000000009
 31
-0.0000000000000016
210
0.0
220
1.0
230
-0.0000000000000002
  0
LINE
  5
40FF
  8
0
  6
VERDECKT
 62
     1
 10
-36.5
 20
80.5
 30
-0.0000000000000179
 11
-36.5
 21
6.9999999999999867
 31
-0.0000000000000016
210
0.0
220
1.0
230
-0.0000000000000002
  0
ARC
  5
4100
  8
0
  6
VERDECKT
 62
     1
 10
31.5000000000002309
 20
7.0000000000000133
 30
0.0
 40
4.999999999999801
210
0.0
220
-0.0000000000000002
230
-1.0
 50
350.060518543778926
 51
359.9999999999997726
  0
ARC
  5
4101
  8
0
  6
VERDECKT
 62
     1
 10
-31.5000000000000497
 20
7.000000000000016
 30
0.0
 40
4.9999999999999778
210
0.0
220
-0.0000000000000002
230
-1.0
 50
180.0000000000001137
 51
189.9394814562207898
  0
LINE
  5
4102
  8
0
  6
VERDECKT
 62
     1
 10
-35.7000000000000028
 20
1.999999999999998
 30
-0.0000000000000004
 11
-36.4249530956847991
 21
6.1369606003752502
 31
-0.0000000000000014
210
0.0
220
1.0
230
-0.0000000000000002
  0
LINE
  5
4103
  8
0
  6
VERDECKT
 62
     1
 10
35.7000000000000028
 20
2.0000000000000022
 30
-0.0000000000000004
 11
36.4249530956847991
 21
6.1369606003752359
 31
-0.0000000000000014
210
0.0
220
1.0
230
-0.0000000000000002
  0
LINE
  5
4104
  8
0
  6
VERDECKT
 62
     1
 10
34.1240150093808623
 20
2.276172607879928
 30
-0.0000000000000005
 11
35.7000000000000028
 21
2.0000000000000009
 31
-0.0000000000000004
210
0.0
220
1.0
230
-0.0000000000000002
  0
LINE
  5
4105
  8
0
  6
VERDECKT
 62
     1
 10
-34.1240150093808623
 20
2.2761726078799338
 30
-0.0000000000000005
 11
-35.7000000000000028
 21
2.0000000000000071
 31
-0.0000000000000004
210
0.0
220
1.0
230
-0.0000000000000002
  0
LINE
  5
4106
  8
0
  6
VERDECKT
 62
     1
 10
-34.1240150093808694
 20
2.2761726078799271
 30
-0.0000000000000005
 11
-34.8489681050656586
 21
6.4131332082551618
 31
-0.0000000000000014
210
0.0
220
1.0
230
-0.0000000000000002
  0
LINE
  5
4107
  8
0
  6
VERDECKT
 62
     1
 10
34.1240150093808694
 20
2.2761726078799271
 30
-0.0000000000000005
 11
34.8489681050656728
 21
6.4131332082551618
 31
-0.0000000000000014
210
0.0
220
1.0
230
-0.0000000000000002
  0
ARC
  5
4108
  8
0
  6
VERDECKT
 62
     1
 10
31.5
 20
6.9999999999999938
 30
0.0
 40
3.4000000000000301
210
0.0
220
-0.0000000000000002
230
-1.0
 50
350.0605185437794944
 51
0.0000000000000636
  0
ARC
  5
4109
  8
0
  6
VERDECKT
 62
     1
 10
-31.4999999999999396
 20
7.0
 30
0.0
 40
3.4000000000000901
210
0.0
220
-0.0000000000000002
230
-1.0
 50
180.0
 51
189.9394814562203067
  0
LINE
  5
410A
  8
0
  6
VERDECKT
 62
     1
 10
34.9000000000000128
 20
80.5
 30
-0.0000000000000179
 11
34.9000000000000128
 21
7.0000000000000009
 31
-0.0000000000000016
210
0.0
220
1.0
230
-0.0000000000000002
  0
LINE
  5
410B
  8
0
  6
VERDECKT
 62
     1
 10
-34.8999999999999986
 20
80.5
 30
-0.0000000000000179
 11
-34.8999999999999986
 21
7.0000000000000009
 31
-0.0000000000000016
210
0.0
220
1.0
230
-0.0000000000000002
  0
ENDBLK
  5
410D
  8
0
  0
BLOCK
  8
0
  2
A$C9F79DC55
 70
     0
 10
0.0
 20
0.0
 30
0.0
  3
A$C9F79DC55
  1

  0
CIRCLE
  5
4111
  8
0
  6
CONTINUOUS
 62
     3
 10
0.0000000000000315
 20
0.0000000000000087
 30
0.0
 40
56.9999999999999929
  0
CIRCLE
  5
4112
  8
0
  6
CONTINUOUS
 62
     3
 10
0.0000000000000344
 20
0.0000000000000095
 30
0.0
 40
59.0
  0
CIRCLE
  5
4113
  8
0
  6
CONTINUOUS
 62
     3
 10
0.0000000000000355
 20
0.0000000000000098
 30
0.0
 40
60.0
  0
CIRCLE
  5
4114
  8
0
  6
CONTINUOUS
 62
     3
 10
0.0000000000000354
 20
0.0000000000000098
 30
0.0
 40
61.9291971455455865
  0
CIRCLE
  5
4115
  8
0
  6
CONTINUOUS
 62
     3
 10
0.000000000000025
 20
0.0000000000000049
 30
0.0
 40
34.8999999999999986
  0
CIRCLE
  5
4116
  8
0
  6
CONTINUOUS
 62
     3
 10
0.0000000000000311
 20
-0.0000000000000044
 30
0.0
 40
49.3740368225885788
  0
CIRCLE
  5
4117
  8
0
  6
CONTINUOUS
 62
     3
 10
0.0000000000000308
 20
-0.0000000000000045
 30
0.0
 40
50.5442027451792626
  0
CIRCLE
  5
4118
  8
0
  6
CONTINUOUS
 62
     3
 10
0.0000000000000005
 20
0.0000000000000001
 30
0.0
 40
34.1240150093808623
  0
CIRCLE
  5
4119
  8
0
  6
VERDECKT
 62
     1
 10
0.00000000000002
 20
0.0000000000000055
 30
0.0
 40
51.0000000000000071
  0
CIRCLE
  5
411A
  8
0
  6
VERDECKT
 62
     1
 10
0.00000000000002
 20
0.0000000000000055
 30
0.0
 40
49.0
  0
CIRCLE
  5
411B
  8
0
  6
VERDECKT
 62
     1
 10
0.0000000000000344
 20
0.0000000000000095
 30
0.0
 40
61.0
  0
CIRCLE
  5
411C
  8
0
  6
VERDECKT
 62
     1
 10
0.000000000000025
 20
0.0000000000000049
 30
0.0
 40
36.5000000000000071
  0
CIRCLE
  5
411D
  8
0
  6
VERDECKT
 62
     1
 10
0.0000000000000004
 20
0.0000000000000001
 30
0.0
 40
35.7000000000000028
  0
ENDBLK
  5
411F
  8
0
  0
ENDSEC
  0
SECTION
  2
ENTITIES
  0
TEXT
  5
8E
  8
VOLL
 10
78.076754716981128
 20
31.025947764705851
 30
0.0
 40
1.8
  1

  7
GREEKS
  0
INSERT
  5
254A
  8
ADSK_ASSOC_ENTITY_BACKUPS
  2
*S0
 10
0.0
 20
0.0
 30
0.0
  0
INSERT
  5
410E
  8
STEMPEL
  2
A$CEF9865F0
 10
0.0
 20
100.0
 30
0.0
  0
INSERT
  5
4120
  8
STEMPEL
  2
A$C9F79DC55
 10
0.0
 20
0.0
 30
0.0
  0
VIEWPORT
  5
228B
 67
     1
  8
0
 10
142.9822867383819016
 20
204.7347919432282026
 30
0.0
 40
790.2674510967764263
 41
422.1483375959078899
 68
     1
 69
     1
1001
ACAD
1000
MVIEW
1002
{
1070
    16
1010
0.0
1020
0.0
1030
0.0
1010
0.0
1020
0.0
1030
1.0
1040
0.0
1040
422.1483375959078899
1040
142.9822867383819016
1040
204.7347919432282026
1040
50.0
1040
0.0
1040
0.0
1070
     0
1070
  1500
1070
     1
1070
     1
1070
     0
1070
     0
1070
     0
1070
     0
1040
0.0
1040
0.0
1040
0.0
1040
10.0
1040
10.0
1040
10.0
1040
10.0
1070
     0
1002
{
1002
}
1002
}
  0
ENDSEC
  0
EOF
