  0
SECTION
  2
HEADER
  9
$ACADVER
  1
AC1009
  9
$INSBASE
 10
0.0
 20
0.0
 30
0.0
  9
$EXTMIN
 10
-60.5000000000000071
 20
-160.5
 30
-0.0000000000000311
  9
$EXTMAX
 10
60.5000000000000284
 20
140.0
 30
0.0
  9
$LIMMIN
 10
0.0
 20
0.0
  9
$LIMMAX
 10
594.0
 20
840.0
  9
$ORTHOMODE
 70
     1
  9
$REGENMODE
 70
     1
  9
$FILLMODE
 70
     1
  9
$QTEXTMODE
 70
     0
  9
$MIRRTEXT
 70
     1
  9
$DRAGMODE
 70
     2
  9
$LTSCALE
 40
10.0
  9
$OSMODE
 70
  1535
  9
$ATTMODE
 70
     1
  9
$TEXTSIZE
 40
3.5
  9
$TRACEWID
 40
1.0
  9
$TEXTSTYLE
  7
STANDARD
  9
$CLAYER
  8
STEMPEL
  9
$CELTYPE
  6
BYLAYER
  9
$CECOLOR
 62
   256
  9
$DIMSCALE
 40
1.0
  9
$DIMASZ
 40
3.5
  9
$DIMEXO
 40
1.0
  9
$DIMDLI
 40
0.38
  9
$DIMRND
 40
0.0
  9
$DIMDLE
 40
0.0
  9
$DIMEXE
 40
1.0
  9
$DIMTP
 40
0.0
  9
$DIMTM
 40
0.000000001
  9
$DIMTXT
 40
3.5
  9
$DIMCEN
 40
0.09
  9
$DIMTSZ
 40
0.0
  9
$DIMTOL
 70
     0
  9
$DIMLIM
 70
     0
  9
$DIMTIH
 70
     0
  9
$DIMTOH
 70
     0
  9
$DIMSE1
 70
     0
  9
$DIMSE2
 70
     0
  9
$DIMTAD
 70
     1
  9
$DIMZIN
 70
     8
  9
$DIMBLK
  1

  9
$DIMASO
 70
     1
  9
$DIMSHO
 70
     0
  9
$DIMPOST
  1

  9
$DIMAPOST
  1

  9
$DIMALT
 70
     0
  9
$DIMALTD
 70
     2
  9
$DIMALTF
 40
25.3999999999999986
  9
$DIMLFAC
 40
1.0
  9
$DIMTOFL
 70
     1
  9
$DIMTVP
 40
0.0
  9
$DIMTIX
 70
     0
  9
$DIMSOXD
 70
     0
  9
$DIMSAH
 70
     0
  9
$DIMBLK1
  1

  9
$DIMBLK2
  1

  9
$DIMSTYLE
  2
LORO
  9
$DIMCLRD
 70
     0
  9
$DIMCLRE
 70
     0
  9
$DIMCLRT
 70
     1
  9
$DIMTFAC
 40
0.5
  9
$DIMGAP
 40
1.5
  9
$LUNITS
 70
     2
  9
$LUPREC
 70
     2
  9
$SKETCHINC
 40
1.0
  9
$FILLETRAD
 40
0.5
  9
$AUNITS
 70
     0
  9
$AUPREC
 70
     0
  9
$MENU
  1
ACAD
  9
$ELEVATION
 40
0.0
  9
$PELEVATION
 40
0.0
  9
$THICKNESS
 40
0.0
  9
$LIMCHECK
 70
     0
  9
$BLIPMODE
 70
     0
  9
$CHAMFERA
 40
0.0
  9
$CHAMFERB
 40
0.0
  9
$SKPOLY
 70
     0
  9
$TDCREATE
 40
2455397.867048610933125
  9
$TDUPDATE
 40
2460829.4068402778357267
  9
$TDINDWG
 40
3.5176104397999999
  9
$TDUSRTIMER
 40
3.5176104397999999
  9
$USRTIMER
 70
     1
  9
$ANGBASE
 50
0.0
  9
$ANGDIR
 70
     0
  9
$PDMODE
 70
     0
  9
$PDSIZE
 40
0.0
  9
$PLINEWID
 40
0.0
  9
$COORDS
 70
     1
  9
$SPLFRAME
 70
     0
  9
$SPLINETYPE
 70
     6
  9
$SPLINESEGS
 70
     8
  9
$ATTDIA
 70
     1
  9
$ATTREQ
 70
     1
  9
$HANDLING
 70
     1
  9
$HANDSEED
  5
2E9E5
  9
$SURFTAB1
 70
     6
  9
$SURFTAB2
 70
     6
  9
$SURFTYPE
 70
     6
  9
$SURFU
 70
     6
  9
$SURFV
 70
     6
  9
$UCSNAME
  2

  9
$UCSORG
 10
0.0
 20
0.0
 30
0.0
  9
$UCSXDIR
 10
1.0
 20
0.0
 30
0.0
  9
$UCSYDIR
 10
0.0
 20
1.0
 30
0.0
  9
$PUCSNAME
  2

  9
$PUCSORG
 10
0.0
 20
0.0
 30
0.0
  9
$PUCSXDIR
 10
1.0
 20
0.0
 30
0.0
  9
$PUCSYDIR
 10
0.0
 20
1.0
 30
0.0
  9
$USERI1
 70
     0
  9
$USERI2
 70
     0
  9
$USERI3
 70
     0
  9
$USERI4
 70
     0
  9
$USERI5
 70
     0
  9
$USERR1
 40
0.0
  9
$USERR2
 40
0.0
  9
$USERR3
 40
0.0
  9
$USERR4
 40
0.0
  9
$USERR5
 40
0.0
  9
$WORLDVIEW
 70
     1
  9
$SHADEDGE
 70
     3
  9
$SHADEDIF
 70
    70
  9
$TILEMODE
 70
     1
  9
$MAXACTVP
 70
    16
  9
$PLIMCHECK
 70
     0
  9
$PEXTMIN
 10
-0.0000000000001705
 20
-0.00000000000008
 30
-0.0000000000001227
  9
$PEXTMAX
 10
296.5
 20
419.5000000000001137
 30
0.0000000000000568
  9
$PLIMMIN
 10
-0.2375479792897295
 20
-0.225661200369359
  9
$PLIMMAX
 10
296.7624520207102137
 20
419.7743387996305842
  9
$UNITMODE
 70
     0
  9
$VISRETAIN
 70
     0
  9
$PLINEGEN
 70
     0
  9
$PSLTSCALE
 70
     0
  0
ENDSEC
  0
SECTION
  2
TABLES
  0
TABLE
  2
VPORT
 70
     1
  0
VPORT
  2
*ACTIVE
 70
     0
 10
0.0
 20
0.0
 11
1.0
 21
1.0
 12
0.0
 22
0.0
 13
0.0
 23
0.0
 14
1.0
 24
1.0
 15
10.0
 25
10.0
 16
-0.0000000000001703
 26
0.0
 36
766.9438673474821826
 17
0.0
 27
-10.25
 37
-0.0000000000000155
 40
302.0489690721649936
 41
1.8839208942390371
 42
50.0
 43
0.0
 44
0.0
 50
0.0
 51
0.0
 71
     0
 72
  1500
 73
     1
 74
     0
 75
     0
 76
     0
 77
     0
 78
     0
  0
ENDTAB
  0
TABLE
  2
LTYPE
 70
     3
  0
LTYPE
  2
CONTINUOUS
 70
     0
  3
Solid line
 72
    65
 73
     0
 40
0.0
  0
LTYPE
  2
STRICHPUNKT
 70
     0
  3
__ . __ . __ . __ . __ . __ . __ . __ . __ . __
 72
    65
 73
     4
 40
1.0
 49
0.5
 49
-0.25
 49
0.0
 49
-0.25
  0
LTYPE
  2
VERDECKT
 70
     0
  3
Verdeckt __ __ __ __ __ __ __ __ __ __ __ __ __
 72
    65
 73
     2
 40
0.375
 49
0.25
 49
-0.125
  0
ENDTAB
  0
TABLE
  2
LAYER
 70
     5
  0
LAYER
  2
0
 70
     0
 62
     7
  6
CONTINUOUS
  0
LAYER
  2
STEMPEL
 70
     0
 62
     3
  6
CONTINUOUS
  0
LAYER
  2
ADSK_ASSOC_ENTITY_BACKUPS
 70
     1
 62
    -7
  6
CONTINUOUS
  0
ENDTAB
  0
TABLE
  2
STYLE
 70
     1
  0
STYLE
  2
STANDARD
 70
     0
 40
0.0
 41
0.8
 50
0.0
 71
     0
 42
3.5
  3
simplex.shx
  4

  0
ENDTAB
  0
TABLE
  2
VIEW
 70
     0
  0
ENDTAB
  0
TABLE
  2
UCS
 70
     0
  0
ENDTAB
  0
TABLE
  2
APPID
 70
    30
  0
APPID
  2
ACAD
 70
     0
  0
APPID
  2
ACAECLAYERSTANDARD
 70
     0
  0
APPID
  2
ACCMTRANSPARENCY
 70
     0
  0
APPID
  2
ACAD_NAV_VCDISPLAY
 70
     0
  0
APPID
  2
ACAD_PSEXT
 70
     0
  0
APPID
  2
ACAD_STEPID
 70
     0
  0
APPID
  2
ACAD_EXEMPT_FROM_CAD_STANDARDS
 70
     0
  0
APPID
  2
ACSYNERGY
 70
     0
  0
APPID
  2
SYNERGY_BODY_TBR_ID
 70
     0
  0
APPID
  2
ACAD_VIEW_EDGE_ID
 70
     0
  0
APPID
  2
GRADIENTCOLOR1ACI
 70
     0
  0
APPID
  2
GRADIENTCOLOR2ACI
 70
     0
  0
APPID
  2
ACAD_DSTYLE_DIMRADIAL_EXTENSION
 70
     0
  0
APPID
  2
ACADANNOMONITORALERTICONDI
 70
     0
  0
APPID
  2
ACAD_MLEADERVER
 70
     0
  0
APPID
  2
ACSYNERGYSKETCH
 70
     0
  0
APPID
  2
ACAD_MODELDOC_XFORM
 70
     0
  0
APPID
  2
ACDBDYNAMICBLOCKGUID
 70
     0
  0
APPID
  2
ACAD_DSTYLE_DIMJAG
 70
     0
  0
APPID
  2
ACAD_DSTYLE_DIMBREAK
 70
     0
  0
APPID
  2
ACAD_DSTYLE_DIMTALN
 70
     0
  0
APPID
  2
ACADANNOPO
 70
     0
  0
APPID
  2
PLOTTRANSPARENCY
 70
     0
  0
APPID
  2
ACADANNOTATIVE
 70
     0
  0
APPID
  2
ACAD_DIMASSOC_CALC_DIMLFAC
 70
     0
  0
APPID
  2
ACAD_DIMASSOC_DIMLFAC
 70
     0
  0
APPID
  2
ACAD_DIMASSOC_OVERRIDDEN_D
 70
     0
  0
APPID
  2
ACADANNOAV
 70
     0
  0
APPID
  2
ACAUTHENVIRON
 70
     0
  0
APPID
  2
ACDBDYNAMICBLOCKTRUENAME
 70
     0
  0
ENDTAB
  0
TABLE
  2
DIMSTYLE
 70
     3
  0
DIMSTYLE
  2
LORO
 70
     0
  3

  4

  5

  6

  7

 40
1.0
 41
3.5
 42
1.0
 43
0.38
 44
1.0
 45
0.0
 46
0.0
 47
0.0
 48
0.000000001
140
3.5
141
0.09
142
0.0
143
25.3999999999999986
144
1.0
145
0.0
146
0.5
147
1.5
 71
     0
 72
     0
 73
     0
 74
     0
 75
     0
 76
     0
 77
     1
 78
     8
170
     0
171
     2
172
     1
173
     0
174
     0
175
     0
176
     0
177
     0
178
     1
  0
ENDTAB
  0
ENDSEC
  0
SECTION
  2
BLOCKS
  0
BLOCK
  8
0
  2
$MODEL_SPACE
 70
     0
 10
0.0
 20
0.0
 30
0.0
  3
$MODEL_SPACE
  1

  0
ENDBLK
  5
38
  8
0
  0
BLOCK
 67
     1
  8
0
  2
$PAPER_SPACE
 70
     0
 10
0.0
 20
0.0
 30
0.0
  3
$PAPER_SPACE
  1

  0
ENDBLK
  5
36
 67
     1
  8
0
  0
BLOCK
  8
0
  2
*S0
 70
     1
 10
0.0
 20
0.0
 30
0.0
  3
*S0
  1

  0
ENDBLK
  5
7128
  8
0
  0
BLOCK
  8
0
  2
A$CE626578C
 70
     0
 10
0.0
 20
0.0
 30
0.0
  3
A$CE626578C
  1

  0
LINE
  5
2E94C
  8
0
  6
CONTINUOUS
 62
     3
 10
51.0000000000000071
 20
0.0
 30
0.0
 11
-51.0000000000000071
 21
0.0
 31
0.0
210
0.0
220
1.0
230
-0.0000000000000002
  0
LINE
  5
2E94D
  8
0
  6
CONTINUOUS
 62
     3
 10
60.5
 20
140.0
 30
-0.0000000000000311
 11
-60.4999999999999929
 21
140.0
 31
-0.0000000000000311
210
0.0
220
1.0
230
-0.0000000000000002
  0
LINE
  5
2E94E
  8
0
  6
CONTINUOUS
 62
     3
 10
-51.0000000000000071
 20
0.0
 30
0.0
 11
-51.0000000000000071
 21
110.0
 31
-0.0000000000000244
210
0.0
220
1.0
230
-0.0000000000000002
  0
LINE
  5
2E94F
  8
0
  6
CONTINUOUS
 62
     3
 10
51.0000000000000071
 20
0.0
 30
0.0
 11
51.0000000000000071
 21
110.0
 31
-0.0000000000000244
210
0.0
220
1.0
230
-0.0000000000000002
  0
ARC
  5
2E950
  8
0
  6
CONTINUOUS
 62
     3
 10
-60.9999999999999716
 20
110.0
 30
0.0
 40
9.9999999999999645
210
0.0
220
-0.0000000000000002
230
-1.0
 50
0.0
 51
36.227631551245608
  0
ARC
  5
2E951
  8
0
  6
CONTINUOUS
 62
     3
 10
61.0000000000000213
 20
110.0
 30
0.0
 40
10.0000000000000107
210
0.0
220
-0.0000000000000002
230
-1.0
 50
143.7723684487544062
 51
179.9999999999998863
  0
LINE
  5
2E952
  8
0
  6
CONTINUOUS
 62
     3
 10
-52.9332460808777512
 20
115.9099476485265967
 30
-0.0000000000000257
 11
-58.2767670069906174
 21
123.2035602041944031
 31
-0.0000000000000274
210
0.0
220
1.0
230
-0.0000000000000002
  0
LINE
  5
2E953
  8
0
  6
CONTINUOUS
 62
     3
 10
52.9332460808777512
 20
115.9099476485265967
 30
-0.0000000000000257
 11
58.2767670069906174
 21
123.2035602041944031
 31
-0.0000000000000274
210
0.0
220
1.0
230
-0.0000000000000002
  0
ARC
  5
2E954
  8
0
  6
CONTINUOUS
 62
     3
 10
-49.0000000000001066
 20
130.0
 30
0.0
 40
11.4999999999998899
210
0.0
220
-0.0000000000000002
230
-1.0
 50
179.999999999999801
 51
216.2276315512455938
  0
ARC
  5
2E955
  8
0
  6
CONTINUOUS
 62
     3
 10
49.0000000000000497
 20
130.0
 30
0.0
 40
11.4999999999999591
210
0.0
220
-0.0000000000000002
230
-1.0
 50
323.7723684487543778
 51
0.0000000000000064
  0
LINE
  5
2E956
  8
0
  6
CONTINUOUS
 62
     3
 10
-60.5
 20
130.0
 30
-0.0000000000000289
 11
-60.5
 21
140.0
 31
-0.0000000000000311
210
0.0
220
1.0
230
-0.0000000000000002
  0
LINE
  5
2E957
  8
0
  6
CONTINUOUS
 62
     3
 10
60.5
 20
130.0
 30
-0.0000000000000289
 11
60.5
 21
140.0
 31
-0.0000000000000311
210
0.0
220
1.0
230
-0.0000000000000002
  0
LINE
  5
2E958
  8
0
  6
VERDECKT
 62
     1
 10
-33.9123553973039478
 20
2.1984555753370079
 30
-0.0000000000000005
 11
33.9123553973039478
 21
2.1984555753369999
 31
-0.0000000000000005
210
0.0
220
1.0
230
-0.0000000000000002
  0
LINE
  5
2E959
  8
0
  6
VERDECKT
 62
     1
 10
-35.5000000000000071
 20
1.9999999999999969
 30
-0.0000000000000004
 11
35.5000000000000071
 21
1.9999999999999889
 31
-0.0000000000000004
210
0.0
220
1.0
230
-0.0000000000000002
  0
LINE
  5
2E95A
  8
0
  6
VERDECKT
 62
     1
 10
-49.36493917630645
 20
78.9715398245312201
 30
-0.0000000000000175
 11
49.36493917630645
 21
78.9715398245312201
 31
-0.0000000000000175
210
0.0
220
1.0
230
-0.0000000000000002
  0
LINE
  5
2E95B
  8
0
  6
VERDECKT
 62
     1
 10
-48.1392680673514519
 20
80.0000000000000142
 30
-0.0000000000000178
 11
48.1392680673514519
 21
80.0000000000000142
 31
-0.0000000000000178
210
0.0
220
1.0
230
-0.0000000000000002
  0
ARC
  5
2E95C
  8
0
  6
VERDECKT
 62
     1
 10
33.9000000000477684
 20
10.1618701455731895
 30
0.0
 40
0.9999999999983868
210
0.0
220
-0.0000000000000002
230
-1.0
 50
352.8749836510912132
 51
0.000000000004566
  0
ARC
  5
2E95D
  8
0
  6
VERDECKT
 62
     1
 10
-33.9000000000477684
 20
10.1618701455731806
 30
0.0
 40
0.999999999998387
210
0.0
220
-0.0000000000000002
230
-1.0
 50
179.9999999999953957
 51
187.1250163489087015
  0
LINE
  5
2E95E
  8
0
  6
VERDECKT
 62
     1
 10
-33.9123553973039478
 20
2.1984555753370101
 30
-0.0000000000000005
 11
-34.8922778767598203
 21
10.0378354109840604
 31
-0.0000000000000022
210
0.0
220
1.0
230
-0.0000000000000002
  0
LINE
  5
2E95F
  8
0
  6
VERDECKT
 62
     1
 10
33.9123553973039478
 20
2.198455575337007
 30
-0.0000000000000005
 11
34.8922778767598274
 21
10.0378354109840497
 31
-0.0000000000000022
210
0.0
220
1.0
230
-0.0000000000000002
  0
LINE
  5
2E960
  8
0
  6
VERDECKT
 62
     1
 10
34.9000000000461625
 20
60.0000000000000071
 30
-0.0000000000000133
 11
34.9000000000461625
 21
10.1618701455732605
 31
-0.0000000000000023
210
0.0
220
1.0
230
-0.0000000000000002
  0
LINE
  5
2E961
  8
0
  6
VERDECKT
 62
     1
 10
-34.9000000000461483
 20
60.0000000000000213
 30
-0.0000000000000133
 11
-34.9000000000461483
 21
10.1618701455732694
 31
-0.0000000000000023
210
0.0
220
1.0
230
-0.0000000000000002
  0
ARC
  5
2E962
  8
0
  6
VERDECKT
 62
     1
 10
35.50000000000162
 20
10.0622577482984106
 30
0.0
 40
0.9999999999983799
210
0.0
220
-0.0000000000000002
230
-1.0
 50
352.8749836510912132
 51
0.000000000004566
  0
ARC
  5
2E963
  8
0
  6
VERDECKT
 62
     1
 10
-35.50000000000162
 20
10.0622577482983999
 30
0.0
 40
0.9999999999983799
210
0.0
220
-0.0000000000000002
230
-1.0
 50
179.9999999999953957
 51
187.1250163489087868
  0
LINE
  5
2E964
  8
0
  6
VERDECKT
 62
     1
 10
36.5000000000000071
 20
60.0000000000000071
 30
-0.0000000000000133
 11
36.5000000000000071
 21
10.0622577482984799
 31
-0.0000000000000022
210
0.0
220
1.0
230
-0.0000000000000002
  0
LINE
  5
2E965
  8
0
  6
VERDECKT
 62
     1
 10
-36.4999999999999929
 20
60.0000000000000213
 30
-0.0000000000000133
 11
-36.4999999999999929
 21
10.0622577482984799
 31
-0.0000000000000022
210
0.0
220
1.0
230
-0.0000000000000002
  0
LINE
  5
2E966
  8
0
  6
VERDECKT
 62
     1
 10
-35.5000000000000071
 20
1.9999999999999969
 30
-0.0000000000000004
 11
-36.492277876713672
 21
9.9382230137092815
 31
-0.0000000000000022
210
0.0
220
1.0
230
-0.0000000000000002
  0
LINE
  5
2E967
  8
0
  6
VERDECKT
 62
     1
 10
35.5000000000000071
 20
1.999999999999998
 30
-0.0000000000000004
 11
36.492277876713672
 21
9.9382230137092744
 31
-0.0000000000000022
210
0.0
220
1.0
230
-0.0000000000000002
  0
LINE
  5
2E968
  8
0
  6
VERDECKT
 62
     1
 10
48.139268067351459
 20
80.0000000000000142
 30
-0.0000000000000178
 11
49.36493917630645
 21
78.9715398245312059
 31
-0.0000000000000175
210
0.0
220
1.0
230
-0.0000000000000002
  0
LINE
  5
2E969
  8
0
  6
VERDECKT
 62
     1
 10
-48.1392680673514306
 20
80.0000000000000284
 30
-0.0000000000000178
 11
-49.3649391763064287
 21
78.9715398245312201
 31
-0.0000000000000175
210
0.0
220
1.0
230
-0.0000000000000002
  0
LINE
  5
2E96A
  8
0
  6
VERDECKT
 62
     1
 10
-38.8395555688101979
 20
66.4278760968654041
 30
-0.0000000000000147
 11
-49.3649391763064287
 21
78.9715398245312343
 31
-0.0000000000000175
210
0.0
220
1.0
230
-0.0000000000000002
  0
LINE
  5
2E96B
  8
0
  6
VERDECKT
 62
     1
 10
38.8395555688102121
 20
66.4278760968654183
 30
-0.0000000000000147
 11
49.3649391763064429
 21
78.9715398245312201
 31
-0.0000000000000175
210
0.0
220
1.0
230
-0.0000000000000002
  0
ARC
  5
2E96C
  8
0
  6
VERDECKT
 62
     1
 10
46.4999999999999503
 20
60.0000000000000284
 30
0.0
 40
9.999999999999968
210
0.0
220
-0.0000000000000002
230
-1.0
 50
140.0
 51
180.0
  0
ARC
  5
2E96D
  8
0
  6
VERDECKT
 62
     1
 10
-46.4999999999999716
 20
60.0000000000000071
 30
0.0
 40
9.9999999999999787
210
0.0
220
-0.0000000000000002
230
-1.0
 50
0.0
 51
40.0000000000000924
  0
LINE
  5
2E96E
  8
0
  6
VERDECKT
 62
     1
 10
33.9123553973039478
 20
2.1984555753369981
 30
-0.0000000000000005
 11
35.5000000000000071
 21
1.99999999999999
 31
-0.0000000000000004
210
0.0
220
1.0
230
-0.0000000000000002
  0
LINE
  5
2E96F
  8
0
  6
VERDECKT
 62
     1
 10
-33.9123553973039478
 20
2.1984555753370061
 30
-0.0000000000000005
 11
-35.5000000000000071
 21
1.999999999999998
 31
-0.0000000000000004
210
0.0
220
1.0
230
-0.0000000000000002
  0
ARC
  5
2E970
  8
0
  6
VERDECKT
 62
     1
 10
46.4999999999999005
 20
60.0000000000000426
 30
0.0
 40
11.5999999999537593
210
0.0
220
-0.0000000000000002
230
-1.0
 50
139.999999999999801
 51
180.0
  0
ARC
  5
2E971
  8
0
  6
VERDECKT
 62
     1
 10
-46.4999999999999716
 20
60.0
 30
0.0
 40
11.5999999999538108
210
0.0
220
-0.0000000000000002
230
-1.0
 50
0.0
 51
40.0000000000001279
  0
LINE
  5
2E972
  8
0
  6
VERDECKT
 62
     1
 10
-37.6138844598551998
 20
67.4563362723341982
 30
-0.000000000000015
 11
-48.1392680673514306
 21
80.0000000000000142
 31
-0.0000000000000178
210
0.0
220
1.0
230
-0.0000000000000002
  0
LINE
  5
2E973
  8
0
  6
VERDECKT
 62
     1
 10
37.6138844598552211
 20
67.4563362723341982
 30
-0.000000000000015
 11
48.1392680673514377
 21
80.0000000000000142
 31
-0.0000000000000178
210
0.0
220
1.0
230
-0.0000000000000002
  0
LINE
  5
2E974
  8
0
  6
VERDECKT
 62
     1
 10
-59.0
 20
130.0
 30
-0.0000000000000289
 11
-59.0
 21
140.0
 31
-0.0000000000000311
210
0.0
220
1.0
230
-0.0000000000000002
  0
LINE
  5
2E975
  8
0
  6
VERDECKT
 62
     1
 10
59.0
 20
130.0
 30
-0.0000000000000289
 11
59.0
 21
140.0
 31
-0.0000000000000311
210
0.0
220
1.0
230
-0.0000000000000002
  0
ARC
  5
2E976
  8
0
  6
VERDECKT
 62
     1
 10
-49.0000000000000213
 20
130.0
 30
0.0
 40
10.0
210
0.0
220
-0.0000000000000002
230
-1.0
 50
180.0
 51
216.2276315512455938
  0
ARC
  5
2E977
  8
0
  6
VERDECKT
 62
     1
 10
49.0000000000000213
 20
130.0
 30
0.0
 40
10.0
210
0.0
220
-0.0000000000000002
230
-1.0
 50
323.7723684487543778
 51
0.0000000000000064
  0
LINE
  5
2E978
  8
0
  6
VERDECKT
 62
     1
 10
-51.723232993009411
 20
116.7964397958055969
 30
-0.0000000000000259
 11
-57.0667539191222772
 21
124.0900523514733038
 31
-0.0000000000000276
210
0.0
220
1.0
230
-0.0000000000000002
  0
LINE
  5
2E979
  8
0
  6
VERDECKT
 62
     1
 10
51.723232993009411
 20
116.7964397958055969
 30
-0.0000000000000259
 11
57.0667539191222772
 21
124.0900523514733038
 31
-0.0000000000000276
210
0.0
220
1.0
230
-0.0000000000000002
  0
ARC
  5
2E97A
  8
0
  6
VERDECKT
 62
     1
 10
-61.0000000000000284
 20
110.0
 30
0.0
 40
11.5000000000000107
210
0.0
220
-0.0000000000000002
230
-1.0
 50
0.0
 51
36.2276315512453735
  0
ARC
  5
2E97B
  8
0
  6
VERDECKT
 62
     1
 10
61.0000000000000782
 20
110.0
 30
0.0
 40
11.5000000000000604
210
0.0
220
-0.0000000000000002
230
-1.0
 50
143.7723684487546905
 51
179.9999999999998863
  0
LINE
  5
2E97C
  8
0
  6
VERDECKT
 62
     1
 10
-49.5000000000000071
 20
0.0
 30
0.0
 11
-49.5000000000000071
 21
110.0
 31
-0.0000000000000244
210
0.0
220
1.0
230
-0.0000000000000002
  0
LINE
  5
2E97D
  8
0
  6
VERDECKT
 62
     1
 10
49.5000000000000071
 20
0.0
 30
0.0
 11
49.5000000000000071
 21
110.0
 31
-0.0000000000000244
210
0.0
220
1.0
230
-0.0000000000000002
  0
ENDBLK
  5
2E97F
  8
0
  0
BLOCK
  8
0
  2
A$CA41A4270
 70
     0
 10
0.0
 20
0.0
 30
0.0
  3
A$CA41A4270
  1

  0
CIRCLE
  5
2E983
  8
0
  6
CONTINUOUS
 62
     3
 10
0.0000000000000005
 20
0.0
 30
0.0
 40
33.9123553973039478
  0
CIRCLE
  5
2E984
  8
0
  6
CONTINUOUS
 62
     3
 10
0.0000000000000199
 20
0.0
 30
0.0
 40
34.9000000000461625
  0
CIRCLE
  5
2E985
  8
0
  6
CONTINUOUS
 62
     3
 10
0.0000000000000263
 20
0.0
 30
0.0
 40
49.3649391763064287
  0
CIRCLE
  5
2E986
  8
0
  6
CONTINUOUS
 62
     3
 10
0.0000000000000266
 20
0.0
 30
0.0
 40
48.1392680673514306
  0
CIRCLE
  5
2E987
  8
0
  6
CONTINUOUS
 62
     3
 10
0.0000000000000311
 20
0.0
 30
0.0
 40
60.5
  0
CIRCLE
  5
2E988
  8
0
  6
CONTINUOUS
 62
     3
 10
0.0000000000000311
 20
0.0
 30
0.0
 40
59.0
  0
CIRCLE
  5
2E989
  8
0
  6
CONTINUOUS
 62
     3
 10
0.0000000000000244
 20
0.0
 30
0.0
 40
49.5000000000000071
  0
CIRCLE
  5
2E98A
  8
0
  6
VERDECKT
 62
     1
 10
0.0000000000000199
 20
0.0
 30
0.0
 40
36.4999999999999929
  0
CIRCLE
  5
2E98B
  8
0
  6
VERDECKT
 62
     1
 10
0.0000000000000004
 20
0.0
 30
0.0
 40
35.5000000000000071
  0
CIRCLE
  5
2E98C
  8
0
  6
VERDECKT
 62
     1
 10
0.0000000000000244
 20
0.0
 30
0.0
 40
51.0000000000000071
  0
ENDBLK
  5
2E98E
  8
0
  0
ENDSEC
  0
SECTION
  2
ENTITIES
  0
INSERT
  5
712A
  8
ADSK_ASSOC_ENTITY_BACKUPS
  2
*S0
 10
0.0
 20
0.0
 30
0.0
  0
INSERT
  5
2E980
  8
STEMPEL
  2
A$CE626578C
 10
0.0
 20
0.0
 30
0.0
  0
INSERT
  5
2E98F
  8
STEMPEL
  2
A$CA41A4270
 10
0.0
 20
-100.0
 30
0.0
  0
VIEWPORT
  5
7108
 67
     1
  8
0
 10
148.249999112936905
 20
209.7499997324339915
 30
0.0
 40
794.6646426651739148
 41
421.8142306798708887
 68
     1
 69
     1
1001
ACAD
1000
MVIEW
1002
{
1070
    16
1010
0.0
1020
0.0
1030
0.0
1010
0.0
1020
0.0
1030
1.0
1040
0.0
1040
421.8142306798708887
1040
148.249999112936905
1040
209.7499997324339915
1040
50.0
1040
0.0
1040
0.0
1070
     0
1070
  1500
1070
     1
1070
     1
1070
     0
1070
     0
1070
     0
1070
     0
1040
0.0
1040
0.0
1040
0.0
1040
10.0
1040
10.0
1040
10.0
1040
10.0
1070
     0
1002
{
1002
}
1002
}
  0
ENDSEC
  0
EOF
