  0
SECTION
  2
HEADER
  9
$ACADVER
  1
AC1009
  9
$INSBASE
 10
0.0
 20
0.0
 30
0.0
  9
$EXTMIN
 10
-51.7874857450328818
 20
-150.8740117765078992
 30
-0.004272134979658
  9
$EXTMAX
 10
50.8722017173286076
 20
140.0304756238712116
 30
0.0064088543950902
  9
$LIMMIN
 10
0.0
 20
0.0
  9
$LIMMAX
 10
296.9999999999998863
 20
420.0000000000001137
  9
$ORTHOMODE
 70
     1
  9
$REGENMODE
 70
     1
  9
$FILLMODE
 70
     1
  9
$QTEXTMODE
 70
     0
  9
$MIRRTEXT
 70
     1
  9
$DRAGMODE
 70
     2
  9
$LTSCALE
 40
10.0
  9
$OSMODE
 70
   511
  9
$ATTMODE
 70
     1
  9
$TEXTSIZE
 40
3.5
  9
$TRACEWID
 40
0.5
  9
$TEXTSTYLE
  7
STANDARD
  9
$CLAYER
  8
STEMPEL
  9
$CELTYPE
  6
BYLAYER
  9
$CECOLOR
 62
   256
  9
$DIMSCALE
 40
1.0
  9
$DIMASZ
 40
3.5
  9
$DIMEXO
 40
1.0
  9
$DIMDLI
 40
0.38
  9
$DIMRND
 40
0.0
  9
$DIMDLE
 40
0.0
  9
$DIMEXE
 40
1.0
  9
$DIMTP
 40
0.0
  9
$DIMTM
 40
0.000000001
  9
$DIMTXT
 40
3.5
  9
$DIMCEN
 40
0.09
  9
$DIMTSZ
 40
0.0
  9
$DIMTOL
 70
     0
  9
$DIMLIM
 70
     0
  9
$DIMTIH
 70
     0
  9
$DIMTOH
 70
     0
  9
$DIMSE1
 70
     0
  9
$DIMSE2
 70
     0
  9
$DIMTAD
 70
     1
  9
$DIMZIN
 70
     8
  9
$DIMBLK
  1

  9
$DIMASO
 70
     1
  9
$DIMSHO
 70
     0
  9
$DIMPOST
  1

  9
$DIMAPOST
  1

  9
$DIMALT
 70
     0
  9
$DIMALTD
 70
     2
  9
$DIMALTF
 40
25.3999999999999986
  9
$DIMLFAC
 40
1.0
  9
$DIMTOFL
 70
     1
  9
$DIMTVP
 40
0.0
  9
$DIMTIX
 70
     0
  9
$DIMSOXD
 70
     0
  9
$DIMSAH
 70
     0
  9
$DIMBLK1
  1

  9
$DIMBLK2
  1

  9
$DIMSTYLE
  2
LORO
  9
$DIMCLRD
 70
     0
  9
$DIMCLRE
 70
     0
  9
$DIMCLRT
 70
     1
  9
$DIMTFAC
 40
0.5
  9
$DIMGAP
 40
1.5
  9
$LUNITS
 70
     2
  9
$LUPREC
 70
     2
  9
$SKETCHINC
 40
1.0
  9
$FILLETRAD
 40
0.0
  9
$AUNITS
 70
     0
  9
$AUPREC
 70
     0
  9
$MENU
  1
ACAD
  9
$ELEVATION
 40
0.0
  9
$PELEVATION
 40
0.0
  9
$THICKNESS
 40
0.0
  9
$LIMCHECK
 70
     0
  9
$BLIPMODE
 70
     0
  9
$CHAMFERA
 40
0.0
  9
$CHAMFERB
 40
0.0
  9
$SKPOLY
 70
     0
  9
$TDCREATE
 40
2451337.6017592591233552
  9
$TDUPDATE
 40
2460333.5764004630036652
  9
$TDINDWG
 40
0.6852839352
  9
$TDUSRTIMER
 40
0.6852839352
  9
$USRTIMER
 70
     1
  9
$ANGBASE
 50
0.0
  9
$ANGDIR
 70
     0
  9
$PDMODE
 70
     0
  9
$PDSIZE
 40
0.0
  9
$PLINEWID
 40
0.0
  9
$COORDS
 70
     1
  9
$SPLFRAME
 70
     0
  9
$SPLINETYPE
 70
     6
  9
$SPLINESEGS
 70
     8
  9
$ATTDIA
 70
     1
  9
$ATTREQ
 70
     1
  9
$HANDLING
 70
     1
  9
$HANDSEED
  5
5147
  9
$SURFTAB1
 70
     6
  9
$SURFTAB2
 70
     6
  9
$SURFTYPE
 70
     6
  9
$SURFU
 70
     6
  9
$SURFV
 70
     6
  9
$UCSNAME
  2

  9
$UCSORG
 10
0.0
 20
0.0
 30
0.0
  9
$UCSXDIR
 10
1.0
 20
0.0
 30
0.0
  9
$UCSYDIR
 10
0.0
 20
1.0
 30
0.0
  9
$PUCSNAME
  2

  9
$PUCSORG
 10
0.0
 20
0.0
 30
0.0
  9
$PUCSXDIR
 10
1.0
 20
0.0
 30
0.0
  9
$PUCSYDIR
 10
0.0
 20
1.0
 30
0.0
  9
$USERI1
 70
     0
  9
$USERI2
 70
     0
  9
$USERI3
 70
     0
  9
$USERI4
 70
     0
  9
$USERI5
 70
     0
  9
$USERR1
 40
0.0
  9
$USERR2
 40
0.0
  9
$USERR3
 40
0.0
  9
$USERR4
 40
0.0
  9
$USERR5
 40
0.0
  9
$WORLDVIEW
 70
     1
  9
$SHADEDGE
 70
     3
  9
$SHADEDIF
 70
    70
  9
$TILEMODE
 70
     1
  9
$MAXACTVP
 70
    16
  9
$PLIMCHECK
 70
     0
  9
$PEXTMIN
 10
1.0000000000000000E+20
 20
1.0000000000000000E+20
 30
1.0000000000000000E+20
  9
$PEXTMAX
 10
-1.0000000000000000E+20
 20
-1.0000000000000000E+20
 30
-1.0000000000000000E+20
  9
$PLIMMIN
 10
-0.2395012616179883
 20
-0.2499990221112966
  9
$PLIMMAX
 10
296.7604987383820117
 20
419.7500009778885897
  9
$UNITMODE
 70
     0
  9
$VISRETAIN
 70
     0
  9
$PLINEGEN
 70
     0
  9
$PSLTSCALE
 70
     0
  0
ENDSEC
  0
SECTION
  2
TABLES
  0
TABLE
  2
VPORT
 70
     1
  0
VPORT
  2
*ACTIVE
 70
     0
 10
0.0
 20
0.0
 11
1.0
 21
1.0
 12
-0.4576420138521656
 22
-49.9985407661376868
 13
0.0
 23
0.0
 14
1.0
 24
1.0
 15
10.0
 25
10.0
 16
-0.0000000000001237
 26
0.0
 36
556.9857132505885602
 17
0.0
 27
44.5767726898193288
 37
-0.0000000000000155
 40
292.3937106092631097
 41
1.8720136518771331
 42
50.0
 43
0.0
 44
0.0
 50
0.0
 51
0.0
 71
     0
 72
  1500
 73
     1
 74
     0
 75
     0
 76
     0
 77
     0
 78
     0
  0
ENDTAB
  0
TABLE
  2
LTYPE
 70
     3
  0
LTYPE
  2
CONTINUOUS
 70
     0
  3
Solid line
 72
    65
 73
     0
 40
0.0
  0
LTYPE
  2
STRICHPUNKT
 70
     0
  3
__ . __ . __ . __ . __ . __ . __ . __ . __ . __
 72
    65
 73
     4
 40
1.0
 49
0.5
 49
-0.25
 49
0.0
 49
-0.25
  0
LTYPE
  2
VERDECKT
 70
     0
  3
Verdeckt __ __ __ __ __ __ __ __ __ __ __ __ __
 72
    65
 73
     2
 40
0.375
 49
0.25
 49
-0.125
  0
ENDTAB
  0
TABLE
  2
LAYER
 70
     6
  0
LAYER
  2
0
 70
     0
 62
     7
  6
CONTINUOUS
  0
LAYER
  2
VOLL
 70
     0
 62
     1
  6
CONTINUOUS
  0
LAYER
  2
STEMPEL
 70
     0
 62
     3
  6
CONTINUOUS
  0
LAYER
  2
ADSK_ASSOC_ENTITY_BACKUPS
 70
     1
 62
    -7
  6
CONTINUOUS
  0
ENDTAB
  0
TABLE
  2
STYLE
 70
     2
  0
STYLE
  2
STANDARD
 70
     0
 40
0.0
 41
0.8
 50
0.0
 71
     0
 42
3.5
  3
simplex.shx
  4

  0
STYLE
  2
GREEKS
 70
     0
 40
0.0
 41
0.8
 50
0.0
 71
     0
 42
2.5
  3
SIMPLEX.shx
  4

  0
ENDTAB
  0
TABLE
  2
VIEW
 70
     0
  0
ENDTAB
  0
TABLE
  2
UCS
 70
     0
  0
ENDTAB
  0
TABLE
  2
APPID
 70
    25
  0
APPID
  2
ACAD
 70
     0
  0
APPID
  2
ACAD_EXEMPT_FROM_CAD_STANDARDS
 70
     0
  0
APPID
  2
ACAD_NAV_VCDISPLAY
 70
     0
  0
APPID
  2
ACAD_PSEXT
 70
     0
  0
APPID
  2
ACAECLAYERSTANDARD
 70
     0
  0
APPID
  2
ACCMTRANSPARENCY
 70
     0
  0
APPID
  2
ACAD_MLEADERVER
 70
     0
  0
APPID
  2
ACAD_OBJECT_CHANGE_GUID
 70
     0
  0
APPID
  2
ACDBDYNAMICBLOCKGUID
 70
     0
  0
APPID
  2
ACSYNERGY
 70
     0
  0
APPID
  2
SYNERGY_BODY_TBR_ID
 70
     0
  0
APPID
  2
ACAD_VIEW_EDGE_ID
 70
     0
  0
APPID
  2
ACAD_DSTYLE_DIMJAG
 70
     0
  0
APPID
  2
ACAD_DSTYLE_DIMBREAK
 70
     0
  0
APPID
  2
ACAD_DSTYLE_DIMTALN
 70
     0
  0
APPID
  2
ACAD_STEPID
 70
     0
  0
APPID
  2
ACSYNERGYSKETCH
 70
     0
  0
APPID
  2
ACAD_MODELDOC_XFORM
 70
     0
  0
APPID
  2
ACADANNOMONITORALERTICONDI
 70
     0
  0
APPID
  2
ACADANNOPO
 70
     0
  0
APPID
  2
ACAD_DIMASSOC_CALC_DIMLFAC
 70
     0
  0
APPID
  2
ACAD_DIMASSOC_DIMLFAC
 70
     0
  0
APPID
  2
ACAD_DIMASSOC_OVERRIDDEN_D
 70
     0
  0
APPID
  2
ACAD_DSTYLE_DIMRADIAL_EXTENSION
 70
     0
  0
APPID
  2
ACADANNOTATIVE
 70
     0
  0
ENDTAB
  0
TABLE
  2
DIMSTYLE
 70
     3
  0
DIMSTYLE
  2
LORO
 70
     0
  3

  4

  5

  6

  7

 40
1.0
 41
3.5
 42
1.0
 43
0.38
 44
1.0
 45
0.0
 46
0.0
 47
0.0
 48
0.000000001
140
3.5
141
0.09
142
0.0
143
25.3999999999999986
144
1.0
145
0.0
146
0.5
147
1.5
 71
     0
 72
     0
 73
     0
 74
     0
 75
     0
 76
     0
 77
     1
 78
     8
170
     0
171
     2
172
     1
173
     0
174
     0
175
     0
176
     0
177
     0
178
     1
  0
ENDTAB
  0
ENDSEC
  0
SECTION
  2
BLOCKS
  0
BLOCK
  8
0
  2
$MODEL_SPACE
 70
     0
 10
0.0
 20
0.0
 30
0.0
  3
$MODEL_SPACE
  1

  0
ENDBLK
  5
36
  8
0
  0
BLOCK
 67
     1
  8
0
  2
$PAPER_SPACE
 70
     0
 10
0.0
 20
0.0
 30
0.0
  3
$PAPER_SPACE
  1

  0
ENDBLK
  5
34
 67
     1
  8
0
  0
BLOCK
  8
0
  2
*S0
 70
     1
 10
0.0
 20
0.0
 30
0.0
  3
*S0
  1

  0
ENDBLK
  5
2548
  8
0
  0
BLOCK
  8
0
  2
A$CFF62FD0B
 70
     0
 10
0.0
 20
0.0
 30
0.0
  3
A$CFF62FD0B
  1

  0
CIRCLE
  5
50AB
  8
0
  6
CONTINUOUS
 62
     3
 10
-0.000000000000009
 20
0.0000000000000001
 30
0.0
 40
24.5074442146850302
  0
CIRCLE
  5
50AC
  8
0
  6
CONTINUOUS
 62
     3
 10
-0.000000000000036
 20
0.0000000000000119
 30
0.0
 40
43.1500000000000128
  0
CIRCLE
  5
50AD
  8
0
  6
CONTINUOUS
 62
     3
 10
-0.0000000000000351
 20
0.0000000000000107
 30
0.0
 40
24.9999999999999787
  0
CIRCLE
  5
50AE
  8
0
  6
CONTINUOUS
 62
     3
 10
-0.000000000000036
 20
0.0000000000000119
 30
0.0
 40
42.6513784936070905
  0
CIRCLE
  5
50AF
  8
0
  6
CONTINUOUS
 62
     3
 10
-0.0000000000000363
 20
0.0000000000000135
 30
0.0
 40
49.25
  0
CIRCLE
  5
50B0
  8
0
  6
CONTINUOUS
 62
     3
 10
-0.0000000000000363
 20
0.0000000000000135
 30
0.0
 40
50.8500000000000014
  0
CIRCLE
  5
50B1
  8
0
  6
VERDECKT
 62
     1
 10
-0.000000000000009
 20
0.0000000000000001
 30
0.0
 40
26.0000000000000107
  0
CIRCLE
  5
50B2
  8
0
  6
VERDECKT
 62
     1
 10
-0.0000000000000351
 20
0.0000000000000107
 30
0.0
 40
26.5000000000000213
  0
CIRCLE
  5
50B3
  8
0
  6
VERDECKT
 62
     1
 10
-0.0000000000000337
 20
0.0000000000000116
 30
0.0
 40
42.9000000000000625
  0
CIRCLE
  5
50B4
  8
0
  6
VERDECKT
 62
     1
 10
-0.0000000000000337
 20
0.0000000000000116
 30
0.0
 40
44.5000000000000568
  0
ENDBLK
  5
50B6
  8
0
  0
BLOCK
  8
0
  2
A$C781D2E2F
 70
     0
 10
0.0
 20
0.0
 30
0.0
  3
A$C781D2E2F
  1

  0
LINE
  5
50BA
  8
0
  6
CONTINUOUS
 62
     3
 10
-44.5000000000000568
 20
-0.0000000000000284
 30
0.0
 11
44.5000000000000071
 21
0.0000000000000284
 31
0.0
210
0.0
220
1.0
230
-0.0000000000000002
  0
LINE
  5
50BB
  8
0
  6
CONTINUOUS
 62
     3
 10
-50.8500000000000725
 20
140.0000000000001137
 30
-0.0000000000000311
 11
50.8499999999999304
 21
140.0000000000001137
 31
-0.0000000000000311
210
0.0
220
1.0
230
-0.0000000000000002
  0
LINE
  5
50BC
  8
0
  6
CONTINUOUS
 62
     3
 10
50.8499999999999304
 20
140.0
 30
-0.0000000000000311
 11
50.8499999999999304
 21
134.0
 31
-0.0000000000000298
210
0.0
220
1.0
230
-0.0000000000000002
  0
LINE
  5
50BD
  8
0
  6
CONTINUOUS
 62
     3
 10
-50.8500000000000725
 20
140.0
 30
-0.0000000000000311
 11
-50.8500000000000725
 21
134.0
 31
-0.0000000000000298
210
0.0
220
1.0
230
-0.0000000000000002
  0
ARC
  5
50BE
  8
0
  6
CONTINUOUS
 62
     3
 10
34.2499999999998579
 20
134.0000000000001137
 30
0.0
 40
16.600000000000211
210
0.0
220
-0.0000000000000002
230
-1.0
 50
340.1597924204239121
 51
359.9999999999997726
  0
ARC
  5
50BF
  8
0
  6
CONTINUOUS
 62
     3
 10
-34.2500000000001279
 20
134.0
 30
0.0
 40
16.5999999999998096
210
0.0
220
-0.0000000000000002
230
-1.0
 50
179.9999999999998863
 51
199.8402075795760879
  0
LINE
  5
50C0
  8
0
  6
CONTINUOUS
 62
     3
 10
-45.6871434721815106
 20
116.7879620847286049
 30
-0.0000000000000259
 11
-49.8646709180894874
 21
128.3659914696752082
 31
-0.0000000000000285
210
0.0
220
1.0
230
-0.0000000000000002
  0
LINE
  5
50C1
  8
0
  6
CONTINUOUS
 62
     3
 10
45.6871434721813898
 20
116.7879620847286049
 30
-0.0000000000000259
 11
49.8646709180893595
 21
128.3659914696752935
 31
-0.0000000000000285
210
0.0
220
1.0
230
-0.0000000000000002
  0
ARC
  5
50C2
  8
0
  6
CONTINUOUS
 62
     3
 10
64.4999999999998153
 20
110.0000000000000995
 30
0.0
 40
19.9999999999997016
210
0.0
220
-0.0000000000000002
230
-1.0
 50
160.1597924204237131
 51
180.0
  0
ARC
  5
50C3
  8
0
  6
CONTINUOUS
 62
     3
 10
-64.5000000000000853
 20
110.0
 30
0.0
 40
20.0000000000000995
210
0.0
220
-0.0000000000000002
230
-1.0
 50
359.9999999999998863
 51
19.8402075795759387
  0
LINE
  5
50C4
  8
0
  6
CONTINUOUS
 62
     3
 10
44.4999999999999716
 20
110.0
 30
-0.0000000000000244
 11
44.5000000000000071
 21
0.0000000000000284
 31
0.0
210
0.0
220
1.0
230
-0.0000000000000002
  0
LINE
  5
50C5
  8
0
  6
CONTINUOUS
 62
     3
 10
-44.5000000000000924
 20
110.0
 30
-0.0000000000000244
 11
-44.5000000000000497
 21
-0.0000000000000142
 31
0.0
210
0.0
220
1.0
230
-0.0000000000000002
  0
LINE
  5
50C6
  8
0
  6
VERDECKT
 62
     1
 10
-26.0000000000000284
 20
2.000000000000028
 30
-0.0000000000000004
 11
26.0
 21
2.000000000000028
 31
-0.0000000000000004
210
0.0
220
1.0
230
-0.0000000000000002
  0
LINE
  5
50C7
  8
0
  6
VERDECKT
 62
     1
 10
-24.5074442146850515
 20
2.1492555785314948
 30
-0.0000000000000005
 11
24.5074442146850195
 21
2.1492555785314948
 31
-0.0000000000000005
210
0.0
220
1.0
230
-0.0000000000000002
  0
LINE
  5
50C8
  8
0
  6
VERDECKT
 62
     1
 10
-43.1500000000000696
 20
113.5852998220957062
 30
-0.0000000000000252
 11
43.1499999999999488
 21
113.5852998220957062
 31
-0.0000000000000252
210
0.0
220
1.0
230
-0.0000000000000002
  0
LINE
  5
50C9
  8
0
  6
VERDECKT
 62
     1
 10
-42.6513784936071403
 20
115.0
 30
-0.0000000000000255
 11
42.6513784936070124
 21
115.0
 31
-0.0000000000000255
210
0.0
220
1.0
230
-0.0000000000000002
  0
ARC
  5
50CA
  8
0
  6
VERDECKT
 62
     1
 10
25.5000000000007603
 20
7.0498756211209894
 30
0.0
 40
0.9999999999992859
210
0.0
220
-0.0000000000000002
230
-1.0
 50
354.289406862497799
 51
0.0000000000013358
  0
ARC
  5
50CB
  8
0
  6
VERDECKT
 62
     1
 10
-25.5000000000003304
 20
7.0498756211210107
 30
0.0
 40
0.9999999999996589
210
0.0
220
-0.0000000000000002
230
-1.0
 50
179.9999999999986926
 51
185.7105931375010925
  0
LINE
  5
50CC
  8
0
  6
VERDECKT
 62
     1
 10
-26.0000000000000213
 20
2.0000000000000209
 30
-0.0000000000000004
 11
-26.4950371902100201
 21
6.9503719021000183
 31
-0.0000000000000015
210
0.0
220
1.0
230
-0.0000000000000002
  0
LINE
  5
50CD
  8
0
  6
VERDECKT
 62
     1
 10
26.0
 20
2.0000000000000151
 30
-0.0000000000000004
 11
26.4950371902099917
 21
6.9503719021000183
 31
-0.0000000000000015
210
0.0
220
1.0
230
-0.0000000000000002
  0
LINE
  5
50CE
  8
0
  6
VERDECKT
 62
     1
 10
26.4999999999999609
 20
95.5000000000000426
 30
-0.0000000000000212
 11
26.4999999999999893
 21
7.0498756211210329
 31
-0.0000000000000016
210
0.0
220
1.0
230
-0.0000000000000002
  0
LINE
  5
50CF
  8
0
  6
VERDECKT
 62
     1
 10
-26.5000000000000711
 20
95.5000000000000426
 30
-0.0000000000000212
 11
-26.5000000000000497
 21
7.0498756211210054
 31
-0.0000000000000016
210
0.0
220
1.0
230
-0.0000000000000002
  0
LINE
  5
50D0
  8
0
  6
VERDECKT
 62
     1
 10
24.5074442146850195
 20
2.1492555785315162
 30
-0.0000000000000005
 11
26.0
 21
2.00000000000002
 31
-0.0000000000000004
210
0.0
220
1.0
230
-0.0000000000000002
  0
LINE
  5
50D1
  8
0
  6
VERDECKT
 62
     1
 10
-24.5074442146850409
 20
2.1492555785315028
 30
-0.0000000000000005
 11
-26.0000000000000213
 21
2.0000000000000071
 31
-0.0000000000000004
210
0.0
220
1.0
230
-0.0000000000000002
  0
LINE
  5
50D2
  8
0
  6
VERDECKT
 62
     1
 10
-24.5074442146850409
 20
2.1492555785314882
 30
-0.0000000000000005
 11
-25.0000000000000213
 21
7.0748134316812861
 31
-0.0000000000000016
210
0.0
220
1.0
230
-0.0000000000000002
  0
LINE
  5
50D3
  8
0
  6
VERDECKT
 62
     1
 10
24.5074442146850195
 20
2.1492555785315091
 30
-0.0000000000000005
 11
24.9999999999999893
 21
7.0748134316813083
 31
-0.0000000000000016
210
0.0
220
1.0
230
-0.0000000000000002
  0
LINE
  5
50D4
  8
0
  6
VERDECKT
 62
     1
 10
-39.3981168812238067
 20
112.2629209592714972
 30
-0.0000000000000249
 11
-43.1500000000000696
 21
113.5852998220957062
 31
-0.0000000000000252
210
0.0
220
1.0
230
-0.0000000000000002
  0
LINE
  5
50D5
  8
0
  6
VERDECKT
 62
     1
 10
39.3981168812236717
 20
112.2629209592714972
 30
-0.0000000000000249
 11
43.1499999999999488
 21
113.5852998220958057
 31
-0.0000000000000252
210
0.0
220
1.0
230
-0.0000000000000002
  0
ARC
  5
50D6
  8
0
  6
VERDECKT
 62
     1
 10
40.0629455564143484
 20
110.3766540553991007
 30
0.0
 40
1.999999999999994
210
0.0
220
-0.0000000000000002
230
-1.0
 50
109.4153816328301048
 51
135.0
  0
ARC
  5
50D7
  8
0
  6
VERDECKT
 62
     1
 10
-40.0629455564141423
 20
110.3766540553992996
 30
0.0
 40
1.999999999999845
210
0.0
220
-0.0000000000000002
230
-1.0
 50
44.9999999999991331
 51
70.5846183671709611
  0
LINE
  5
50D8
  8
0
  6
VERDECKT
 62
     1
 10
-29.4289321881345813
 20
102.5710678118655039
 30
-0.0000000000000228
 11
-38.6487319940412775
 21
111.7908676177721929
 31
-0.0000000000000248
210
0.0
220
1.0
230
-0.0000000000000002
  0
LINE
  5
50D9
  8
0
  6
VERDECKT
 62
     1
 10
29.4289321881344712
 20
102.5710678118655039
 30
-0.0000000000000228
 11
38.6487319940411496
 21
111.7908676177721929
 31
-0.0000000000000248
210
0.0
220
1.0
230
-0.0000000000000002
  0
ARC
  5
50DA
  8
0
  6
VERDECKT
 62
     1
 10
36.5000000000000568
 20
95.5000000000000142
 30
0.0
 40
9.9999999999999964
210
0.0
220
-0.0000000000000002
230
-1.0
 50
134.9999999999998863
 51
180.0
  0
ARC
  5
50DB
  8
0
  6
VERDECKT
 62
     1
 10
-36.4999999999999289
 20
95.5000000000000711
 30
0.0
 40
9.9999999999999787
210
0.0
220
-0.0000000000000002
230
-1.0
 50
359.9999999999997726
 51
44.9999999999999218
  0
LINE
  5
50DC
  8
0
  6
VERDECKT
 62
     1
 10
24.9999999999999396
 20
95.5000000000000426
 30
-0.0000000000000212
 11
24.9999999999999609
 21
7.0748134316813083
 31
-0.0000000000000016
210
0.0
220
1.0
230
-0.0000000000000002
  0
LINE
  5
50DD
  8
0
  6
VERDECKT
 62
     1
 10
-25.0000000000000497
 20
95.5000000000000426
 30
-0.0000000000000212
 11
-25.0000000000000284
 21
7.0748134316812941
 31
-0.0000000000000016
210
0.0
220
1.0
230
-0.0000000000000002
  0
ARC
  5
50DE
  8
0
  6
VERDECKT
 62
     1
 10
36.5000000000001279
 20
95.5
 30
0.0
 40
11.5000000000000799
210
0.0
220
-0.0000000000000002
230
-1.0
 50
135.0000000000001137
 51
179.9999999999996874
  0
ARC
  5
50DF
  8
0
  6
VERDECKT
 62
     1
 10
-36.4999999999999432
 20
95.5000000000000711
 30
0.0
 40
11.5
210
0.0
220
-0.0000000000000002
230
-1.0
 50
359.9999999999997726
 51
44.9999999999999787
  0
LINE
  5
50E0
  8
0
  6
VERDECKT
 62
     1
 10
-28.3682720163547408
 20
103.6317279836453054
 30
-0.000000000000023
 11
-37.5880718222613979
 21
112.8515277895518949
 31
-0.0000000000000251
210
0.0
220
1.0
230
-0.0000000000000002
  0
LINE
  5
50E1
  8
0
  6
VERDECKT
 62
     1
 10
28.3682720163546307
 20
103.6317279836453054
 30
-0.000000000000023
 11
37.58807182226127
 21
112.8515277895519944
 31
-0.0000000000000251
210
0.0
220
1.0
230
-0.0000000000000002
  0
ARC
  5
50E2
  8
0
  6
VERDECKT
 62
     1
 10
40.0629455564142702
 20
110.3766540553991007
 30
0.0
 40
3.499999999999917
210
0.0
220
-0.0000000000000002
230
-1.0
 50
109.4153816328297069
 51
135.0000000000003979
  0
ARC
  5
50E3
  8
0
  6
VERDECKT
 62
     1
 10
-40.0629455564140784
 20
110.3766540553992002
 30
0.0
 40
3.4999999999998019
210
0.0
220
-0.0000000000000002
230
-1.0
 50
44.9999999999991118
 51
70.5846183671707053
  0
LINE
  5
50E4
  8
0
  6
VERDECKT
 62
     1
 10
-38.8994953748308632
 20
113.6776211371757057
 30
-0.0000000000000252
 11
-42.6513784936071474
 21
115.0
 31
-0.0000000000000255
210
0.0
220
1.0
230
-0.0000000000000002
  0
LINE
  5
50E5
  8
0
  6
VERDECKT
 62
     1
 10
38.8994953748307211
 20
113.6776211371758052
 30
-0.0000000000000252
 11
42.6513784936070124
 21
115.0000000000000995
 31
-0.0000000000000255
210
0.0
220
1.0
230
-0.0000000000000002
  0
LINE
  5
50E6
  8
0
  6
VERDECKT
 62
     1
 10
42.6513784936070266
 20
115.0
 30
-0.0000000000000255
 11
43.1499999999999488
 21
113.5852998220957062
 31
-0.0000000000000252
210
0.0
220
1.0
230
-0.0000000000000002
  0
LINE
  5
50E7
  8
0
  6
VERDECKT
 62
     1
 10
-42.6513784936071616
 20
115.0
 30
-0.0000000000000255
 11
-43.1500000000000696
 21
113.5852998220957062
 31
-0.0000000000000252
210
0.0
220
1.0
230
-0.0000000000000002
  0
LINE
  5
50E8
  8
0
  6
VERDECKT
 62
     1
 10
42.8999999999999702
 20
110.0
 30
-0.0000000000000244
 11
42.8999999999999986
 21
0.0000000000000142
 31
0.0
210
0.0
220
1.0
230
-0.0000000000000002
  0
LINE
  5
50E9
  8
0
  6
VERDECKT
 62
     1
 10
-42.9000000000000767
 20
110.0
 30
-0.0000000000000244
 11
-42.9000000000000483
 21
-0.0000000000000142
 31
0.0
210
0.0
220
1.0
230
-0.0000000000000002
  0
ARC
  5
50EA
  8
0
  6
VERDECKT
 62
     1
 10
64.5000000000003695
 20
110.0
 30
0.0
 40
21.6000000000002501
210
0.0
220
-0.0000000000000002
230
-1.0
 50
160.159792420424111
 51
179.9999999999998863
  0
ARC
  5
50EB
  8
0
  6
VERDECKT
 62
     1
 10
-64.5000000000000142
 20
110.0
 30
0.0
 40
21.6000000000000298
210
0.0
220
-0.0000000000000002
230
-1.0
 50
359.9999999999998863
 51
19.8402075795759387
  0
LINE
  5
50EC
  8
0
  6
VERDECKT
 62
     1
 10
-44.1821149499560093
 20
117.3309990515068932
 30
-0.0000000000000261
 11
-48.3596423958639932
 21
128.9090284364534966
 31
-0.0000000000000286
210
0.0
220
1.0
230
-0.0000000000000002
  0
LINE
  5
50ED
  8
0
  6
VERDECKT
 62
     1
 10
44.1821149499558672
 20
117.3309990515068932
 30
-0.0000000000000261
 11
48.3596423958638724
 21
128.9090284364534966
 31
-0.0000000000000286
210
0.0
220
1.0
230
-0.0000000000000002
  0
ARC
  5
50EE
  8
0
  6
VERDECKT
 62
     1
 10
34.2499999999999005
 20
134.0
 30
0.0
 40
15.0000000000001492
210
0.0
220
-0.0000000000000002
230
-1.0
 50
340.1597924204239121
 51
359.9999999999998863
  0
ARC
  5
50EF
  8
0
  6
VERDECKT
 62
     1
 10
-34.2500000000001918
 20
134.0
 30
0.0
 40
14.9999999999997407
210
0.0
220
-0.0000000000000002
230
-1.0
 50
179.999999999999801
 51
199.8402075795762869
  0
LINE
  5
50F0
  8
0
  6
VERDECKT
 62
     1
 10
49.2499999999999289
 20
140.0
 30
-0.0000000000000311
 11
49.2499999999999289
 21
134.0
 31
-0.0000000000000298
210
0.0
220
1.0
230
-0.0000000000000002
  0
LINE
  5
50F1
  8
0
  6
VERDECKT
 62
     1
 10
-49.2500000000000568
 20
140.0
 30
-0.0000000000000311
 11
-49.2500000000000568
 21
134.0
 31
-0.0000000000000298
210
0.0
220
1.0
230
-0.0000000000000002
  0
ENDBLK
  5
50F3
  8
0
  0
ENDSEC
  0
SECTION
  2
ENTITIES
  0
TEXT
  5
8E
  8
VOLL
 10
78.076754716981128
 20
31.025947764705851
 30
0.0
 40
1.8
  1

  7
GREEKS
  0
INSERT
  5
254A
  8
ADSK_ASSOC_ENTITY_BACKUPS
  2
*S0
 10
0.0
 20
0.0
 30
0.0
  0
INSERT
  5
50B7
  8
STEMPEL
  2
A$CFF62FD0B
 10
0.0
 20
-100.0
 30
0.0
  0
INSERT
  5
50F4
  8
STEMPEL
  2
A$C781D2E2F
 10
0.0
 20
0.0
 30
0.0
  0
VIEWPORT
  5
228B
 67
     1
  8
0
 10
148.2604987383820117
 20
209.7500009778887033
 30
0.0
 40
790.2674510967764263
 41
422.1483375959078899
 68
     1
 69
     1
1001
ACAD
1000
MVIEW
1002
{
1070
    16
1010
0.0
1020
0.0
1030
0.0
1010
0.0
1020
0.0
1030
1.0
1040
0.0
1040
422.1483375959078899
1040
148.2604987383820117
1040
209.7500009778887033
1040
50.0
1040
0.0
1040
0.0
1070
     0
1070
  1500
1070
     1
1070
     1
1070
     0
1070
     0
1070
     0
1070
     0
1040
0.0
1040
0.0
1040
0.0
1040
10.0
1040
10.0
1040
10.0
1040
10.0
1070
     0
1002
{
1002
}
1002
}
  0
ENDSEC
  0
EOF
