  0
SECTION
  2
HEADER
  9
$ACADVER
  1
AC1009
  9
$INSBASE
 10
0.0
 20
0.0
 30
0.0
  9
$EXTMIN
 10
-61.9401499596764324
 20
-61.943903335408443
 30
-0.0042721349795443
  9
$EXTMAX
 10
61.9456291769789686
 20
220.0320343063567918
 30
0.006408854395147
  9
$LIMMIN
 10
0.0
 20
0.0
  9
$LIMMAX
 10
296.9999999999998863
 20
420.0000000000001137
  9
$ORTHOMODE
 70
     1
  9
$REGENMODE
 70
     1
  9
$FILLMODE
 70
     1
  9
$QTEXTMODE
 70
     0
  9
$MIRRTEXT
 70
     1
  9
$DRAGMODE
 70
     2
  9
$LTSCALE
 40
10.0
  9
$OSMODE
 70
   511
  9
$ATTMODE
 70
     1
  9
$TEXTSIZE
 40
3.5
  9
$TRACEWID
 40
0.5
  9
$TEXTSTYLE
  7
STANDARD
  9
$CLAYER
  8
STEMPEL
  9
$CELTYPE
  6
BYLAYER
  9
$CECOLOR
 62
   256
  9
$DIMSCALE
 40
1.0
  9
$DIMASZ
 40
3.5
  9
$DIMEXO
 40
1.0
  9
$DIMDLI
 40
0.38
  9
$DIMRND
 40
0.0
  9
$DIMDLE
 40
0.0
  9
$DIMEXE
 40
1.0
  9
$DIMTP
 40
0.0
  9
$DIMTM
 40
0.000000001
  9
$DIMTXT
 40
3.5
  9
$DIMCEN
 40
0.09
  9
$DIMTSZ
 40
0.0
  9
$DIMTOL
 70
     0
  9
$DIMLIM
 70
     0
  9
$DIMTIH
 70
     0
  9
$DIMTOH
 70
     0
  9
$DIMSE1
 70
     0
  9
$DIMSE2
 70
     0
  9
$DIMTAD
 70
     1
  9
$DIMZIN
 70
     8
  9
$DIMBLK
  1

  9
$DIMASO
 70
     1
  9
$DIMSHO
 70
     0
  9
$DIMPOST
  1

  9
$DIMAPOST
  1

  9
$DIMALT
 70
     0
  9
$DIMALTD
 70
     2
  9
$DIMALTF
 40
25.3999999999999986
  9
$DIMLFAC
 40
1.0
  9
$DIMTOFL
 70
     1
  9
$DIMTVP
 40
0.0
  9
$DIMTIX
 70
     0
  9
$DIMSOXD
 70
     0
  9
$DIMSAH
 70
     0
  9
$DIMBLK1
  1

  9
$DIMBLK2
  1

  9
$DIMSTYLE
  2
LORO
  9
$DIMCLRD
 70
     0
  9
$DIMCLRE
 70
     0
  9
$DIMCLRT
 70
     1
  9
$DIMTFAC
 40
0.5
  9
$DIMGAP
 40
1.5
  9
$LUNITS
 70
     2
  9
$LUPREC
 70
     2
  9
$SKETCHINC
 40
1.0
  9
$FILLETRAD
 40
0.0
  9
$AUNITS
 70
     0
  9
$AUPREC
 70
     0
  9
$MENU
  1
ACAD
  9
$ELEVATION
 40
0.0
  9
$PELEVATION
 40
0.0
  9
$THICKNESS
 40
0.0
  9
$LIMCHECK
 70
     0
  9
$BLIPMODE
 70
     0
  9
$CHAMFERA
 40
0.0
  9
$CHAMFERB
 40
0.0
  9
$SKPOLY
 70
     0
  9
$TDCREATE
 40
2451337.6017592591233552
  9
$TDUPDATE
 40
2459954.5626967591233552
  9
$TDINDWG
 40
0.547448287
  9
$TDUSRTIMER
 40
0.547448287
  9
$USRTIMER
 70
     1
  9
$ANGBASE
 50
0.0
  9
$ANGDIR
 70
     0
  9
$PDMODE
 70
     0
  9
$PDSIZE
 40
0.0
  9
$PLINEWID
 40
0.0
  9
$COORDS
 70
     1
  9
$SPLFRAME
 70
     0
  9
$SPLINETYPE
 70
     6
  9
$SPLINESEGS
 70
     8
  9
$ATTDIA
 70
     1
  9
$ATTREQ
 70
     1
  9
$HANDLING
 70
     1
  9
$HANDSEED
  5
42AA
  9
$SURFTAB1
 70
     6
  9
$SURFTAB2
 70
     6
  9
$SURFTYPE
 70
     6
  9
$SURFU
 70
     6
  9
$SURFV
 70
     6
  9
$UCSNAME
  2

  9
$UCSORG
 10
0.0
 20
0.0
 30
0.0
  9
$UCSXDIR
 10
1.0
 20
0.0
 30
0.0
  9
$UCSYDIR
 10
0.0
 20
1.0
 30
0.0
  9
$PUCSNAME
  2

  9
$PUCSORG
 10
0.0
 20
0.0
 30
0.0
  9
$PUCSXDIR
 10
1.0
 20
0.0
 30
0.0
  9
$PUCSYDIR
 10
0.0
 20
1.0
 30
0.0
  9
$USERI1
 70
     0
  9
$USERI2
 70
     0
  9
$USERI3
 70
     0
  9
$USERI4
 70
     0
  9
$USERI5
 70
     0
  9
$USERR1
 40
0.0
  9
$USERR2
 40
0.0
  9
$USERR3
 40
0.0
  9
$USERR4
 40
0.0
  9
$USERR5
 40
0.0
  9
$WORLDVIEW
 70
     1
  9
$SHADEDGE
 70
     3
  9
$SHADEDIF
 70
    70
  9
$TILEMODE
 70
     1
  9
$MAXACTVP
 70
    16
  9
$PLIMCHECK
 70
     0
  9
$PEXTMIN
 10
1.0000000000000000E+20
 20
1.0000000000000000E+20
 30
1.0000000000000000E+20
  9
$PEXTMAX
 10
-1.0000000000000000E+20
 20
-1.0000000000000000E+20
 30
-1.0000000000000000E+20
  9
$PLIMMIN
 10
-5.5177132616180407
 20
-5.2652080567718249
  9
$PLIMMAX
 10
291.4822867383819016
 20
414.7347919432281742
  9
$UNITMODE
 70
     0
  9
$VISRETAIN
 70
     0
  9
$PLINEGEN
 70
     0
  9
$PSLTSCALE
 70
     0
  0
ENDSEC
  0
SECTION
  2
TABLES
  0
TABLE
  2
VPORT
 70
     1
  0
VPORT
  2
*ACTIVE
 70
     0
 10
0.0
 20
0.0
 11
1.0
 21
1.0
 12
0.0027396086512397
 22
50.0065040688481872
 13
0.0
 23
0.0
 14
1.0
 24
1.0
 15
10.0
 25
10.0
 16
-0.0000000000001259
 26
0.0
 36
566.8570115329296186
 17
0.0
 27
29.0375614166259801
 37
-0.0000000000000133
 40
283.4182698036157149
 41
1.8720136518771331
 42
50.0
 43
0.0
 44
0.0
 50
0.0
 51
0.0
 71
     0
 72
  1500
 73
     1
 74
     0
 75
     0
 76
     0
 77
     0
 78
     0
  0
ENDTAB
  0
TABLE
  2
LTYPE
 70
     3
  0
LTYPE
  2
CONTINUOUS
 70
     0
  3
Solid line
 72
    65
 73
     0
 40
0.0
  0
LTYPE
  2
STRICHPUNKT
 70
     0
  3
__ . __ . __ . __ . __ . __ . __ . __ . __ . __
 72
    65
 73
     4
 40
1.0
 49
0.5
 49
-0.25
 49
0.0
 49
-0.25
  0
LTYPE
  2
VERDECKT
 70
     0
  3
Verdeckt __ __ __ __ __ __ __ __ __ __ __ __ __
 72
    65
 73
     2
 40
0.375
 49
0.25
 49
-0.125
  0
ENDTAB
  0
TABLE
  2
LAYER
 70
     6
  0
LAYER
  2
0
 70
     0
 62
     7
  6
CONTINUOUS
  0
LAYER
  2
VOLL
 70
     0
 62
     1
  6
CONTINUOUS
  0
LAYER
  2
STEMPEL
 70
     0
 62
     3
  6
CONTINUOUS
  0
LAYER
  2
ADSK_ASSOC_ENTITY_BACKUPS
 70
     1
 62
    -7
  6
CONTINUOUS
  0
ENDTAB
  0
TABLE
  2
STYLE
 70
     3
  0
STYLE
  2
STANDARD
 70
     0
 40
0.0
 41
0.8
 50
0.0
 71
     0
 42
3.5
  3
simplex.shx
  4

  0
STYLE
  2
GREEKS
 70
     0
 40
0.0
 41
0.8
 50
0.0
 71
     0
 42
2.5
  3
SIMPLEX.shx
  4

  0
ENDTAB
  0
TABLE
  2
VIEW
 70
     0
  0
ENDTAB
  0
TABLE
  2
UCS
 70
     0
  0
ENDTAB
  0
TABLE
  2
APPID
 70
    24
  0
APPID
  2
ACAD
 70
     0
  0
APPID
  2
ACAD_EXEMPT_FROM_CAD_STANDARDS
 70
     0
  0
APPID
  2
ACAD_NAV_VCDISPLAY
 70
     0
  0
APPID
  2
ACAD_PSEXT
 70
     0
  0
APPID
  2
ACAECLAYERSTANDARD
 70
     0
  0
APPID
  2
ACCMTRANSPARENCY
 70
     0
  0
APPID
  2
ACAD_MLEADERVER
 70
     0
  0
APPID
  2
ACAD_OBJECT_CHANGE_GUID
 70
     0
  0
APPID
  2
ACDBDYNAMICBLOCKGUID
 70
     0
  0
APPID
  2
ACSYNERGY
 70
     0
  0
APPID
  2
SYNERGY_BODY_TBR_ID
 70
     0
  0
APPID
  2
ACAD_VIEW_EDGE_ID
 70
     0
  0
APPID
  2
ACAD_DSTYLE_DIMJAG
 70
     0
  0
APPID
  2
ACAD_DSTYLE_DIMBREAK
 70
     0
  0
APPID
  2
ACAD_DSTYLE_DIMTALN
 70
     0
  0
APPID
  2
ACAD_STEPID
 70
     0
  0
APPID
  2
ACSYNERGYSKETCH
 70
     0
  0
APPID
  2
ACAD_MODELDOC_XFORM
 70
     0
  0
APPID
  2
ACADANNOMONITORALERTICONDI
 70
     0
  0
APPID
  2
ACADANNOPO
 70
     0
  0
APPID
  2
ACAD_DIMASSOC_CALC_DIMLFAC
 70
     0
  0
APPID
  2
ACAD_DIMASSOC_DIMLFAC
 70
     0
  0
APPID
  2
ACAD_DIMASSOC_OVERRIDDEN_D
 70
     0
  0
APPID
  2
ACAD_DSTYLE_DIMRADIAL_EXTENSION
 70
     0
  0
ENDTAB
  0
TABLE
  2
DIMSTYLE
 70
     1
  0
DIMSTYLE
  2
LORO
 70
     0
  3

  4

  5

  6

  7

 40
1.0
 41
3.5
 42
1.0
 43
0.38
 44
1.0
 45
0.0
 46
0.0
 47
0.0
 48
0.000000001
140
3.5
141
0.09
142
0.0
143
25.3999999999999986
144
1.0
145
0.0
146
0.5
147
1.5
 71
     0
 72
     0
 73
     0
 74
     0
 75
     0
 76
     0
 77
     1
 78
     8
170
     0
171
     2
172
     1
173
     0
174
     0
175
     0
176
     0
177
     0
178
     1
  0
ENDTAB
  0
ENDSEC
  0
SECTION
  2
BLOCKS
  0
BLOCK
  8
0
  2
$MODEL_SPACE
 70
     0
 10
0.0
 20
0.0
 30
0.0
  3
$MODEL_SPACE
  1

  0
ENDBLK
  5
36
  8
0
  0
BLOCK
 67
     1
  8
0
  2
$PAPER_SPACE
 70
     0
 10
0.0
 20
0.0
 30
0.0
  3
$PAPER_SPACE
  1

  0
ENDBLK
  5
34
 67
     1
  8
0
  0
BLOCK
  8
0
  2
*S0
 70
     1
 10
0.0
 20
0.0
 30
0.0
  3
*S0
  1

  0
ENDBLK
  5
2548
  8
0
  0
BLOCK
  8
0
  2
A$C63D29BAE
 70
     0
 10
0.0
 20
0.0
 30
0.0
  3
A$C63D29BAE
  1

  0
LINE
  5
41F6
  8
0
  6
CONTINUOUS
 62
     3
 10
-51.0000000000000213
 20
0.0000000000000018
 30
0.0
 11
51.0000000000000071
 21
0.0000000000000018
 31
0.0
210
0.0
220
1.0
230
-0.0000000000000002
  0
LINE
  5
41F7
  8
0
  6
CONTINUOUS
 62
     3
 10
-60.0
 20
120.0
 30
-0.0000000000000266
 11
60.0
 21
120.0
 31
-0.0000000000000266
210
0.0
220
1.0
230
-0.0000000000000002
  0
LINE
  5
41F8
  8
0
  6
CONTINUOUS
 62
     3
 10
-61.9291971455455865
 20
119.4725548619820046
 30
-0.0000000000000265
 11
61.9291971455455865
 21
119.4725548619820046
 31
-0.0000000000000265
210
0.0
220
1.0
230
-0.0000000000000002
  0
LINE
  5
41F9
  8
0
  6
CONTINUOUS
 62
     3
 10
51.0000000000000071
 20
50.0
 30
-0.0000000000000111
 11
51.0000000000000071
 21
0.0
 31
0.0
210
0.0
220
1.0
230
-0.0000000000000002
  0
LINE
  5
41FA
  8
0
  6
CONTINUOUS
 62
     3
 10
-51.0000000000000071
 20
50.0
 30
-0.0000000000000111
 11
-51.0000000000000071
 21
0.0000000000000071
 31
0.0
210
0.0
220
1.0
230
-0.0000000000000002
  0
LINE
  5
41FB
  8
0
  6
CONTINUOUS
 62
     3
 10
60.0
 20
120.0
 30
-0.0000000000000266
 11
61.9291971455455865
 21
119.4725548619820046
 31
-0.0000000000000265
210
0.0
220
1.0
230
-0.0000000000000002
  0
LINE
  5
41FC
  8
0
  6
CONTINUOUS
 62
     3
 10
-60.0
 20
120.0
 30
-0.0000000000000266
 11
-61.9291971455455865
 21
119.4725548619820046
 31
-0.0000000000000265
210
0.0
220
1.0
230
-0.0000000000000002
  0
LINE
  5
41FD
  8
0
  6
CONTINUOUS
 62
     3
 10
-61.2832114178176468
 20
117.1097805520717969
 30
-0.000000000000026
 11
-61.9291971455455794
 21
119.4725548619820046
 31
-0.0000000000000265
210
0.0
220
1.0
230
-0.0000000000000002
  0
LINE
  5
41FE
  8
0
  6
CONTINUOUS
 62
     3
 10
61.2832114178176468
 20
117.1097805520717969
 30
-0.000000000000026
 11
61.9291971455455794
 21
119.4725548619820046
 31
-0.0000000000000265
210
0.0
220
1.0
230
-0.0000000000000002
  0
ARC
  5
41FF
  8
0
  6
CONTINUOUS
 62
     3
 10
68.9999999999997442
 20
115.0000000000000995
 30
0.0
 40
7.9999999999997442
210
0.0
220
-0.0000000000000002
230
-1.0
 50
164.7089385448562098
 51
180.000000000000199
  0
ARC
  5
4200
  8
0
  6
CONTINUOUS
 62
     3
 10
-68.9999999999993605
 20
115.0000000000000995
 30
0.0
 40
7.9999999999993596
210
0.0
220
-0.0000000000000002
230
-1.0
 50
359.9999999999994884
 51
15.2910614551443
  0
LINE
  5
4201
  8
0
  6
CONTINUOUS
 62
     3
 10
61.0
 20
115.0
 30
-0.0000000000000255
 11
61.0
 21
112.0
 31
-0.0000000000000249
210
0.0
220
1.0
230
-0.0000000000000002
  0
LINE
  5
4202
  8
0
  6
CONTINUOUS
 62
     3
 10
-61.0
 20
115.0
 30
-0.0000000000000255
 11
-61.0
 21
112.0
 31
-0.0000000000000249
210
0.0
220
1.0
230
-0.0000000000000002
  0
ARC
  5
4203
  8
0
  6
CONTINUOUS
 62
     3
 10
49.0000000000001208
 20
112.0
 30
0.0
 40
11.9999999999998792
210
0.0
220
-0.0000000000000002
230
-1.0
 50
344.7089385448562098
 51
0.0
  0
ARC
  5
4204
  8
0
  6
CONTINUOUS
 62
     3
 10
-49.0000000000005116
 20
111.9999999999999005
 30
0.0
 40
11.9999999999994795
210
0.0
220
-0.0000000000000002
230
-1.0
 50
179.9999999999996021
 51
195.2910614551439039
  0
LINE
  5
4205
  8
0
  6
CONTINUOUS
 62
     3
 10
-59.283211417817661
 20
104.1097805520717969
 30
-0.0000000000000231
 11
-60.5751828732735191
 21
108.835329171892397
 31
-0.0000000000000242
210
0.0
220
1.0
230
-0.0000000000000002
  0
LINE
  5
4206
  8
0
  6
CONTINUOUS
 62
     3
 10
59.283211417817661
 20
104.1097805520717969
 30
-0.0000000000000231
 11
60.5751828732735191
 21
108.835329171892397
 31
-0.0000000000000242
210
0.0
220
1.0
230
-0.0000000000000002
  0
ARC
  5
4207
  8
0
  6
CONTINUOUS
 62
     3
 10
66.9999999999997442
 20
102.0
 30
0.0
 40
7.9999999999997442
210
0.0
220
-0.0000000000000002
230
-1.0
 50
164.7089385448562098
 51
180.000000000000199
  0
ARC
  5
4208
  8
0
  6
CONTINUOUS
 62
     3
 10
-66.9999999999993605
 20
102.0000000000000995
 30
0.0
 40
7.9999999999993596
210
0.0
220
-0.0000000000000002
230
-1.0
 50
359.9999999999994884
 51
15.2910614551443
  0
LINE
  5
4209
  8
0
  6
CONTINUOUS
 62
     3
 10
59.0
 20
102.0
 30
-0.0000000000000226
 11
59.0
 21
75.0000000000000142
 31
-0.0000000000000167
210
0.0
220
1.0
230
-0.0000000000000002
  0
LINE
  5
420A
  8
0
  6
CONTINUOUS
 62
     3
 10
-59.0
 20
102.0
 30
-0.0000000000000226
 11
-59.0
 21
75.0000000000000142
 31
-0.0000000000000167
210
0.0
220
1.0
230
-0.0000000000000002
  0
ARC
  5
420B
  8
0
  6
CONTINUOUS
 62
     3
 10
37.0000000000000497
 20
75.0000000000000142
 30
0.0
 40
21.9999999999999716
210
0.0
220
-0.0000000000000002
230
-1.0
 50
329.2798888954508811
 51
0.0
  0
ARC
  5
420C
  8
0
  6
CONTINUOUS
 62
     3
 10
-37.0000000000000497
 20
75.0000000000000142
 30
0.0
 40
21.9999999999999716
210
0.0
220
-0.0000000000000002
230
-1.0
 50
180.0
 51
210.7201111045490052
  0
LINE
  5
420D
  8
0
  6
CONTINUOUS
 62
     3
 10
-53.8065396896076322
 20
60.2168939778663486
 30
-0.0000000000000134
 11
-55.912806341431633
 21
63.7614166243470208
 31
-0.0000000000000142
210
0.0
220
1.0
230
-0.0000000000000002
  0
LINE
  5
420E
  8
0
  6
CONTINUOUS
 62
     3
 10
53.8065396896076322
 20
60.2168939778663486
 30
-0.0000000000000134
 11
55.912806341431633
 21
63.7614166243470208
 31
-0.0000000000000142
210
0.0
220
1.0
230
-0.0000000000000002
  0
ARC
  5
420F
  8
0
  6
CONTINUOUS
 62
     3
 10
70.9999999999999432
 20
50.0000000000000284
 30
0.0
 40
19.9999999999999396
210
0.0
220
-0.0000000000000002
230
-1.0
 50
149.2798888954509948
 51
180.0
  0
ARC
  5
4210
  8
0
  6
CONTINUOUS
 62
     3
 10
-70.9999999999999147
 20
50.0000000000000284
 30
0.0
 40
19.9999999999999112
210
0.0
220
-0.0000000000000002
230
-1.0
 50
0.0
 51
30.7201111045490691
  0
LINE
  5
4211
  8
0
  6
VERDECKT
 62
     1
 10
-49.3740368225885931
 20
60.0
 30
-0.0000000000000133
 11
49.3740368225885717
 21
60.0
 31
-0.0000000000000133
210
0.0
220
1.0
230
-0.0000000000000002
  0
LINE
  5
4212
  8
0
  6
VERDECKT
 62
     1
 10
-50.5442027451792626
 20
58.9088026239000229
 30
-0.0000000000000131
 11
50.5442027451792484
 21
58.9088026239000229
 31
-0.0000000000000131
210
0.0
220
1.0
230
-0.0000000000000002
  0
LINE
  5
4213
  8
0
  6
VERDECKT
 62
     1
 10
-35.7000000000000028
 20
2.0000000000000089
 30
-0.0000000000000004
 11
35.7000000000000028
 21
1.999999999999998
 31
-0.0000000000000004
210
0.0
220
1.0
230
-0.0000000000000002
  0
LINE
  5
4214
  8
0
  6
VERDECKT
 62
     1
 10
-34.1240150093808623
 20
2.276172607879932
 30
-0.0000000000000005
 11
34.1240150093808623
 21
2.2761726078799209
 31
-0.0000000000000005
210
0.0
220
1.0
230
-0.0000000000000002
  0
ARC
  5
4215
  8
0
  6
VERDECKT
 62
     1
 10
45.0000000000000071
 20
40.4999999999999929
 30
0.0
 40
8.5000000000000089
210
0.0
220
-0.0000000000000002
230
-1.0
 50
137.0
 51
179.999999999999801
  0
ARC
  5
4216
  8
0
  6
VERDECKT
 62
     1
 10
-45.0
 20
40.4999999999999929
 30
0.0
 40
8.5000000000000071
210
0.0
220
-0.0000000000000002
230
-1.0
 50
0.0000000000000509
 51
42.9999999999999574
  0
ARC
  5
4217
  8
0
  6
VERDECKT
 62
     1
 10
45.0000000000000213
 20
40.4999999999999929
 30
0.0
 40
10.1000000000000192
210
0.0
220
-0.0000000000000002
230
-1.0
 50
137.0
 51
179.999999999999801
  0
ARC
  5
4218
  8
0
  6
VERDECKT
 62
     1
 10
-44.9999999999999218
 20
40.5000000000000213
 30
0.0
 40
10.0999999999999392
210
0.0
220
-0.0000000000000002
230
-1.0
 50
359.9999999999998863
 51
43.0000000000000924
  0
LINE
  5
4219
  8
0
  6
VERDECKT
 62
     1
 10
-37.6133276136463692
 20
47.3881834366312304
 30
-0.0000000000000105
 11
-49.3740368225885931
 21
60.0
 31
-0.0000000000000133
210
0.0
220
1.0
230
-0.0000000000000002
  0
LINE
  5
421A
  8
0
  6
VERDECKT
 62
     1
 10
37.6133276136463621
 20
47.3881834366312304
 30
-0.0000000000000105
 11
49.3740368225885788
 21
60.0
 31
-0.0000000000000133
210
0.0
220
1.0
230
-0.0000000000000002
  0
LINE
  5
421B
  8
0
  6
VERDECKT
 62
     1
 10
49.3740368225885717
 20
60.0
 30
-0.0000000000000133
 11
50.5442027451792626
 21
58.9088026239000229
 31
-0.0000000000000131
210
0.0
220
1.0
230
-0.0000000000000002
  0
LINE
  5
421C
  8
0
  6
VERDECKT
 62
     1
 10
-49.3740368225885788
 20
60.0
 30
-0.0000000000000133
 11
-50.5442027451792626
 21
58.9088026239000229
 31
-0.0000000000000131
210
0.0
220
1.0
230
-0.0000000000000002
  0
LINE
  5
421D
  8
0
  6
VERDECKT
 62
     1
 10
-38.7834935362370601
 20
46.296986060531232
 30
-0.0000000000000103
 11
-50.5442027451792697
 21
58.9088026239000229
 31
-0.0000000000000131
210
0.0
220
1.0
230
-0.0000000000000002
  0
LINE
  5
421E
  8
0
  6
VERDECKT
 62
     1
 10
38.7834935362370388
 20
46.296986060531232
 30
-0.0000000000000103
 11
50.5442027451792626
 21
58.9088026239000229
 31
-0.0000000000000131
210
0.0
220
1.0
230
-0.0000000000000002
  0
LINE
  5
421F
  8
0
  6
VERDECKT
 62
     1
 10
36.5000000000000071
 20
40.4999999999999929
 30
-0.000000000000009
 11
36.5000000000000071
 21
6.9999999999999938
 31
-0.0000000000000016
210
0.0
220
1.0
230
-0.0000000000000002
  0
LINE
  5
4220
  8
0
  6
VERDECKT
 62
     1
 10
-36.5000000000000071
 20
40.5000000000000071
 30
-0.000000000000009
 11
-36.5000000000000071
 21
7.000000000000008
 31
-0.0000000000000016
210
0.0
220
1.0
230
-0.0000000000000002
  0
ARC
  5
4221
  8
0
  6
VERDECKT
 62
     1
 10
31.5000000000000604
 20
7.0000000000000231
 30
0.0
 40
4.999999999999968
210
0.0
220
-0.0000000000000002
230
-1.0
 50
350.0605185437790965
 51
359.9999999999997726
  0
ARC
  5
4222
  8
0
  6
VERDECKT
 62
     1
 10
-31.5000000000000995
 20
7.0000000000000071
 30
0.0
 40
4.9999999999999316
210
0.0
220
-0.0000000000000002
230
-1.0
 50
180.0000000000001137
 51
189.9394814562209035
  0
LINE
  5
4223
  8
0
  6
VERDECKT
 62
     1
 10
-35.7000000000000028
 20
2.0000000000000089
 30
-0.0000000000000004
 11
-36.4249530956847991
 21
6.136960600375243
 31
-0.0000000000000014
210
0.0
220
1.0
230
-0.0000000000000002
  0
LINE
  5
4224
  8
0
  6
VERDECKT
 62
     1
 10
35.7000000000000028
 20
1.9999999999999949
 30
-0.0000000000000004
 11
36.4249530956847991
 21
6.1369606003752288
 31
-0.0000000000000014
210
0.0
220
1.0
230
-0.0000000000000002
  0
LINE
  5
4225
  8
0
  6
VERDECKT
 62
     1
 10
34.1240150093808623
 20
2.2761726078799271
 30
-0.0000000000000005
 11
35.7000000000000028
 21
2.0000000000000009
 31
-0.0000000000000004
210
0.0
220
1.0
230
-0.0000000000000002
  0
LINE
  5
4226
  8
0
  6
VERDECKT
 62
     1
 10
-34.1240150093808623
 20
2.2761726078799378
 30
-0.0000000000000005
 11
-35.7000000000000028
 21
2.0000000000000111
 31
-0.0000000000000004
210
0.0
220
1.0
230
-0.0000000000000002
  0
LINE
  5
4227
  8
0
  6
VERDECKT
 62
     1
 10
-34.1240150093808694
 20
2.2761726078799311
 30
-0.0000000000000005
 11
-34.8489681050656586
 21
6.4131332082551662
 31
-0.0000000000000014
210
0.0
220
1.0
230
-0.0000000000000002
  0
LINE
  5
4228
  8
0
  6
VERDECKT
 62
     1
 10
34.1240150093808694
 20
2.27617260787992
 30
-0.0000000000000005
 11
34.8489681050656586
 21
6.4131332082551546
 31
-0.0000000000000014
210
0.0
220
1.0
230
-0.0000000000000002
  0
ARC
  5
4229
  8
0
  6
VERDECKT
 62
     1
 10
31.4999999999989306
 20
7.0000000000001297
 30
0.0
 40
3.4000000000010959
210
0.0
220
-0.0000000000000002
230
-1.0
 50
350.0605185437804039
 51
359.9999999999980105
  0
ARC
  5
422A
  8
0
  6
VERDECKT
 62
     1
 10
-31.499999999998991
 20
7.0000000000001146
 30
0.0
 40
3.4000000000010422
210
0.0
220
-0.0000000000000002
230
-1.0
 50
180.0000000000019895
 51
189.9394814562195961
  0
LINE
  5
422B
  8
0
  6
VERDECKT
 62
     1
 10
34.9000000000000128
 20
40.4999999999999929
 30
-0.000000000000009
 11
34.9000000000000128
 21
6.9999999999999938
 31
-0.0000000000000016
210
0.0
220
1.0
230
-0.0000000000000002
  0
LINE
  5
422C
  8
0
  6
VERDECKT
 62
     1
 10
-34.9000000000000128
 20
40.5000000000000071
 30
-0.000000000000009
 11
-34.9000000000000128
 21
7.000000000000008
 31
-0.0000000000000016
210
0.0
220
1.0
230
-0.0000000000000002
  0
LINE
  5
422D
  8
0
  6
VERDECKT
 62
     1
 10
49.0
 20
50.0
 30
-0.0000000000000111
 11
49.0
 21
0.0
 31
0.0
210
0.0
220
1.0
230
-0.0000000000000002
  0
LINE
  5
422E
  8
0
  6
VERDECKT
 62
     1
 10
-49.0
 20
50.0
 30
-0.0000000000000111
 11
-49.0
 21
0.0000000000000071
 31
0.0
210
0.0
220
1.0
230
-0.0000000000000002
  0
ARC
  5
422F
  8
0
  6
VERDECKT
 62
     1
 10
71.0000000000000426
 20
50.0
 30
0.0
 40
22.0000000000000391
210
0.0
220
-0.0000000000000002
230
-1.0
 50
149.2798888954509948
 51
179.9999999999998863
  0
ARC
  5
4230
  8
0
  6
VERDECKT
 62
     1
 10
-71.0
 20
50.0000000000000071
 30
0.0
 40
22.0
210
0.0
220
-0.0000000000000002
230
-1.0
 50
360.0
 51
30.7201111045488986
  0
LINE
  5
4231
  8
0
  6
VERDECKT
 62
     1
 10
-52.0871936585683812
 20
61.2385833756529792
 30
-0.0000000000000136
 11
-54.1934603103923678
 21
64.7831060221336514
 31
-0.0000000000000144
210
0.0
220
1.0
230
-0.0000000000000002
  0
LINE
  5
4232
  8
0
  6
VERDECKT
 62
     1
 10
52.0871936585683812
 20
61.2385833756529792
 30
-0.0000000000000136
 11
54.1934603103923678
 21
64.7831060221336514
 31
-0.0000000000000144
210
0.0
220
1.0
230
-0.0000000000000002
  0
ARC
  5
4233
  8
0
  6
VERDECKT
 62
     1
 10
37.0000000000001634
 20
74.9999999999999716
 30
0.0
 40
19.9999999999998508
210
0.0
220
-0.0000000000000002
230
-1.0
 50
329.2798888954508811
 51
0.0000000000001399
  0
ARC
  5
4234
  8
0
  6
VERDECKT
 62
     1
 10
-37.0000000000000995
 20
74.9999999999999858
 30
0.0
 40
19.9999999999999112
210
0.0
220
-0.0000000000000002
230
-1.0
 50
179.9999999999998863
 51
210.7201111045490052
  0
LINE
  5
4235
  8
0
  6
VERDECKT
 62
     1
 10
56.9999999999999929
 20
102.0
 30
-0.0000000000000226
 11
56.9999999999999929
 21
75.0000000000000142
 31
-0.0000000000000167
210
0.0
220
1.0
230
-0.0000000000000002
  0
LINE
  5
4236
  8
0
  6
VERDECKT
 62
     1
 10
-56.9999999999999929
 20
102.0
 30
-0.0000000000000226
 11
-56.9999999999999929
 21
75.0000000000000142
 31
-0.0000000000000167
210
0.0
220
1.0
230
-0.0000000000000002
  0
ARC
  5
4237
  8
0
  6
VERDECKT
 62
     1
 10
66.9999999999999716
 20
102.0
 30
0.0
 40
9.9999999999999716
210
0.0
220
-0.0000000000000002
230
-1.0
 50
164.708938544856295
 51
180.0
  0
ARC
  5
4238
  8
0
  6
VERDECKT
 62
     1
 10
-66.9999999999999716
 20
102.0
 30
0.0
 40
9.9999999999999716
210
0.0
220
-0.0000000000000002
230
-1.0
 50
0.0
 51
15.2910614551436606
  0
LINE
  5
4239
  8
0
  6
VERDECKT
 62
     1
 10
-57.3540142722720816
 20
104.6372256900897071
 30
-0.0000000000000232
 11
-58.6459857277279113
 21
109.3627743099102929
 31
-0.0000000000000243
210
0.0
220
1.0
230
-0.0000000000000002
  0
LINE
  5
423A
  8
0
  6
VERDECKT
 62
     1
 10
57.3540142722720816
 20
104.6372256900897071
 30
-0.0000000000000232
 11
58.6459857277279113
 21
109.3627743099102929
 31
-0.0000000000000243
210
0.0
220
1.0
230
-0.0000000000000002
  0
ARC
  5
423B
  8
0
  6
VERDECKT
 62
     1
 10
49.0000000000001066
 20
112.0
 30
0.0
 40
9.9999999999998881
210
0.0
220
-0.0000000000000002
230
-1.0
 50
344.7089385448560961
 51
0.0000000000000891
  0
ARC
  5
423C
  8
0
  6
VERDECKT
 62
     1
 10
-49.0000000000001066
 20
112.0
 30
0.0
 40
9.9999999999998863
210
0.0
220
-0.0000000000000002
230
-1.0
 50
179.9999999999998863
 51
195.2910614551437902
  0
LINE
  5
423D
  8
0
  6
VERDECKT
 62
     1
 10
59.0
 20
115.0
 30
-0.0000000000000255
 11
59.0
 21
112.0
 31
-0.0000000000000249
210
0.0
220
1.0
230
-0.0000000000000002
  0
LINE
  5
423E
  8
0
  6
VERDECKT
 62
     1
 10
-59.0
 20
115.0
 30
-0.0000000000000255
 11
-59.0
 21
112.0
 31
-0.0000000000000249
210
0.0
220
1.0
230
-0.0000000000000002
  0
ARC
  5
423F
  8
0
  6
VERDECKT
 62
     1
 10
68.9999999999999716
 20
115.0
 30
0.0
 40
9.9999999999999716
210
0.0
220
-0.0000000000000002
230
-1.0
 50
164.708938544856295
 51
180.0
  0
ARC
  5
4240
  8
0
  6
VERDECKT
 62
     1
 10
-68.9999999999999716
 20
115.0
 30
0.0
 40
9.9999999999999716
210
0.0
220
-0.0000000000000002
230
-1.0
 50
0.0
 51
15.2910614551436606
  0
LINE
  5
4241
  8
0
  6
VERDECKT
 62
     1
 10
-59.3540142722720816
 20
117.6372256900897071
 30
-0.0000000000000261
 11
-60.0
 21
120.0
 31
-0.0000000000000266
210
0.0
220
1.0
230
-0.0000000000000002
  0
LINE
  5
4242
  8
0
  6
VERDECKT
 62
     1
 10
59.3540142722720816
 20
117.6372256900897071
 30
-0.0000000000000261
 11
60.0
 21
120.0
 31
-0.0000000000000266
210
0.0
220
1.0
230
-0.0000000000000002
  0
ENDBLK
  5
4244
  8
0
  0
BLOCK
  8
0
  2
A$C0067E265
 70
     0
 10
0.0
 20
0.0
 30
0.0
  3
A$C0067E265
  1

  0
CIRCLE
  5
4248
  8
0
  6
CONTINUOUS
 62
     3
 10
0.0000000000000149
 20
0.0000000000000025
 30
0.0
 40
34.9000000000000128
  0
CIRCLE
  5
4249
  8
0
  6
CONTINUOUS
 62
     3
 10
0.000000000000008
 20
-0.0000000000000186
 30
0.0
 40
49.3740368225885788
  0
CIRCLE
  5
424A
  8
0
  6
CONTINUOUS
 62
     3
 10
0.0000000000000077
 20
-0.0000000000000187
 30
0.0
 40
50.5442027451792626
  0
CIRCLE
  5
424B
  8
0
  6
CONTINUOUS
 62
     3
 10
0.0000000000000005
 20
0.0000000000000001
 30
0.0
 40
34.1240150093808623
  0
CIRCLE
  5
424C
  8
0
  6
CONTINUOUS
 62
     3
 10
0.0000000000000226
 20
0.0000000000000062
 30
0.0
 40
56.9999999999999929
  0
CIRCLE
  5
424D
  8
0
  6
CONTINUOUS
 62
     3
 10
0.0000000000000255
 20
0.000000000000007
 30
0.0
 40
59.0
  0
CIRCLE
  5
424E
  8
0
  6
CONTINUOUS
 62
     3
 10
0.0000000000000266
 20
0.0000000000000073
 30
0.0
 40
60.0
  0
CIRCLE
  5
424F
  8
0
  6
CONTINUOUS
 62
     3
 10
0.0000000000000265
 20
0.0000000000000073
 30
0.0
 40
61.9291971455455865
  0
CIRCLE
  5
4250
  8
0
  6
VERDECKT
 62
     1
 10
0.0000000000000149
 20
0.0000000000000025
 30
0.0
 40
36.5000000000000071
  0
CIRCLE
  5
4251
  8
0
  6
VERDECKT
 62
     1
 10
0.0000000000000004
 20
0.0000000000000001
 30
0.0
 40
35.7000000000000028
  0
CIRCLE
  5
4252
  8
0
  6
VERDECKT
 62
     1
 10
0.0000000000000111
 20
0.0000000000000031
 30
0.0
 40
51.0000000000000071
  0
CIRCLE
  5
4253
  8
0
  6
VERDECKT
 62
     1
 10
0.0000000000000111
 20
0.0000000000000031
 30
0.0
 40
49.0
  0
CIRCLE
  5
4254
  8
0
  6
VERDECKT
 62
     1
 10
0.0000000000000255
 20
0.000000000000007
 30
0.0
 40
61.0
  0
ENDBLK
  5
4256
  8
0
  0
ENDSEC
  0
SECTION
  2
ENTITIES
  0
TEXT
  5
8E
  8
VOLL
 10
78.076754716981128
 20
31.025947764705851
 30
0.0
 40
1.8
  1

  7
GREEKS
  0
INSERT
  5
254A
  8
ADSK_ASSOC_ENTITY_BACKUPS
  2
*S0
 10
0.0
 20
0.0
 30
0.0
  0
INSERT
  5
4245
  8
STEMPEL
  2
A$C63D29BAE
 10
0.0
 20
100.0
 30
0.0
  0
INSERT
  5
4257
  8
STEMPEL
  2
A$C0067E265
 10
0.0
 20
0.0
 30
0.0
  0
VIEWPORT
  5
228B
 67
     1
  8
0
 10
142.9822867383819016
 20
204.7347919432282026
 30
0.0
 40
790.2674510967764263
 41
422.1483375959078899
 68
     1
 69
     1
1001
ACAD
1000
MVIEW
1002
{
1070
    16
1010
0.0
1020
0.0
1030
0.0
1010
0.0
1020
0.0
1030
1.0
1040
0.0
1040
422.1483375959078899
1040
142.9822867383819016
1040
204.7347919432282026
1040
50.0
1040
0.0
1040
0.0
1070
     0
1070
  1500
1070
     1
1070
     1
1070
     0
1070
     0
1070
     0
1070
     0
1040
0.0
1040
0.0
1040
0.0
1040
10.0
1040
10.0
1040
10.0
1040
10.0
1070
     0
1002
{
1002
}
1002
}
  0
ENDSEC
  0
EOF
