  0
SECTION
  2
HEADER
  9
$ACADVER
  1
AC1009
  9
$INSBASE
 10
0.0
 20
0.0
 30
0.0
  9
$EXTMIN
 10
-73.0363601410296042
 20
-186.1594045189256974
 30
-0.0061030499709318
  9
$EXTMAX
 10
73.0447492393636821
 20
200.0053762663835073
 30
0.0091555062787165
  9
$LIMMIN
 10
0.0
 20
0.0
  9
$LIMMAX
 10
297.0
 20
420.0
  9
$ORTHOMODE
 70
     1
  9
$REGENMODE
 70
     1
  9
$FILLMODE
 70
     1
  9
$QTEXTMODE
 70
     0
  9
$MIRRTEXT
 70
     1
  9
$DRAGMODE
 70
     2
  9
$LTSCALE
 40
20.0
  9
$OSMODE
 70
  1327
  9
$ATTMODE
 70
     1
  9
$TEXTSIZE
 40
3.5
  9
$TRACEWID
 40
0.5
  9
$TEXTSTYLE
  7
STANDARD
  9
$CLAYER
  8
0
  9
$CELTYPE
  6
BYLAYER
  9
$CECOLOR
 62
   256
  9
$DIMSCALE
 40
1.0
  9
$DIMASZ
 40
3.5
  9
$DIMEXO
 40
1.0
  9
$DIMDLI
 40
8.0
  9
$DIMRND
 40
0.0
  9
$DIMDLE
 40
0.0
  9
$DIMEXE
 40
1.0
  9
$DIMTP
 40
1.0
  9
$DIMTM
 40
0.0
  9
$DIMTXT
 40
3.5
  9
$DIMCEN
 40
0.0
  9
$DIMTSZ
 40
0.0
  9
$DIMTOL
 70
     0
  9
$DIMLIM
 70
     0
  9
$DIMTIH
 70
     0
  9
$DIMTOH
 70
     0
  9
$DIMSE1
 70
     0
  9
$DIMSE2
 70
     0
  9
$DIMTAD
 70
     1
  9
$DIMZIN
 70
     8
  9
$DIMBLK
  1

  9
$DIMASO
 70
     1
  9
$DIMSHO
 70
     0
  9
$DIMPOST
  1

  9
$DIMAPOST
  1

  9
$DIMALT
 70
     0
  9
$DIMALTD
 70
     2
  9
$DIMALTF
 40
25.3999999999999986
  9
$DIMLFAC
 40
1.0
  9
$DIMTOFL
 70
     1
  9
$DIMTVP
 40
0.0
  9
$DIMTIX
 70
     0
  9
$DIMSOXD
 70
     0
  9
$DIMSAH
 70
     0
  9
$DIMBLK1
  1

  9
$DIMBLK2
  1

  9
$DIMSTYLE
  2
STANDARD
  9
$DIMCLRD
 70
     0
  9
$DIMCLRE
 70
     0
  9
$DIMCLRT
 70
     1
  9
$DIMTFAC
 40
0.5
  9
$DIMGAP
 40
1.5
  9
$LUNITS
 70
     2
  9
$LUPREC
 70
     2
  9
$SKETCHINC
 40
1.0
  9
$FILLETRAD
 40
0.0
  9
$AUNITS
 70
     0
  9
$AUPREC
 70
     0
  9
$MENU
  1
ACAD
  9
$ELEVATION
 40
0.0
  9
$PELEVATION
 40
0.0
  9
$THICKNESS
 40
0.0
  9
$LIMCHECK
 70
     0
  9
$BLIPMODE
 70
     0
  9
$CHAMFERA
 40
0.0
  9
$CHAMFERB
 40
0.0
  9
$SKPOLY
 70
     0
  9
$TDCREATE
 40
2451880.4638425931334496
  9
$TDUPDATE
 40
2458402.3263194439932704
  9
$TDINDWG
 40
0.088962037
  9
$TDUSRTIMER
 40
0.088962037
  9
$USRTIMER
 70
     1
  9
$ANGBASE
 50
0.0
  9
$ANGDIR
 70
     0
  9
$PDMODE
 70
     0
  9
$PDSIZE
 40
0.0
  9
$PLINEWID
 40
0.0
  9
$COORDS
 70
     1
  9
$SPLFRAME
 70
     0
  9
$SPLINETYPE
 70
     6
  9
$SPLINESEGS
 70
     8
  9
$ATTDIA
 70
     0
  9
$ATTREQ
 70
     0
  9
$HANDLING
 70
     1
  9
$HANDSEED
  5
3963
  9
$SURFTAB1
 70
     6
  9
$SURFTAB2
 70
     6
  9
$SURFTYPE
 70
     6
  9
$SURFU
 70
     6
  9
$SURFV
 70
     6
  9
$UCSNAME
  2

  9
$UCSORG
 10
0.0
 20
0.0
 30
0.0
  9
$UCSXDIR
 10
1.0
 20
0.0
 30
0.0
  9
$UCSYDIR
 10
0.0
 20
1.0
 30
0.0
  9
$PUCSNAME
  2

  9
$PUCSORG
 10
0.0
 20
0.0
 30
0.0
  9
$PUCSXDIR
 10
1.0
 20
0.0
 30
0.0
  9
$PUCSYDIR
 10
0.0
 20
1.0
 30
0.0
  9
$USERI1
 70
     0
  9
$USERI2
 70
     0
  9
$USERI3
 70
     0
  9
$USERI4
 70
     0
  9
$USERI5
 70
     0
  9
$USERR1
 40
0.0
  9
$USERR2
 40
0.0
  9
$USERR3
 40
0.0
  9
$USERR4
 40
0.0
  9
$USERR5
 40
0.0
  9
$WORLDVIEW
 70
     1
  9
$SHADEDGE
 70
     3
  9
$SHADEDIF
 70
    70
  9
$TILEMODE
 70
     1
  9
$MAXACTVP
 70
    16
  9
$PLIMCHECK
 70
     0
  9
$PEXTMIN
 10
-0.0959169659179793
 20
-0.1142901995177823
 30
-0.0000000000112498
  9
$PEXTMAX
 10
9.7449336478365325
 20
13.7997124452828093
 30
0.0000000000002956
  9
$PLIMMIN
 10
-0.2500002402958907
 20
-0.2499999962453767
  9
$PLIMMAX
 10
10.7499995194082203
 20
8.2499997634587334
  9
$UNITMODE
 70
     0
  9
$VISRETAIN
 70
     0
  9
$PLINEGEN
 70
     0
  9
$PSLTSCALE
 70
     0
  0
ENDSEC
  0
SECTION
  2
TABLES
  0
TABLE
  2
VPORT
 70
     1
  0
VPORT
  2
*ACTIVE
 70
     0
 10
0.0
 20
0.0
 11
1.0
 21
1.0
 12
0.0041945491670958
 22
-56.5683318752945183
 13
0.0
 23
0.0
 14
1.0
 24
1.0
 15
10.0
 25
10.0
 16
-0.0000000000001782
 26
0.0
 36
802.4554334637755346
 17
0.0
 27
63.4913177490234375
 37
-0.000000000000014
 40
389.0537941078925996
 41
1.887640449438202
 42
50.0
 43
0.0
 44
0.0
 50
0.0
 51
0.0
 71
     0
 72
  1500
 73
     1
 74
     0
 75
     0
 76
     0
 77
     0
 78
     0
  0
ENDTAB
  0
TABLE
  2
LTYPE
 70
     4
  0
LTYPE
  2
AUSGEZOGEN
 70
     0
  3
Ausgezogene Linie
 72
    65
 73
     0
 40
0.0
  0
LTYPE
  2
CONTINUOUS
 70
     0
  3
Solid line
 72
    65
 73
     0
 40
0.0
  0
LTYPE
  2
VERDECKT
 70
     0
  3
Verdeckt __ __ __ __ __ __ __ __ __ __ __ __ __
 72
    65
 73
     2
 40
0.375
 49
0.25
 49
-0.125
  0
ENDTAB
  0
TABLE
  2
LAYER
 70
    12
  0
LAYER
  2
0
 70
     0
 62
     7
  6
AUSGEZOGEN
  0
LAYER
  2
DEFPOINTS
 70
     0
 62
     7
  6
AUSGEZOGEN
  0
LAYER
  2
TEXT35
 70
     0
 62
     1
  6
AUSGEZOGEN
  0
ENDTAB
  0
TABLE
  2
STYLE
 70
     4
  0
STYLE
  2
STANDARD
 70
     0
 40
0.0
 41
0.8
 50
0.0
 71
     0
 42
3.5
  3
simplex.shx
  4

  0
ENDTAB
  0
TABLE
  2
VIEW
 70
     2
  0
ENDTAB
  0
TABLE
  2
UCS
 70
     0
  0
ENDTAB
  0
TABLE
  2
APPID
 70
    10
  0
APPID
  2
ACAD
 70
     0
  0
APPID
  2
ACAD_NAV_VCDISPLAY
 70
     0
  0
APPID
  2
ACAD_PSEXT
 70
     0
  0
APPID
  2
ACAD_DSTYLE_DIMRADIAL_EXTENSION
 70
     0
  0
APPID
  2
ACAECLAYERSTANDARD
 70
     0
  0
APPID
  2
ACCMTRANSPARENCY
 70
     0
  0
APPID
  2
ACAD_EXEMPT_FROM_CAD_STANDARDS
 70
     0
  0
APPID
  2
ACAD_MLEADERVER
 70
     0
  0
APPID
  2
ACAD_OBJECT_CHANGE_GUID
 70
     0
  0
APPID
  2
ACADANNOMONITORALERTICONDI
 70
     0
  0
ENDTAB
  0
TABLE
  2
DIMSTYLE
 70
     2
  0
DIMSTYLE
  2
STANDARD
 70
     0
  3

  4

  5

  6

  7

 40
0.0
 41
3.5
 42
1.0
 43
8.0
 44
1.5
 45
0.0
 46
0.0
 47
0.5
 48
0.0
140
3.5
141
1.5
142
0.0
143
25.3999999999999986
144
1.0
145
0.0
146
1.0
147
1.0
 71
     0
 72
     0
 73
     0
 74
     0
 75
     0
 76
     0
 77
     1
 78
     8
170
     0
171
     2
172
     1
173
     0
174
     0
175
     0
176
     0
177
     0
178
     1
  0
ENDTAB
  0
ENDSEC
  0
SECTION
  2
BLOCKS
  0
BLOCK
  8
0
  2
$MODEL_SPACE
 70
     0
 10
0.0
 20
0.0
 30
0.0
  3
$MODEL_SPACE
  1

  0
ENDBLK
  5
2723
  8
0
  0
BLOCK
 67
     1
  8
0
  2
$PAPER_SPACE
 70
     0
 10
0.0
 20
0.0
 30
0.0
  3
$PAPER_SPACE
  1

  0
ENDBLK
  5
2721
 67
     1
  8
0
  0
BLOCK
  8
0
  2
A$C7A0E166E
 70
     0
 10
0.0
 20
0.0
 30
0.0
  3
A$C7A0E166E
  1

  0
LINE
  5
376B
  8
0
  6
AUSGEZOGEN
 62
     3
 10
29.7386787763912785
 20
121.4049136622542022
 30
-0.000000000000027
 11
21.0036206256736513
 21
121.4049136622542022
 31
-0.000000000000027
210
0.0
220
1.0
230
-0.0000000000000002
  0
LINE
  5
376C
  8
0
  6
AUSGEZOGEN
 62
     3
 10
29.7386787763912785
 20
119.9049136622542022
 30
-0.0000000000000266
 11
21.0036206256736513
 21
119.9049136622542022
 31
-0.0000000000000266
210
0.0
220
1.0
230
-0.0000000000000002
  0
LINE
  5
376D
  8
0
  6
AUSGEZOGEN
 62
     3
 10
29.7386787763912892
 20
121.4049136622542022
 30
-0.000000000000027
 11
30.6091198868360905
 21
121.4049136622542022
 31
-0.000000000000027
210
0.0
220
1.0
230
-0.0000000000000002
  0
LINE
  5
376E
  8
0
  6
AUSGEZOGEN
 62
     3
 10
29.7386787763912892
 20
119.9049136622542022
 30
-0.0000000000000266
 11
30.6091198868360905
 21
119.9049136622542022
 31
-0.0000000000000266
210
0.0
220
1.0
230
-0.0000000000000002
  0
LINE
  5
376F
  8
0
  6
AUSGEZOGEN
 62
     3
 10
30.6091198868360799
 20
121.4049136622542022
 30
-0.000000000000027
 11
36.0694650502507628
 21
121.4049136622542022
 31
-0.000000000000027
210
0.0
220
1.0
230
-0.0000000000000002
  0
LINE
  5
3770
  8
0
  6
AUSGEZOGEN
 62
     3
 10
30.6091198868360799
 20
119.9049136622542022
 30
-0.0000000000000266
 11
36.0694650502507628
 21
119.9049136622542022
 31
-0.0000000000000266
210
0.0
220
1.0
230
-0.0000000000000002
  0
LINE
  5
3771
  8
0
  6
AUSGEZOGEN
 62
     3
 10
36.0694650502507415
 20
121.4049136622542022
 30
-0.000000000000027
 11
36.5664123697540617
 21
121.4049136622542022
 31
-0.000000000000027
210
0.0
220
1.0
230
-0.0000000000000002
  0
LINE
  5
3772
  8
0
  6
AUSGEZOGEN
 62
     3
 10
36.0694650502507415
 20
119.9049136622542022
 30
-0.0000000000000266
 11
36.5664123697540617
 21
119.9049136622542022
 31
-0.0000000000000266
210
0.0
220
1.0
230
-0.0000000000000002
  0
LINE
  5
3773
  8
0
  6
AUSGEZOGEN
 62
     3
 10
38.1000309368544094
 20
121.4049136622542022
 30
-0.000000000000027
 11
36.5664123697540617
 21
121.4049136622542022
 31
-0.000000000000027
210
0.0
220
1.0
230
-0.0000000000000002
  0
LINE
  5
3774
  8
0
  6
AUSGEZOGEN
 62
     3
 10
38.1000309368544094
 20
119.9049136622542022
 30
-0.0000000000000266
 11
36.5664123697540617
 21
119.9049136622542022
 31
-0.0000000000000266
210
0.0
220
1.0
230
-0.0000000000000002
  0
LINE
  5
3775
  8
0
  6
AUSGEZOGEN
 62
     3
 10
39.2441537424897504
 20
121.4049136622542022
 30
-0.000000000000027
 11
38.1000309368544166
 21
121.4049136622542022
 31
-0.000000000000027
210
0.0
220
1.0
230
-0.0000000000000002
  0
LINE
  5
3776
  8
0
  6
AUSGEZOGEN
 62
     3
 10
39.2441537424897504
 20
119.9049136622542022
 30
-0.0000000000000266
 11
38.1000309368544166
 21
119.9049136622542022
 31
-0.0000000000000266
210
0.0
220
1.0
230
-0.0000000000000002
  0
LINE
  5
3777
  8
0
  6
AUSGEZOGEN
 62
     3
 10
48.9270402934533806
 20
121.4049136622542022
 30
-0.000000000000027
 11
39.2441537424897504
 21
121.4049136622542022
 31
-0.000000000000027
210
0.0
220
1.0
230
-0.0000000000000002
  0
LINE
  5
3778
  8
0
  6
AUSGEZOGEN
 62
     3
 10
48.9270402934533806
 20
119.9049136622542022
 30
-0.0000000000000266
 11
39.2441537424897504
 21
119.9049136622542022
 31
-0.0000000000000266
210
0.0
220
1.0
230
-0.0000000000000002
  0
LINE
  5
3779
  8
0
  6
AUSGEZOGEN
 62
     3
 10
48.9270402934533806
 20
121.4049136622542022
 30
-0.000000000000027
 11
49.7604882034383422
 21
121.4049136622542022
 31
-0.000000000000027
210
0.0
220
1.0
230
-0.0000000000000002
  0
LINE
  5
377A
  8
0
  6
AUSGEZOGEN
 62
     3
 10
48.9270402934533806
 20
119.9049136622542022
 30
-0.0000000000000266
 11
49.7604882034383422
 21
119.9049136622542022
 31
-0.0000000000000266
210
0.0
220
1.0
230
-0.0000000000000002
  0
LINE
  5
377B
  8
0
  6
AUSGEZOGEN
 62
     3
 10
49.760488203438328
 20
121.4049136622542022
 30
-0.000000000000027
 11
54.0938426602833573
 21
121.4049136622542022
 31
-0.000000000000027
210
0.0
220
1.0
230
-0.0000000000000002
  0
LINE
  5
377C
  8
0
  6
AUSGEZOGEN
 62
     3
 10
49.760488203438328
 20
119.9049136622542022
 30
-0.0000000000000266
 11
54.0938426602833573
 21
119.9049136622542022
 31
-0.0000000000000266
210
0.0
220
1.0
230
-0.0000000000000002
  0
LINE
  5
377D
  8
0
  6
AUSGEZOGEN
 62
     3
 10
54.093842660283407
 20
121.4049136622542022
 30
-0.000000000000027
 11
54.3578720118441723
 21
121.4049136622542022
 31
-0.000000000000027
210
0.0
220
1.0
230
-0.0000000000000002
  0
LINE
  5
377E
  8
0
  6
AUSGEZOGEN
 62
     3
 10
54.093842660283407
 20
119.9049136622542022
 30
-0.0000000000000266
 11
54.3578720118441723
 21
119.9049136622542022
 31
-0.0000000000000266
210
0.0
220
1.0
230
-0.0000000000000002
  0
LINE
  5
377F
  8
0
  6
AUSGEZOGEN
 62
     3
 10
63.3260822118574467
 20
121.4049136622542022
 30
-0.000000000000027
 11
54.3578720118441723
 21
121.4049136622542022
 31
-0.000000000000027
210
0.0
220
1.0
230
-0.0000000000000002
  0
LINE
  5
3780
  8
0
  6
AUSGEZOGEN
 62
     3
 10
63.3260822118574467
 20
119.9049136622542022
 30
-0.0000000000000266
 11
54.3578720118441723
 21
119.9049136622542022
 31
-0.0000000000000266
210
0.0
220
1.0
230
-0.0000000000000002
  0
LINE
  5
3781
  8
0
  6
AUSGEZOGEN
 62
     3
 10
63.3260822118574467
 20
121.4049136622542022
 30
-0.000000000000027
 11
64.0409532329802005
 21
121.4049136622542022
 31
-0.000000000000027
210
0.0
220
1.0
230
-0.0000000000000002
  0
LINE
  5
3782
  8
0
  6
AUSGEZOGEN
 62
     3
 10
63.3260822118574467
 20
119.9049136622542022
 30
-0.0000000000000266
 11
64.0409532329802005
 21
119.9049136622542022
 31
-0.0000000000000266
210
0.0
220
1.0
230
-0.0000000000000002
  0
LINE
  5
3783
  8
0
  6
AUSGEZOGEN
 62
     3
 10
64.0409532329802005
 20
121.4049136622542022
 30
-0.000000000000027
 11
66.8231380567638098
 21
121.4049136622542022
 31
-0.000000000000027
210
0.0
220
1.0
230
-0.0000000000000002
  0
LINE
  5
3784
  8
0
  6
AUSGEZOGEN
 62
     3
 10
64.0409532329802005
 20
119.9049136622542022
 30
-0.0000000000000266
 11
66.8231380567638098
 21
119.9049136622542022
 31
-0.0000000000000266
210
0.0
220
1.0
230
-0.0000000000000002
  0
LINE
  5
3785
  8
0
  6
AUSGEZOGEN
 62
     3
 10
66.823138056763824
 20
121.4049136622542022
 30
-0.000000000000027
 11
66.9139797158554757
 21
121.4049136622542022
 31
-0.000000000000027
210
0.0
220
1.0
230
-0.0000000000000002
  0
LINE
  5
3786
  8
0
  6
AUSGEZOGEN
 62
     3
 10
66.823138056763824
 20
119.9049136622542022
 30
-0.0000000000000266
 11
66.9139797158554757
 21
119.9049136622542022
 31
-0.0000000000000266
210
0.0
220
1.0
230
-0.0000000000000002
  0
LINE
  5
3787
  8
0
  6
AUSGEZOGEN
 62
     3
 10
71.5263259846059327
 20
121.4049136622542022
 30
-0.000000000000027
 11
66.9139797158554757
 21
121.4049136622542022
 31
-0.000000000000027
210
0.0
220
1.0
230
-0.0000000000000002
  0
LINE
  5
3788
  8
0
  6
AUSGEZOGEN
 62
     3
 10
71.5263259846059327
 20
119.9049136622542022
 30
-0.0000000000000266
 11
66.9139797158554757
 21
119.9049136622542022
 31
-0.0000000000000266
210
0.0
220
1.0
230
-0.0000000000000002
  0
LINE
  5
3789
  8
0
  6
AUSGEZOGEN
 62
     3
 10
71.5263259846059043
 20
121.4049136622542022
 30
-0.000000000000027
 11
72.0526435605196838
 21
121.4049136622542022
 31
-0.000000000000027
210
0.0
220
1.0
230
-0.0000000000000002
  0
LINE
  5
378A
  8
0
  6
AUSGEZOGEN
 62
     3
 10
71.5263259846059043
 20
119.9049136622542022
 30
-0.0000000000000266
 11
72.0526435605196838
 21
119.9049136622542022
 31
-0.0000000000000266
210
0.0
220
1.0
230
-0.0000000000000002
  0
LINE
  5
378B
  8
0
  6
AUSGEZOGEN
 62
     3
 10
72.0526435605197406
 20
121.4049136622542022
 30
-0.000000000000027
 11
73.011319116068421
 21
121.4049136622542022
 31
-0.000000000000027
210
0.0
220
1.0
230
-0.0000000000000002
  0
LINE
  5
378C
  8
0
  6
AUSGEZOGEN
 62
     3
 10
72.0526435605197406
 20
119.9049136622542022
 30
-0.0000000000000266
 11
73.011319116068421
 21
119.9049136622542022
 31
-0.0000000000000266
210
0.0
220
1.0
230
-0.0000000000000002
  0
LINE
  5
378D
  8
0
  6
AUSGEZOGEN
 62
     3
 10
73.011319116068421
 20
121.4049136622542022
 30
-0.000000000000027
 11
73.0179678355776787
 21
121.4049136622542022
 31
-0.000000000000027
210
0.0
220
1.0
230
-0.0000000000000002
  0
LINE
  5
378E
  8
0
  6
AUSGEZOGEN
 62
     3
 10
73.011319116068421
 20
119.9049136622542022
 30
-0.0000000000000266
 11
73.0179678355776787
 21
119.9049136622542022
 31
-0.0000000000000266
210
0.0
220
1.0
230
-0.0000000000000002
  0
LINE
  5
378F
  8
0
  6
AUSGEZOGEN
 62
     3
 10
-73.0179678355774513
 20
121.4049136622542022
 30
-0.000000000000027
 11
-73.0113191160681936
 21
121.4049136622542022
 31
-0.000000000000027
210
0.0
220
1.0
230
-0.0000000000000002
  0
LINE
  5
3790
  8
0
  6
AUSGEZOGEN
 62
     3
 10
-73.0179678355774513
 20
119.9049136622542022
 30
-0.0000000000000266
 11
-73.0113191160681936
 21
119.9049136622542022
 31
-0.0000000000000266
210
0.0
220
1.0
230
-0.0000000000000002
  0
LINE
  5
3791
  8
0
  6
AUSGEZOGEN
 62
     3
 10
-73.0113191160681367
 20
121.4049136622542022
 30
-0.000000000000027
 11
-72.0526435605195132
 21
121.4049136622542022
 31
-0.000000000000027
210
0.0
220
1.0
230
-0.0000000000000002
  0
LINE
  5
3792
  8
0
  6
AUSGEZOGEN
 62
     3
 10
-73.0113191160681367
 20
119.9049136622542022
 30
-0.0000000000000266
 11
-72.0526435605195132
 21
119.9049136622542022
 31
-0.0000000000000266
210
0.0
220
1.0
230
-0.0000000000000002
  0
LINE
  5
3793
  8
0
  6
AUSGEZOGEN
 62
     3
 10
-72.0526435605195132
 20
121.4049136622542022
 30
-0.000000000000027
 11
-71.5263259846057053
 21
121.4049136622542022
 31
-0.000000000000027
210
0.0
220
1.0
230
-0.0000000000000002
  0
LINE
  5
3794
  8
0
  6
AUSGEZOGEN
 62
     3
 10
-72.0526435605195132
 20
119.9049136622542022
 30
-0.0000000000000266
 11
-71.5263259846057053
 21
119.9049136622542022
 31
-0.0000000000000266
210
0.0
220
1.0
230
-0.0000000000000002
  0
LINE
  5
3795
  8
0
  6
AUSGEZOGEN
 62
     3
 10
-66.9139797158552483
 20
121.4049136622542022
 30
-0.000000000000027
 11
-71.5263259846057053
 21
121.4049136622542022
 31
-0.000000000000027
210
0.0
220
1.0
230
-0.0000000000000002
  0
LINE
  5
3796
  8
0
  6
AUSGEZOGEN
 62
     3
 10
-66.9139797158552483
 20
119.9049136622542022
 30
-0.0000000000000266
 11
-71.5263259846057053
 21
119.9049136622542022
 31
-0.0000000000000266
210
0.0
220
1.0
230
-0.0000000000000002
  0
LINE
  5
3797
  8
0
  6
AUSGEZOGEN
 62
     3
 10
-66.9139797158552483
 20
121.4049136622542022
 30
-0.000000000000027
 11
-66.8231380567635824
 21
121.4049136622542022
 31
-0.000000000000027
210
0.0
220
1.0
230
-0.0000000000000002
  0
LINE
  5
3798
  8
0
  6
AUSGEZOGEN
 62
     3
 10
-66.9139797158552483
 20
119.9049136622542022
 30
-0.0000000000000266
 11
-66.8231380567635824
 21
119.9049136622542022
 31
-0.0000000000000266
210
0.0
220
1.0
230
-0.0000000000000002
  0
LINE
  5
3799
  8
0
  6
AUSGEZOGEN
 62
     3
 10
-66.8231380567635824
 20
121.4049136622542022
 30
-0.000000000000027
 11
-64.0409532329799731
 21
121.4049136622542022
 31
-0.000000000000027
210
0.0
220
1.0
230
-0.0000000000000002
  0
LINE
  5
379A
  8
0
  6
AUSGEZOGEN
 62
     3
 10
-66.8231380567635824
 20
119.9049136622542022
 30
-0.0000000000000266
 11
-64.0409532329799731
 21
119.9049136622542022
 31
-0.0000000000000266
210
0.0
220
1.0
230
-0.0000000000000002
  0
LINE
  5
379B
  8
0
  6
AUSGEZOGEN
 62
     3
 10
-64.0409532329798878
 20
121.4049136622542022
 30
-0.000000000000027
 11
-63.3260822118572833
 21
121.4049136622542022
 31
-0.000000000000027
210
0.0
220
1.0
230
-0.0000000000000002
  0
LINE
  5
379C
  8
0
  6
AUSGEZOGEN
 62
     3
 10
-64.0409532329798878
 20
119.9049136622542022
 30
-0.0000000000000266
 11
-63.3260822118572833
 21
119.9049136622542022
 31
-0.0000000000000266
210
0.0
220
1.0
230
-0.0000000000000002
  0
LINE
  5
379D
  8
0
  6
AUSGEZOGEN
 62
     3
 10
-54.3578720118440017
 20
121.4049136622542022
 30
-0.000000000000027
 11
-63.3260822118572833
 21
121.4049136622542022
 31
-0.000000000000027
210
0.0
220
1.0
230
-0.0000000000000002
  0
LINE
  5
379E
  8
0
  6
AUSGEZOGEN
 62
     3
 10
-54.3578720118440017
 20
119.9049136622542022
 30
-0.0000000000000266
 11
-63.3260822118572833
 21
119.9049136622542022
 31
-0.0000000000000266
210
0.0
220
1.0
230
-0.0000000000000002
  0
LINE
  5
379F
  8
0
  6
AUSGEZOGEN
 62
     3
 10
-54.3578720118440017
 20
121.4049136622542022
 30
-0.000000000000027
 11
-54.093842660283201
 21
121.4049136622542022
 31
-0.000000000000027
210
0.0
220
1.0
230
-0.0000000000000002
  0
LINE
  5
37A0
  8
0
  6
AUSGEZOGEN
 62
     3
 10
-54.3578720118440017
 20
119.9049136622542022
 30
-0.0000000000000266
 11
-54.093842660283201
 21
119.9049136622542022
 31
-0.0000000000000266
210
0.0
220
1.0
230
-0.0000000000000002
  0
LINE
  5
37A1
  8
0
  6
AUSGEZOGEN
 62
     3
 10
-54.0938426602832081
 20
121.4049136622542022
 30
-0.000000000000027
 11
-49.7604882034381717
 21
121.4049136622542022
 31
-0.000000000000027
210
0.0
220
1.0
230
-0.0000000000000002
  0
LINE
  5
37A2
  8
0
  6
AUSGEZOGEN
 62
     3
 10
-54.0938426602832081
 20
119.9049136622542022
 30
-0.0000000000000266
 11
-49.7604882034381717
 21
119.9049136622542022
 31
-0.0000000000000266
210
0.0
220
1.0
230
-0.0000000000000002
  0
LINE
  5
37A3
  8
0
  6
AUSGEZOGEN
 62
     3
 10
-49.7604882034381788
 20
121.4049136622542022
 30
-0.000000000000027
 11
-48.92704029345321
 21
121.4049136622542022
 31
-0.000000000000027
210
0.0
220
1.0
230
-0.0000000000000002
  0
LINE
  5
37A4
  8
0
  6
AUSGEZOGEN
 62
     3
 10
-49.7604882034381788
 20
119.9049136622542022
 30
-0.0000000000000266
 11
-48.92704029345321
 21
119.9049136622542022
 31
-0.0000000000000266
210
0.0
220
1.0
230
-0.0000000000000002
  0
LINE
  5
37A5
  8
0
  6
AUSGEZOGEN
 62
     3
 10
-39.2441537424896296
 20
121.4049136622542022
 30
-0.000000000000027
 11
-48.92704029345321
 21
121.4049136622542022
 31
-0.000000000000027
210
0.0
220
1.0
230
-0.0000000000000002
  0
LINE
  5
37A6
  8
0
  6
AUSGEZOGEN
 62
     3
 10
-39.2441537424896296
 20
119.9049136622542022
 30
-0.0000000000000266
 11
-48.92704029345321
 21
119.9049136622542022
 31
-0.0000000000000266
210
0.0
220
1.0
230
-0.0000000000000002
  0
LINE
  5
37A7
  8
0
  6
AUSGEZOGEN
 62
     3
 10
-38.1000309368543029
 20
121.4049136622542022
 30
-0.000000000000027
 11
-39.2441537424896225
 21
121.4049136622542022
 31
-0.000000000000027
210
0.0
220
1.0
230
-0.0000000000000002
  0
LINE
  5
37A8
  8
0
  6
AUSGEZOGEN
 62
     3
 10
-38.1000309368543029
 20
119.9049136622542022
 30
-0.0000000000000266
 11
-39.2441537424896225
 21
119.9049136622542022
 31
-0.0000000000000266
210
0.0
220
1.0
230
-0.0000000000000002
  0
LINE
  5
37A9
  8
0
  6
AUSGEZOGEN
 62
     3
 10
-36.5664123697538415
 20
121.4049136622542022
 30
-0.000000000000027
 11
-38.1000309368543029
 21
121.4049136622542022
 31
-0.000000000000027
210
0.0
220
1.0
230
-0.0000000000000002
  0
LINE
  5
37AA
  8
0
  6
AUSGEZOGEN
 62
     3
 10
-36.5664123697538415
 20
119.9049136622542022
 30
-0.0000000000000266
 11
-38.1000309368543029
 21
119.9049136622542022
 31
-0.0000000000000266
210
0.0
220
1.0
230
-0.0000000000000002
  0
LINE
  5
37AB
  8
0
  6
AUSGEZOGEN
 62
     3
 10
-36.5664123697538415
 20
121.4049136622542022
 30
-0.000000000000027
 11
-36.069465050250642
 21
121.4049136622542022
 31
-0.000000000000027
210
0.0
220
1.0
230
-0.0000000000000002
  0
LINE
  5
37AC
  8
0
  6
AUSGEZOGEN
 62
     3
 10
-36.5664123697538415
 20
119.9049136622542022
 30
-0.0000000000000266
 11
-36.069465050250642
 21
119.9049136622542022
 31
-0.0000000000000266
210
0.0
220
1.0
230
-0.0000000000000002
  0
LINE
  5
37AD
  8
0
  6
AUSGEZOGEN
 62
     3
 10
-36.069465050250642
 20
121.4049136622542022
 30
-0.000000000000027
 11
-30.6091198868358596
 21
121.4049136622542022
 31
-0.000000000000027
210
0.0
220
1.0
230
-0.0000000000000002
  0
LINE
  5
37AE
  8
0
  6
AUSGEZOGEN
 62
     3
 10
-36.069465050250642
 20
119.9049136622542022
 30
-0.0000000000000266
 11
-30.6091198868358596
 21
119.9049136622542022
 31
-0.0000000000000266
210
0.0
220
1.0
230
-0.0000000000000002
  0
LINE
  5
37AF
  8
0
  6
AUSGEZOGEN
 62
     3
 10
-30.6091198868358489
 20
121.4049136622542022
 30
-0.000000000000027
 11
-29.7386787763910583
 21
121.4049136622542022
 31
-0.000000000000027
210
0.0
220
1.0
230
-0.0000000000000002
  0
LINE
  5
37B0
  8
0
  6
AUSGEZOGEN
 62
     3
 10
-30.6091198868358489
 20
119.9049136622542022
 30
-0.0000000000000266
 11
-29.7386787763910583
 21
119.9049136622542022
 31
-0.0000000000000266
210
0.0
220
1.0
230
-0.0000000000000002
  0
LINE
  5
37B1
  8
0
  6
AUSGEZOGEN
 62
     3
 10
-21.0036206256735412
 20
121.4049136622542022
 30
-0.000000000000027
 11
-29.7386787763910583
 21
121.4049136622542022
 31
-0.000000000000027
210
0.0
220
1.0
230
-0.0000000000000002
  0
LINE
  5
37B2
  8
0
  6
AUSGEZOGEN
 62
     3
 10
-21.0036206256735412
 20
119.9049136622542022
 30
-0.0000000000000266
 11
-29.7386787763910583
 21
119.9049136622542022
 31
-0.0000000000000266
210
0.0
220
1.0
230
-0.0000000000000002
  0
LINE
  5
37B3
  8
0
  6
AUSGEZOGEN
 62
     3
 10
-19.6586236017455995
 20
121.4049136622542022
 30
-0.000000000000027
 11
-21.0036206256735412
 21
121.4049136622542022
 31
-0.000000000000027
210
0.0
220
1.0
230
-0.0000000000000002
  0
LINE
  5
37B4
  8
0
  6
AUSGEZOGEN
 62
     3
 10
-19.6586236017455995
 20
119.9049136622542022
 30
-0.0000000000000266
 11
-21.0036206256735412
 21
119.9049136622542022
 31
-0.0000000000000266
210
0.0
220
1.0
230
-0.0000000000000002
  0
LINE
  5
37B5
  8
0
  6
AUSGEZOGEN
 62
     3
 10
-15.2078891711411206
 20
121.4049136622542022
 30
-0.000000000000027
 11
-19.6586236017455995
 21
121.4049136622542022
 31
-0.000000000000027
210
0.0
220
1.0
230
-0.0000000000000002
  0
LINE
  5
37B6
  8
0
  6
AUSGEZOGEN
 62
     3
 10
-15.2078891711411206
 20
119.9049136622542022
 30
-0.0000000000000266
 11
-19.6586236017455995
 21
119.9049136622542022
 31
-0.0000000000000266
210
0.0
220
1.0
230
-0.0000000000000002
  0
LINE
  5
37B7
  8
0
  6
AUSGEZOGEN
 62
     3
 10
-15.2078891711411099
 20
121.4049136622542022
 30
-0.000000000000027
 11
-14.5143568903590108
 21
121.4049136622542022
 31
-0.000000000000027
210
0.0
220
1.0
230
-0.0000000000000002
  0
LINE
  5
37B8
  8
0
  6
AUSGEZOGEN
 62
     3
 10
-15.2078891711411099
 20
119.9049136622542022
 30
-0.0000000000000266
 11
-14.5143568903590108
 21
119.9049136622542022
 31
-0.0000000000000266
210
0.0
220
1.0
230
-0.0000000000000002
  0
LINE
  5
37B9
  8
0
  6
AUSGEZOGEN
 62
     3
 10
-14.5143568903590108
 20
121.4049136622542022
 30
-0.000000000000027
 11
-8.4615176494315847
 21
121.4049136622542022
 31
-0.000000000000027
210
0.0
220
1.0
230
-0.0000000000000002
  0
LINE
  5
37BA
  8
0
  6
AUSGEZOGEN
 62
     3
 10
-14.5143568903590108
 20
119.9049136622542022
 30
-0.0000000000000266
 11
-8.4615176494315847
 21
119.9049136622542022
 31
-0.0000000000000266
210
0.0
220
1.0
230
-0.0000000000000002
  0
LINE
  5
37BB
  8
0
  6
AUSGEZOGEN
 62
     3
 10
-8.4615176494315811
 20
121.4049136622542022
 30
-0.000000000000027
 11
-7.639288179137111
 21
121.4049136622542022
 31
-0.000000000000027
210
0.0
220
1.0
230
-0.0000000000000002
  0
LINE
  5
37BC
  8
0
  6
AUSGEZOGEN
 62
     3
 10
-8.4615176494315811
 20
119.9049136622542022
 30
-0.0000000000000266
 11
-7.639288179137111
 21
119.9049136622542022
 31
-0.0000000000000266
210
0.0
220
1.0
230
-0.0000000000000002
  0
LINE
  5
37BD
  8
0
  6
AUSGEZOGEN
 62
     3
 10
-0.7071067811864964
 20
121.4049136622542022
 30
-0.000000000000027
 11
-7.639288179137111
 21
121.4049136622542022
 31
-0.000000000000027
210
0.0
220
1.0
230
-0.0000000000000002
  0
LINE
  5
37BE
  8
0
  6
AUSGEZOGEN
 62
     3
 10
-0.7071067811864964
 20
119.9049136622542022
 30
-0.0000000000000266
 11
-7.639288179137111
 21
119.9049136622542022
 31
-0.0000000000000266
210
0.0
220
1.0
230
-0.0000000000000002
  0
LINE
  5
37BF
  8
0
  6
AUSGEZOGEN
 62
     3
 10
0.7071067811866101
 20
121.4049136622542022
 30
-0.000000000000027
 11
-0.7071067811864964
 21
121.4049136622542022
 31
-0.000000000000027
210
0.0
220
1.0
230
-0.0000000000000002
  0
LINE
  5
37C0
  8
0
  6
AUSGEZOGEN
 62
     3
 10
0.7071067811866101
 20
119.9049136622542022
 30
-0.0000000000000266
 11
-0.7071067811864964
 21
119.9049136622542022
 31
-0.0000000000000266
210
0.0
220
1.0
230
-0.0000000000000002
  0
LINE
  5
37C1
  8
0
  6
AUSGEZOGEN
 62
     3
 10
7.6392881791372806
 20
121.4049136622542022
 30
-0.000000000000027
 11
0.7071067811866101
 21
121.4049136622542022
 31
-0.000000000000027
210
0.0
220
1.0
230
-0.0000000000000002
  0
LINE
  5
37C2
  8
0
  6
AUSGEZOGEN
 62
     3
 10
7.6392881791372806
 20
119.9049136622542022
 30
-0.0000000000000266
 11
0.7071067811866101
 21
119.9049136622542022
 31
-0.0000000000000266
210
0.0
220
1.0
230
-0.0000000000000002
  0
LINE
  5
37C3
  8
0
  6
AUSGEZOGEN
 62
     3
 10
7.6392881791372753
 20
121.4049136622542022
 30
-0.000000000000027
 11
8.4615176494317552
 21
121.4049136622542022
 31
-0.000000000000027
210
0.0
220
1.0
230
-0.0000000000000002
  0
LINE
  5
37C4
  8
0
  6
AUSGEZOGEN
 62
     3
 10
7.6392881791372753
 20
119.9049136622542022
 30
-0.0000000000000266
 11
8.4615176494317552
 21
119.9049136622542022
 31
-0.0000000000000266
210
0.0
220
1.0
230
-0.0000000000000002
  0
LINE
  5
37C5
  8
0
  6
AUSGEZOGEN
 62
     3
 10
8.4615176494317552
 20
121.4049136622542022
 30
-0.000000000000027
 11
14.5143568903591795
 21
121.4049136622542022
 31
-0.000000000000027
210
0.0
220
1.0
230
-0.0000000000000002
  0
LINE
  5
37C6
  8
0
  6
AUSGEZOGEN
 62
     3
 10
8.4615176494317552
 20
119.9049136622542022
 30
-0.0000000000000266
 11
14.5143568903591795
 21
119.9049136622542022
 31
-0.0000000000000266
210
0.0
220
1.0
230
-0.0000000000000002
  0
LINE
  5
37C7
  8
0
  6
AUSGEZOGEN
 62
     3
 10
14.5143568903591795
 20
121.4049136622542022
 30
-0.000000000000027
 11
15.2078891711413409
 21
121.4049136622542022
 31
-0.000000000000027
210
0.0
220
1.0
230
-0.0000000000000002
  0
LINE
  5
37C8
  8
0
  6
AUSGEZOGEN
 62
     3
 10
14.5143568903591795
 20
119.9049136622542022
 30
-0.0000000000000266
 11
15.2078891711413409
 21
119.9049136622542022
 31
-0.0000000000000266
210
0.0
220
1.0
230
-0.0000000000000002
  0
LINE
  5
37C9
  8
0
  6
AUSGEZOGEN
 62
     3
 10
19.6586236017457203
 20
121.4049136622542022
 30
-0.000000000000027
 11
15.2078891711413409
 21
121.4049136622542022
 31
-0.000000000000027
210
0.0
220
1.0
230
-0.0000000000000002
  0
LINE
  5
37CA
  8
0
  6
AUSGEZOGEN
 62
     3
 10
19.6586236017457203
 20
119.9049136622542022
 30
-0.0000000000000266
 11
15.2078891711413409
 21
119.9049136622542022
 31
-0.0000000000000266
210
0.0
220
1.0
230
-0.0000000000000002
  0
LINE
  5
37CB
  8
0
  6
AUSGEZOGEN
 62
     3
 10
21.0036206256736513
 20
121.4049136622542022
 30
-0.000000000000027
 11
19.6586236017458411
 21
121.4049136622542022
 31
-0.000000000000027
210
0.0
220
1.0
230
-0.0000000000000002
  0
LINE
  5
37CC
  8
0
  6
AUSGEZOGEN
 62
     3
 10
21.0036206256736513
 20
119.9049136622542022
 30
-0.0000000000000266
 11
19.6586236017458411
 21
119.9049136622542022
 31
-0.0000000000000266
210
0.0
220
1.0
230
-0.0000000000000002
  0
LINE
  5
37CD
  8
0
  6
AUSGEZOGEN
 62
     3
 10
54.3578720118441368
 20
121.4049136622542022
 30
-0.000000000000027
 11
54.3578720118441368
 21
119.9049136622542022
 31
-0.0000000000000266
210
0.0
220
1.0
230
-0.0000000000000002
  0
LINE
  5
37CE
  8
0
  6
AUSGEZOGEN
 62
     3
 10
66.9139797158554899
 20
121.4049136622542022
 30
-0.000000000000027
 11
66.9139797158554899
 21
119.9049136622542022
 31
-0.0000000000000266
210
0.0
220
1.0
230
-0.0000000000000002
  0
LINE
  5
37CF
  8
0
  6
AUSGEZOGEN
 62
     3
 10
73.0179678355776787
 20
121.4049136622542022
 30
-0.000000000000027
 11
73.0179678355776787
 21
119.9049136622542022
 31
-0.0000000000000266
210
0.0
220
1.0
230
-0.0000000000000002
  0
LINE
  5
37D0
  8
0
  6
AUSGEZOGEN
 62
     3
 10
-73.0179678355774513
 20
121.4049136622542022
 30
-0.000000000000027
 11
-73.0179678355774513
 21
119.9049136622542022
 31
-0.0000000000000266
210
0.0
220
1.0
230
-0.0000000000000002
  0
LINE
  5
37D1
  8
0
  6
AUSGEZOGEN
 62
     3
 10
-66.9139797158552625
 20
121.4049136622542022
 30
-0.000000000000027
 11
-66.9139797158552625
 21
119.9049136622542022
 31
-0.0000000000000266
210
0.0
220
1.0
230
-0.0000000000000002
  0
LINE
  5
37D2
  8
0
  6
AUSGEZOGEN
 62
     3
 10
-54.3578720118440017
 20
121.4049136622542022
 30
-0.000000000000027
 11
-54.3578720118440017
 21
119.9049136622542022
 31
-0.0000000000000266
210
0.0
220
1.0
230
-0.0000000000000002
  0
LINE
  5
37D3
  8
0
  6
AUSGEZOGEN
 62
     3
 10
64.0
 20
0.0
 30
0.0
 11
-64.0
 21
0.0
 31
0.0
210
0.0
220
1.0
230
-0.0000000000000002
  0
LINE
  5
37D4
  8
0
  6
AUSGEZOGEN
 62
     3
 10
61.0000000000001208
 20
170.0
 30
-0.0000000000000377
 11
-61.0000000000001208
 21
170.0
 31
-0.0000000000000377
210
0.0
220
1.0
230
-0.0000000000000002
  0
LINE
  5
37D5
  8
0
  6
AUSGEZOGEN
 62
     3
 10
-64.0000000000001137
 20
0.0
 30
0.0
 11
-64.0000000000001137
 21
12.5314222700814408
 31
-0.0000000000000028
210
0.0
220
1.0
230
-0.0000000000000002
  0
LINE
  5
37D6
  8
0
  6
AUSGEZOGEN
 62
     3
 10
64.0000000000001137
 20
0.0
 30
0.0
 11
64.0000000000001137
 21
12.5314222700814408
 31
-0.0000000000000028
210
0.0
220
1.0
230
-0.0000000000000002
  0
ARC
  5
37D7
  8
0
  6
AUSGEZOGEN
 62
     3
 10
-48.0000000000035172
 20
12.5314222700820892
 30
0.0
 40
15.9999999999965894
210
0.0
220
-0.0000000000000002
230
-1.0
 50
159.9999999999984936
 51
180.0000000000023022
  0
ARC
  5
37D8
  8
0
  6
AUSGEZOGEN
 62
     3
 10
48.000000000003503
 20
12.5314222700820803
 30
0.0
 40
15.9999999999966107
210
0.0
220
-0.0000000000000002
230
-1.0
 50
359.9999999999977263
 51
20.0000000000014708
  0
LINE
  5
37D9
  8
0
  6
AUSGEZOGEN
 62
     3
 10
51.8443033089972616
 20
48.7501561376858277
 30
-0.0000000000000108
 11
63.0350819325747125
 21
18.003744563291999
 31
-0.000000000000004
210
0.0
220
1.0
230
-0.0000000000000002
  0
LINE
  5
37DA
  8
0
  6
AUSGEZOGEN
 62
     3
 10
-51.8443033089972616
 20
48.7501561376858277
 30
-0.0000000000000108
 11
-63.0350819325747125
 21
18.003744563291999
 31
-0.000000000000004
210
0.0
220
1.0
230
-0.0000000000000002
  0
ARC
  5
37DB
  8
0
  6
AUSGEZOGEN
 62
     3
 10
-64.9999999999957083
 20
53.5384381442444024
 30
0.0
 40
13.9999999999957101
210
0.0
220
-0.0000000000000002
230
-1.0
 50
339.999999999997101
 51
0.0000000000035241
  0
ARC
  5
37DC
  8
0
  6
AUSGEZOGEN
 62
     3
 10
64.9999999999957083
 20
53.5384381442444095
 30
0.0
 40
13.9999999999957101
210
0.0
220
-0.0000000000000002
230
-1.0
 50
179.9999999999965041
 51
200.000000000002899
  0
LINE
  5
37DD
  8
0
  6
AUSGEZOGEN
 62
     3
 10
-51.0
 20
53.5384381442452622
 30
-0.0000000000000119
 11
-51.0
 21
98.6829093658077454
 31
-0.0000000000000219
210
0.0
220
1.0
230
-0.0000000000000002
  0
LINE
  5
37DE
  8
0
  6
AUSGEZOGEN
 62
     3
 10
51.0
 20
53.5384381442452622
 30
-0.0000000000000119
 11
51.0
 21
98.6829093658077454
 31
-0.0000000000000219
210
0.0
220
1.0
230
-0.0000000000000002
  0
ARC
  5
37DF
  8
0
  6
AUSGEZOGEN
 62
     3
 10
-63.0000000000023377
 20
98.6829093658078449
 30
0.0
 40
12.0000000000023306
210
0.0
220
-0.0000000000000002
230
-1.0
 50
359.9999999999993747
 51
19.9913958989962097
  0
ARC
  5
37E0
  8
0
  6
AUSGEZOGEN
 62
     3
 10
63.0000000000025722
 20
98.682909365807788
 30
0.0
 40
12.0000000000025704
210
0.0
220
-0.0000000000000002
230
-1.0
 50
160.0086041010038116
 51
180.0000000000001137
  0
LINE
  5
37E1
  8
0
  6
AUSGEZOGEN
 62
     3
 10
-51.7230723441830804
 20
102.7854576769766055
 30
-0.0000000000000228
 11
-57.9540446567417504
 21
119.9049136622542022
 31
-0.0000000000000266
210
0.0
220
1.0
230
-0.0000000000000002
  0
LINE
  5
37E2
  8
0
  6
AUSGEZOGEN
 62
     3
 10
-58.5000000000000782
 20
121.4049136622542022
 30
-0.000000000000027
 11
-60.0350819588003688
 21
125.622516743960702
 31
-0.0000000000000279
210
0.0
220
1.0
230
-0.0000000000000002
  0
LINE
  5
37E3
  8
0
  6
AUSGEZOGEN
 62
     3
 10
51.7230723441830804
 20
102.7854576769766055
 30
-0.0000000000000228
 11
57.9540446567417504
 21
119.9049136622542022
 31
-0.0000000000000266
210
0.0
220
1.0
230
-0.0000000000000002
  0
LINE
  5
37E4
  8
0
  6
AUSGEZOGEN
 62
     3
 10
58.5000000000000782
 20
121.4049136622542022
 30
-0.000000000000027
 11
60.0350819588003688
 21
125.622516743960702
 31
-0.0000000000000279
210
0.0
220
1.0
230
-0.0000000000000002
  0
ARC
  5
37E5
  8
0
  6
AUSGEZOGEN
 62
     3
 10
-44.9999999999943583
 20
131.0948389651179014
 30
0.0
 40
16.0000000000057483
210
0.0
220
-0.0000000000000002
230
-1.0
 50
180.0000000000042917
 51
199.9999997254105892
  0
ARC
  5
37E6
  8
0
  6
AUSGEZOGEN
 62
     3
 10
44.999999999994813
 20
131.0948389651177877
 30
0.0
 40
16.00000000000529
210
0.0
220
-0.0000000000000002
230
-1.0
 50
340.0000002745891265
 51
359.9999999999959073
  0
LINE
  5
37E7
  8
0
  6
AUSGEZOGEN
 62
     3
 10
-61.0000000000001208
 20
131.0948389651167076
 30
-0.0000000000000291
 11
-61.0000000000001208
 21
170.0
 31
-0.0000000000000377
210
0.0
220
1.0
230
-0.0000000000000002
  0
LINE
  5
37E8
  8
0
  6
AUSGEZOGEN
 62
     3
 10
61.0000000000001208
 20
131.0948389651167076
 30
-0.0000000000000291
 11
61.0000000000001208
 21
170.0
 31
-0.0000000000000377
210
0.0
220
1.0
230
-0.0000000000000002
  0
LINE
  5
37E9
  8
0
  6
AUSGEZOGEN
 62
     3
 10
61.0000000000001208
 20
170.0000000000001137
 30
-0.0000000000000377
 11
-61.0000000000001208
 21
170.0000000000001137
 31
-0.0000000000000377
210
0.0
220
1.0
230
-0.0000000000000002
  0
LINE
  5
37EA
  8
0
  6
AUSGEZOGEN
 62
     3
 10
-15.4919333848296201
 20
185.000000000000199
 30
-0.0000000000000411
 11
15.4919333848296201
 21
185.000000000000199
 31
-0.0000000000000411
210
0.0
220
1.0
230
-0.0000000000000002
  0
LINE
  5
37EB
  8
0
  6
AUSGEZOGEN
 62
     3
 10
15.4919333848296201
 20
192.000000000000199
 30
-0.0000000000000426
 11
-15.4919333848296201
 21
192.000000000000199
 31
-0.0000000000000426
210
0.0
220
1.0
230
-0.0000000000000002
  0
LINE
  5
37EC
  8
0
  6
AUSGEZOGEN
 62
     3
 10
15.4919333848296201
 20
192.0000000000003126
 30
-0.0000000000000426
 11
15.4919333848296201
 21
185.0000000000003126
 31
-0.0000000000000411
210
0.0
220
1.0
230
-0.0000000000000002
  0
LINE
  5
37ED
  8
0
  6
AUSGEZOGEN
 62
     3
 10
-15.4919333848296201
 20
185.0000000000003126
 30
-0.0000000000000411
 11
-15.4919333848296201
 21
192.0000000000003126
 31
-0.0000000000000426
210
0.0
220
1.0
230
-0.0000000000000002
  0
LINE
  5
37EE
  8
0
  6
AUSGEZOGEN
 62
     3
 10
59.0
 20
185.000000000000199
 30
-0.0000000000000411
 11
61.0
 21
185.000000000000199
 31
-0.0000000000000411
210
0.0
220
1.0
230
-0.0000000000000002
  0
LINE
  5
37EF
  8
0
  6
AUSGEZOGEN
 62
     3
 10
61.0
 20
192.000000000000199
 30
-0.0000000000000426
 11
59.0
 21
192.000000000000199
 31
-0.0000000000000426
210
0.0
220
1.0
230
-0.0000000000000002
  0
LINE
  5
37F0
  8
0
  6
AUSGEZOGEN
 62
     3
 10
59.0
 20
185.000000000000199
 30
-0.0000000000000411
 11
59.0
 21
192.000000000000199
 31
-0.0000000000000426
210
0.0
220
1.0
230
-0.0000000000000002
  0
LINE
  5
37F1
  8
0
  6
AUSGEZOGEN
 62
     3
 10
-60.9999999999999929
 20
185.000000000000199
 30
-0.0000000000000411
 11
-59.0
 21
185.000000000000199
 31
-0.0000000000000411
210
0.0
220
1.0
230
-0.0000000000000002
  0
LINE
  5
37F2
  8
0
  6
AUSGEZOGEN
 62
     3
 10
-59.0
 20
192.000000000000199
 30
-0.0000000000000426
 11
-61.0
 21
192.000000000000199
 31
-0.0000000000000426
210
0.0
220
1.0
230
-0.0000000000000002
  0
LINE
  5
37F3
  8
0
  6
AUSGEZOGEN
 62
     3
 10
-59.0
 20
192.000000000000199
 30
-0.0000000000000426
 11
-59.0
 21
185.000000000000199
 31
-0.0000000000000411
210
0.0
220
1.0
230
-0.0000000000000002
  0
LINE
  5
37F4
  8
0
  6
AUSGEZOGEN
 62
     3
 10
-61.0
 20
200.0000000000001137
 30
-0.0000000000000444
 11
61.0
 21
200.0000000000001137
 31
-0.0000000000000444
210
0.0
220
1.0
230
-0.0000000000000002
  0
LINE
  5
37F5
  8
0
  6
AUSGEZOGEN
 62
     3
 10
61.0000000000001208
 20
200.0000000000001137
 30
-0.0000000000000444
 11
61.0000000000001208
 21
192.000000000000199
 31
-0.0000000000000426
210
0.0
220
1.0
230
-0.0000000000000002
  0
LINE
  5
37F6
  8
0
  6
AUSGEZOGEN
 62
     3
 10
61.0000000000001208
 20
185.000000000000199
 30
-0.0000000000000411
 11
61.0000000000001208
 21
170.0000000000001137
 31
-0.0000000000000377
210
0.0
220
1.0
230
-0.0000000000000002
  0
LINE
  5
37F7
  8
0
  6
AUSGEZOGEN
 62
     3
 10
-61.0000000000001208
 20
200.0000000000001137
 30
-0.0000000000000444
 11
-61.0000000000001208
 21
192.000000000000199
 31
-0.0000000000000426
210
0.0
220
1.0
230
-0.0000000000000002
  0
LINE
  5
37F8
  8
0
  6
AUSGEZOGEN
 62
     3
 10
-61.0000000000001208
 20
185.000000000000199
 30
-0.0000000000000411
 11
-61.0000000000001208
 21
170.0000000000001137
 31
-0.0000000000000377
210
0.0
220
1.0
230
-0.0000000000000002
  0
LINE
  5
37F9
  8
0
  6
VERDECKT
 62
     1
 10
58.5000000000001208
 20
121.4049136622542022
 30
-0.000000000000027
 11
58.5000000000001208
 21
119.9049136622542022
 31
-0.0000000000000266
210
0.0
220
1.0
230
-0.0000000000000002
  0
LINE
  5
37FA
  8
0
  6
VERDECKT
 62
     1
 10
-58.4999999999998792
 20
121.4049136622542022
 30
-0.000000000000027
 11
-58.4999999999998792
 21
119.9049136622542022
 31
-0.0000000000000266
210
0.0
220
1.0
230
-0.0000000000000002
  0
LINE
  5
37FB
  8
0
  6
VERDECKT
 62
     1
 10
52.7996301259340513
 20
121.4049136622542022
 30
-0.000000000000027
 11
52.7996301259340513
 21
119.9049136622542022
 31
-0.0000000000000266
210
0.0
220
1.0
230
-0.0000000000000002
  0
LINE
  5
37FC
  8
0
  6
VERDECKT
 62
     1
 10
62.245258333627838
 20
121.4049136622542022
 30
-0.000000000000027
 11
62.245258333627838
 21
119.9049136622542022
 31
-0.0000000000000266
210
0.0
220
1.0
230
-0.0000000000000002
  0
LINE
  5
37FD
  8
0
  6
VERDECKT
 62
     1
 10
65.5000000000000995
 20
121.4049136622542022
 30
-0.000000000000027
 11
65.5000000000000995
 21
119.9049136622542022
 31
-0.0000000000000266
210
0.0
220
1.0
230
-0.0000000000000002
  0
LINE
  5
37FE
  8
0
  6
VERDECKT
 62
     1
 10
-65.4999999999998721
 20
121.4049136622542022
 30
-0.000000000000027
 11
-65.4999999999998721
 21
119.9049136622542022
 31
-0.0000000000000266
210
0.0
220
1.0
230
-0.0000000000000002
  0
LINE
  5
37FF
  8
0
  6
VERDECKT
 62
     1
 10
-62.2452583336276604
 20
121.4049136622542022
 30
-0.000000000000027
 11
-62.2452583336276604
 21
119.9049136622542022
 31
-0.0000000000000266
210
0.0
220
1.0
230
-0.0000000000000002
  0
LINE
  5
3800
  8
0
  6
VERDECKT
 62
     1
 10
-52.7996301259339589
 20
121.4049136622542022
 30
-0.000000000000027
 11
-52.7996301259339589
 21
119.9049136622542022
 31
-0.0000000000000266
210
0.0
220
1.0
230
-0.0000000000000002
  0
LINE
  5
3801
  8
0
  6
VERDECKT
 62
     1
 10
-57.9540446567417504
 20
119.9049136622542022
 30
-0.0000000000000266
 11
-58.5000000000000782
 21
121.4049136622542022
 31
-0.000000000000027
210
0.0
220
1.0
230
-0.0000000000000002
  0
LINE
  5
3802
  8
0
  6
VERDECKT
 62
     1
 10
57.9540446567417504
 20
119.9049136622542022
 30
-0.0000000000000266
 11
58.5000000000000782
 21
121.4049136622542022
 31
-0.000000000000027
210
0.0
220
1.0
230
-0.0000000000000002
  0
LINE
  5
3803
  8
0
  6
VERDECKT
 62
     1
 10
-59.0000000000001066
 20
131.0948390201911877
 30
-0.0000000000000291
 11
-59.0000000000001066
 21
170.0
 31
-0.0000000000000377
210
0.0
220
1.0
230
-0.0000000000000002
  0
LINE
  5
3804
  8
0
  6
VERDECKT
 62
     1
 10
59.0000000000001066
 20
131.0948390201911877
 30
-0.0000000000000291
 11
59.0000000000001066
 21
170.0
 31
-0.0000000000000377
210
0.0
220
1.0
230
-0.0000000000000002
  0
ARC
  5
3805
  8
0
  6
VERDECKT
 62
     1
 10
-44.9999999999971365
 20
131.0948390201916141
 30
0.0
 40
14.0000000000029701
210
0.0
220
-0.0000000000000002
230
-1.0
 50
180.0000000000015064
 51
199.9999999999974989
  0
ARC
  5
3806
  8
0
  6
VERDECKT
 62
     1
 10
44.9999999999971365
 20
131.0948390201916141
 30
0.0
 40
14.0000000000029701
210
0.0
220
-0.0000000000000002
230
-1.0
 50
340.0000000000023874
 51
359.9999999999984084
  0
LINE
  5
3807
  8
0
  6
VERDECKT
 62
     1
 10
-49.8443033089973682
 20
103.4711913723677981
 30
-0.000000000000023
 11
-58.1556966910028379
 21
126.306557013631803
 31
-0.000000000000028
210
0.0
220
1.0
230
-0.0000000000000002
  0
LINE
  5
3808
  8
0
  6
VERDECKT
 62
     1
 10
49.8443033089973682
 20
103.4711913723677981
 30
-0.000000000000023
 11
58.1556966910028379
 21
126.306557013631803
 31
-0.000000000000028
210
0.0
220
1.0
230
-0.0000000000000002
  0
ARC
  5
3809
  8
0
  6
VERDECKT
 62
     1
 10
-63.0000000000021814
 20
98.6829093658077738
 30
0.0
 40
14.0000000000021796
210
0.0
220
-0.0000000000000002
230
-1.0
 50
359.9999999999997726
 51
19.9999999999996412
  0
ARC
  5
380A
  8
0
  6
VERDECKT
 62
     1
 10
63.0000000000024727
 20
98.6829093658077312
 30
0.0
 40
14.0000000000024691
210
0.0
220
-0.0000000000000002
230
-1.0
 50
160.0000000000005969
 51
179.9999999999998863
  0
LINE
  5
380B
  8
0
  6
VERDECKT
 62
     1
 10
-49.0
 20
53.5384381442452622
 30
-0.0000000000000119
 11
-49.0
 21
98.6829093658077454
 31
-0.0000000000000219
210
0.0
220
1.0
230
-0.0000000000000002
  0
LINE
  5
380C
  8
0
  6
VERDECKT
 62
     1
 10
49.0
 20
53.5384381442452622
 30
-0.0000000000000119
 11
49.0
 21
98.6829093658077454
 31
-0.0000000000000219
210
0.0
220
1.0
230
-0.0000000000000002
  0
ARC
  5
380D
  8
0
  6
VERDECKT
 62
     1
 10
-65.0000000000012221
 20
53.5384381442456032
 30
0.0
 40
16.0000000000012186
210
0.0
220
-0.0000000000000002
230
-1.0
 50
340.0000000000002842
 51
359.9999999999988063
  0
ARC
  5
380E
  8
0
  6
VERDECKT
 62
     1
 10
65.0000000000011937
 20
53.5384381442456103
 30
0.0
 40
16.0000000000012115
210
0.0
220
-0.0000000000000002
230
-1.0
 50
180.0000000000011084
 51
199.9999999999996874
  0
LINE
  5
380F
  8
0
  6
VERDECKT
 62
     1
 10
49.9649180674255575
 20
48.0661158510345672
 30
-0.0000000000000107
 11
61.1556966910026674
 21
17.3197042766410014
 31
-0.0000000000000038
210
0.0
220
1.0
230
-0.0000000000000002
  0
LINE
  5
3810
  8
0
  6
VERDECKT
 62
     1
 10
-49.9649180674255575
 20
48.0661158510345672
 30
-0.0000000000000107
 11
-61.1556966910026674
 21
17.3197042766410014
 31
-0.0000000000000038
210
0.0
220
1.0
230
-0.0000000000000002
  0
ARC
  5
3811
  8
0
  6
VERDECKT
 62
     1
 10
-48.0000000000003411
 20
12.5314222700813591
 30
0.0
 40
13.9999999999996696
210
0.0
220
-0.0000000000000002
230
-1.0
 50
159.9999999999984084
 51
179.9999999999990052
  0
ARC
  5
3812
  8
0
  6
VERDECKT
 62
     1
 10
48.0000000000003411
 20
12.5314222700813591
 30
0.0
 40
13.9999999999996696
210
0.0
220
-0.0000000000000002
230
-1.0
 50
0.0000000000010178
 51
20.0000000000016094
  0
LINE
  5
3813
  8
0
  6
VERDECKT
 62
     1
 10
-62.0000000000001066
 20
0.0000000000000284
 30
0.0
 11
-62.0000000000001066
 21
12.5314222700816096
 31
-0.0000000000000028
210
0.0
220
1.0
230
-0.0000000000000002
  0
LINE
  5
3814
  8
0
  6
VERDECKT
 62
     1
 10
62.0000000000001066
 20
0.0000000000000284
 30
0.0
 11
62.0000000000001066
 21
12.5314222700816096
 31
-0.0000000000000028
210
0.0
220
1.0
230
-0.0000000000000002
  0
LINE
  5
3815
  8
0
  6
VERDECKT
 62
     1
 10
-15.2315462117281903
 20
192.0000000000001137
 30
-0.0000000000000426
 11
-15.2315462117281903
 21
185.0000000000001137
 31
-0.0000000000000411
210
0.0
220
1.0
230
-0.0000000000000002
  0
LINE
  5
3816
  8
0
  6
VERDECKT
 62
     1
 10
15.2315462117281903
 20
185.0000000000001137
 30
-0.0000000000000411
 11
15.2315462117281903
 21
192.0000000000001137
 31
-0.0000000000000426
210
0.0
220
1.0
230
-0.0000000000000002
  0
LINE
  5
3817
  8
0
  6
VERDECKT
 62
     1
 10
59.0
 20
185.0000000000001137
 30
-0.0000000000000411
 11
57.0
 21
185.0000000000001137
 31
-0.0000000000000411
210
0.0
220
1.0
230
-0.0000000000000002
  0
LINE
  5
3818
  8
0
  6
VERDECKT
 62
     1
 10
57.0
 20
192.0000000000001137
 30
-0.0000000000000426
 11
57.0
 21
185.0000000000001137
 31
-0.0000000000000411
210
0.0
220
1.0
230
-0.0000000000000002
  0
LINE
  5
3819
  8
0
  6
VERDECKT
 62
     1
 10
57.0
 20
192.0000000000001137
 30
-0.0000000000000426
 11
59.0
 21
192.0000000000001137
 31
-0.0000000000000426
210
0.0
220
1.0
230
-0.0000000000000002
  0
LINE
  5
381A
  8
0
  6
VERDECKT
 62
     1
 10
-57.0
 20
185.0000000000001137
 30
-0.0000000000000411
 11
-59.0
 21
185.0000000000001137
 31
-0.0000000000000411
210
0.0
220
1.0
230
-0.0000000000000002
  0
LINE
  5
381B
  8
0
  6
VERDECKT
 62
     1
 10
-57.0
 20
185.0000000000001137
 30
-0.0000000000000411
 11
-57.0
 21
192.0000000000001137
 31
-0.0000000000000426
210
0.0
220
1.0
230
-0.0000000000000002
  0
LINE
  5
381C
  8
0
  6
VERDECKT
 62
     1
 10
-59.0000000000000071
 20
192.0000000000001137
 30
-0.0000000000000426
 11
-57.0000000000000071
 21
192.0000000000001137
 31
-0.0000000000000426
210
0.0
220
1.0
230
-0.0000000000000002
  0
LINE
  5
381D
  8
0
  6
VERDECKT
 62
     1
 10
59.0
 20
200.0000000000001137
 30
-0.0000000000000444
 11
59.0
 21
192.000000000000199
 31
-0.0000000000000426
210
0.0
220
1.0
230
-0.0000000000000002
  0
LINE
  5
381E
  8
0
  6
VERDECKT
 62
     1
 10
59.0
 20
185.000000000000199
 30
-0.0000000000000411
 11
59.0
 21
170.0000000000001137
 31
-0.0000000000000377
210
0.0
220
1.0
230
-0.0000000000000002
  0
LINE
  5
381F
  8
0
  6
VERDECKT
 62
     1
 10
-59.0
 20
200.0000000000001137
 30
-0.0000000000000444
 11
-59.0
 21
192.000000000000199
 31
-0.0000000000000426
210
0.0
220
1.0
230
-0.0000000000000002
  0
LINE
  5
3820
  8
0
  6
VERDECKT
 62
     1
 10
-59.0
 20
185.000000000000199
 30
-0.0000000000000411
 11
-59.0
 21
170.0000000000001137
 31
-0.0000000000000377
210
0.0
220
1.0
230
-0.0000000000000002
  0
LINE
  5
3821
  8
0
  6
VERDECKT
 62
     1
 10
24.6914264549235405
 20
192.0000000000003126
 30
-0.0000000000000426
 11
17.6914264549235405
 21
187.000000000000199
 31
-0.0000000000000415
210
0.0
220
1.0
230
-0.0000000000000002
  0
LINE
  5
3822
  8
0
  6
VERDECKT
 62
     1
 10
20.2895026662766895
 20
187.000000000000199
 30
-0.0000000000000415
 11
27.2895026662766895
 21
192.0000000000003126
 31
-0.0000000000000426
210
0.0
220
1.0
230
-0.0000000000000002
  0
LINE
  5
3823
  8
0
  6
VERDECKT
 62
     1
 10
20.2895026662766895
 20
187.000000000000199
 30
-0.0000000000000415
 11
17.6914264549234304
 21
187.000000000000199
 31
-0.0000000000000415
210
0.0
220
1.0
230
-0.0000000000000002
  0
LINE
  5
3824
  8
0
  6
VERDECKT
 62
     1
 10
17.6914264549234304
 20
187.000000000000199
 30
-0.0000000000000415
 11
14.1914264549234304
 21
187.0000000000003126
 31
-0.0000000000000415
210
0.0
220
1.0
230
-0.0000000000000002
  0
LINE
  5
3825
  8
0
  6
VERDECKT
 62
     1
 10
14.1914264549235405
 20
187.0000000000003126
 30
-0.0000000000000415
 11
14.1914264549235405
 21
179.8000000000004093
 31
-0.0000000000000399
210
0.0
220
1.0
230
-0.0000000000000002
  0
LINE
  5
3826
  8
0
  6
VERDECKT
 62
     1
 10
16.7895026662766895
 20
179.8000000000002956
 30
-0.0000000000000399
 11
16.7895026662766895
 21
187.000000000000199
 31
-0.0000000000000415
210
0.0
220
1.0
230
-0.0000000000000002
  0
LINE
  5
3827
  8
0
  6
VERDECKT
 62
     1
 10
14.1914264549234304
 20
179.8000000000004093
 30
-0.0000000000000399
 11
17.6914264549235405
 21
179.8000000000004093
 31
-0.0000000000000399
210
0.0
220
1.0
230
-0.0000000000000002
  0
LINE
  5
3828
  8
0
  6
VERDECKT
 62
     1
 10
20.2895026662767997
 20
179.8000000000004093
 30
-0.0000000000000399
 11
17.6914264549235405
 21
179.8000000000004093
 31
-0.0000000000000399
210
0.0
220
1.0
230
-0.0000000000000002
  0
LINE
  5
3829
  8
0
  6
VERDECKT
 62
     1
 10
17.6914264549233202
 20
179.8000000000004945
 30
-0.0000000000000399
 11
24.6914264549233202
 21
174.8000000000004945
 31
-0.0000000000000388
210
0.0
220
1.0
230
-0.0000000000000002
  0
LINE
  5
382A
  8
0
  6
VERDECKT
 62
     1
 10
27.2895026662766895
 20
174.8000000000002956
 30
-0.0000000000000388
 11
20.2895026662766895
 21
179.8000000000002956
 31
-0.0000000000000399
210
0.0
220
1.0
230
-0.0000000000000002
  0
LINE
  5
382B
  8
0
  6
VERDECKT
 62
     1
 10
24.6914264549233202
 20
174.8000000000004093
 30
-0.0000000000000388
 11
28.1914264549233202
 21
174.8000000000002956
 31
-0.0000000000000388
210
0.0
220
1.0
230
-0.0000000000000002
  0
LINE
  5
382C
  8
0
  6
VERDECKT
 62
     1
 10
30.7895026662765794
 20
174.8000000000002956
 30
-0.0000000000000388
 11
28.1914264549233202
 21
174.8000000000002956
 31
-0.0000000000000388
210
0.0
220
1.0
230
-0.0000000000000002
  0
LINE
  5
382D
  8
0
  6
VERDECKT
 62
     1
 10
28.1914264549233202
 20
174.8000000000002103
 30
-0.0000000000000388
 11
28.1914264549233202
 21
177.3000000000002103
 31
-0.0000000000000394
210
0.0
220
1.0
230
-0.0000000000000002
  0
LINE
  5
382E
  8
0
  6
VERDECKT
 62
     1
 10
30.7895026662765794
 20
177.3000000000002956
 30
-0.0000000000000394
 11
30.7895026662765794
 21
174.8000000000002956
 31
-0.0000000000000388
210
0.0
220
1.0
230
-0.0000000000000002
  0
LINE
  5
382F
  8
0
  6
VERDECKT
 62
     1
 10
30.7895026662765794
 20
177.3000000000002956
 30
-0.0000000000000394
 11
28.1914264549233202
 21
177.3000000000002956
 31
-0.0000000000000394
210
0.0
220
1.0
230
-0.0000000000000002
  0
LINE
  5
3830
  8
0
  6
VERDECKT
 62
     1
 10
28.1914264549233202
 20
177.3000000000002956
 30
-0.0000000000000394
 11
27.1914264549233202
 21
178.4547005383795977
 31
-0.0000000000000396
210
0.0
220
1.0
230
-0.0000000000000002
  0
LINE
  5
3831
  8
0
  6
VERDECKT
 62
     1
 10
29.7895026662766895
 20
178.4547005383795977
 30
-0.0000000000000396
 11
30.7895026662766895
 21
177.3000000000002956
 31
-0.0000000000000394
210
0.0
220
1.0
230
-0.0000000000000002
  0
LINE
  5
3832
  8
0
  6
VERDECKT
 62
     1
 10
29.7895026662766895
 20
178.4547005383795977
 30
-0.0000000000000396
 11
27.1914264549234304
 21
178.4547005383795977
 31
-0.0000000000000396
210
0.0
220
1.0
230
-0.0000000000000002
  0
LINE
  5
3833
  8
0
  6
VERDECKT
 62
     1
 10
27.1914264549233202
 20
178.4547005383795977
 30
-0.0000000000000396
 11
27.1914264549233202
 21
188.3452994616210106
 31
-0.0000000000000418
210
0.0
220
1.0
230
-0.0000000000000002
  0
LINE
  5
3834
  8
0
  6
VERDECKT
 62
     1
 10
29.7895026662766895
 20
188.3452994616208969
 30
-0.0000000000000418
 11
29.7895026662766895
 21
178.4547005383795124
 31
-0.0000000000000396
210
0.0
220
1.0
230
-0.0000000000000002
  0
LINE
  5
3835
  8
0
  6
VERDECKT
 62
     1
 10
29.7895026662766895
 20
188.3452994616208969
 30
-0.0000000000000418
 11
27.1914264549234304
 21
188.3452994616208969
 31
-0.0000000000000418
210
0.0
220
1.0
230
-0.0000000000000002
  0
LINE
  5
3836
  8
0
  6
VERDECKT
 62
     1
 10
27.1914264549233202
 20
188.3452994616210106
 30
-0.0000000000000418
 11
28.1914264549233202
 21
189.5000000000003979
 31
-0.0000000000000421
210
0.0
220
1.0
230
-0.0000000000000002
  0
LINE
  5
3837
  8
0
  6
VERDECKT
 62
     1
 10
30.7895026662766895
 20
189.500000000000199
 30
-0.0000000000000421
 11
29.7895026662766895
 21
188.3452994616208969
 31
-0.0000000000000418
210
0.0
220
1.0
230
-0.0000000000000002
  0
LINE
  5
3838
  8
0
  6
VERDECKT
 62
     1
 10
30.7895026662766895
 20
189.500000000000199
 30
-0.0000000000000421
 11
28.1914264549234304
 21
189.500000000000199
 31
-0.0000000000000421
210
0.0
220
1.0
230
-0.0000000000000002
  0
LINE
  5
3839
  8
0
  6
VERDECKT
 62
     1
 10
28.1914264549233202
 20
189.5000000000003979
 30
-0.0000000000000421
 11
28.1914264549233202
 21
192.0000000000003979
 31
-0.0000000000000426
210
0.0
220
1.0
230
-0.0000000000000002
  0
LINE
  5
383A
  8
0
  6
VERDECKT
 62
     1
 10
30.7895026662766895
 20
192.0000000000003126
 30
-0.0000000000000426
 11
30.7895026662766895
 21
189.500000000000199
 31
-0.0000000000000421
210
0.0
220
1.0
230
-0.0000000000000002
  0
LINE
  5
383B
  8
0
  6
VERDECKT
 62
     1
 10
30.7895026662766895
 20
192.0000000000003126
 30
-0.0000000000000426
 11
28.1914264549234304
 21
192.0000000000003126
 31
-0.0000000000000426
210
0.0
220
1.0
230
-0.0000000000000002
  0
LINE
  5
383C
  8
0
  6
VERDECKT
 62
     1
 10
28.1914264549233202
 20
192.0000000000003979
 30
-0.0000000000000426
 11
24.6914264549233202
 21
192.0000000000003126
 31
-0.0000000000000426
210
0.0
220
1.0
230
-0.0000000000000002
  0
LINE
  5
383D
  8
0
  6
VERDECKT
 62
     1
 10
35.8875793553185076
 20
2.0000000000000568
 30
-0.0000000000000004
 11
-35.8875793553185076
 21
2.0000000000000568
 31
-0.0000000000000004
210
0.0
220
1.0
230
-0.0000000000000002
  0
LINE
  5
383E
  8
0
  6
VERDECKT
 62
     1
 10
59.0000000000001066
 20
138.8686291501016115
 30
-0.0000000000000308
 11
-59.0000000000001066
 21
138.8686291501016115
 31
-0.0000000000000308
210
0.0
220
1.0
230
-0.0000000000000002
  0
LINE
  5
383F
  8
0
  6
VERDECKT
 62
     1
 10
57.8686291501016967
 20
140.0
 30
-0.0000000000000311
 11
-57.8686291501016967
 21
140.0
 31
-0.0000000000000311
210
0.0
220
1.0
230
-0.0000000000000002
  0
LINE
  5
3840
  8
0
  6
VERDECKT
 62
     1
 10
-35.8875793553185716
 20
2.0000000000000511
 30
-0.0000000000000004
 11
-36.5000000000000568
 21
9.0000000000001403
 31
-0.000000000000002
210
0.0
220
1.0
230
-0.0000000000000002
  0
LINE
  5
3841
  8
0
  6
VERDECKT
 62
     1
 10
35.8875793553185716
 20
2.0000000000000511
 30
-0.0000000000000004
 11
36.5000000000000568
 21
9.0000000000001403
 31
-0.000000000000002
210
0.0
220
1.0
230
-0.0000000000000002
  0
LINE
  5
3842
  8
0
  6
VERDECKT
 62
     1
 10
-36.5000000000001066
 20
9.0000000000001439
 30
-0.000000000000002
 11
-36.5000000000001066
 21
111.3980664016243054
 31
-0.0000000000000247
210
0.0
220
1.0
230
-0.0000000000000002
  0
LINE
  5
3843
  8
0
  6
VERDECKT
 62
     1
 10
36.5000000000001066
 20
9.0000000000001439
 30
-0.000000000000002
 11
36.5000000000001066
 21
111.3980664016243054
 31
-0.0000000000000247
210
0.0
220
1.0
230
-0.0000000000000002
  0
ARC
  5
3844
  8
0
  6
VERDECKT
 62
     1
 10
-48.5000000000003624
 20
111.3980664016243054
 30
0.0
 40
12.0000000000002505
210
0.0
220
-0.0000000000000002
230
-1.0
 50
0.0
 51
44.9999999999988773
  0
ARC
  5
3845
  8
0
  6
VERDECKT
 62
     1
 10
48.5000000000003624
 20
111.3980664016243054
 30
0.0
 40
12.0000000000002505
210
0.0
220
-0.0000000000000002
230
-1.0
 50
135.0000000000009948
 51
179.9999999999998863
  0
LINE
  5
3846
  8
0
  6
VERDECKT
 62
     1
 10
-40.0147186257614678
 20
119.8833477758629016
 30
-0.0000000000000266
 11
-59.0000000000001066
 21
138.8686291501016115
 31
-0.0000000000000308
210
0.0
220
1.0
230
-0.0000000000000002
  0
LINE
  5
3847
  8
0
  6
VERDECKT
 62
     1
 10
40.0147186257614678
 20
119.8833477758629016
 30
-0.0000000000000266
 11
59.0000000000001066
 21
138.8686291501016115
 31
-0.0000000000000308
210
0.0
220
1.0
230
-0.0000000000000002
  0
LINE
  5
3848
  8
0
  6
VERDECKT
 62
     1
 10
57.868629150101718
 20
140.0
 30
-0.0000000000000311
 11
59.0000000000001421
 21
138.8686291501016115
 31
-0.0000000000000308
210
0.0
220
1.0
230
-0.0000000000000002
  0
LINE
  5
3849
  8
0
  6
VERDECKT
 62
     1
 10
-57.868629150101718
 20
140.0
 30
-0.0000000000000311
 11
-59.0000000000001421
 21
138.8686291501016115
 31
-0.0000000000000308
210
0.0
220
1.0
230
-0.0000000000000002
  0
LINE
  5
384A
  8
0
  6
VERDECKT
 62
     1
 10
-38.8833477758630721
 20
121.0147186257615033
 30
-0.0000000000000269
 11
-57.8686291501017109
 21
139.9999999999998863
 31
-0.0000000000000311
210
0.0
220
1.0
230
-0.0000000000000002
  0
LINE
  5
384B
  8
0
  6
VERDECKT
 62
     1
 10
38.8833477758630721
 20
121.0147186257615033
 30
-0.0000000000000269
 11
57.8686291501017109
 21
139.9999999999998863
 31
-0.0000000000000311
210
0.0
220
1.0
230
-0.0000000000000002
  0
ARC
  5
384C
  8
0
  6
VERDECKT
 62
     1
 10
-48.5000000000002203
 20
111.3980664016244049
 30
0.0
 40
13.6000000000001293
210
0.0
220
-0.0000000000000002
230
-1.0
 50
0.0000000000004834
 51
44.9999999999998934
  0
ARC
  5
384D
  8
0
  6
VERDECKT
 62
     1
 10
48.5000000000002487
 20
111.3980664016244049
 30
0.0
 40
13.6000000000001506
210
0.0
220
-0.0000000000000002
230
-1.0
 50
135.000000000000199
 51
179.9999999999994031
  0
LINE
  5
384E
  8
0
  6
VERDECKT
 62
     1
 10
-34.8999999999999773
 20
9.0698575086543958
 30
-0.000000000000002
 11
-34.8999999999999773
 21
111.3980664016245044
 31
-0.0000000000000247
210
0.0
220
1.0
230
-0.0000000000000002
  0
LINE
  5
384F
  8
0
  6
VERDECKT
 62
     1
 10
34.8999999999999773
 20
9.0698575086543958
 30
-0.000000000000002
 11
34.8999999999999773
 21
111.3980664016245044
 31
-0.0000000000000247
210
0.0
220
1.0
230
-0.0000000000000002
  0
LINE
  5
3850
  8
0
  6
VERDECKT
 62
     1
 10
-34.2814676152490918
 20
2.0000000000000568
 30
-0.0000000000000004
 11
-34.8999999999998565
 21
9.0698575086543958
 31
-0.000000000000002
210
0.0
220
1.0
230
-0.0000000000000002
  0
LINE
  5
3851
  8
0
  6
VERDECKT
 62
     1
 10
34.2814676152490918
 20
2.0000000000000568
 30
-0.0000000000000004
 11
34.8999999999998565
 21
9.0698575086543958
 31
-0.000000000000002
210
0.0
220
1.0
230
-0.0000000000000002
  0
ENDBLK
  5
3853
  8
0
  0
BLOCK
  8
0
  2
A$C416F689B
 70
     0
 10
0.0
 20
0.0
 30
0.0
  3
A$C416F689B
  1

  0
LINE
  5
3857
  8
0
  6
AUSGEZOGEN
 62
     3
 10
29.7386787763913105
 20
-66.8049862400437036
 30
0.0
 11
21.0036206256736797
 21
-62.3542518094393401
 31
-0.0000000000000019
  0
ARC
  5
3858
  8
0
  6
AUSGEZOGEN
 62
     3
 10
30.1926692761308892
 20
-65.9139797158551346
 30
0.0
 40
1.000000000000181
 50
243.0000000000040927
 51
294.6107016166262156
  0
ARC
  5
3859
  8
0
  6
AUSGEZOGEN
 62
     3
 10
-0.000000000033397
 20
0.0000000000666489
 30
0.0
 40
73.5000000000745501
 50
294.6107016166346853
 51
299.3892983833645758
  0
ARC
  5
385A
  8
0
  6
AUSGEZOGEN
 62
     3
 10
35.5787240291588489
 20
-63.1696477468170201
 30
0.0000000000000142
 40
1.0000000000001159
 50
299.3892983833682138
 51
350.9999999999957936
  0
LINE
  5
385B
  8
0
  6
AUSGEZOGEN
 62
     3
 10
38.1000309368544379
 20
-53.6431956608938094
 30
0.0000000000000142
 11
36.5664123697540902
 21
-63.3260822118573401
 31
0.0000000000000139
  0
ARC
  5
385C
  8
0
  6
AUSGEZOGEN
 62
     3
 10
39.0877192774495725
 20
-53.799630125934037
 30
0.0000000000000142
 40
0.9999999999999861
 50
81.0000000000012932
 51
170.9999999999996874
  0
LINE
  5
385D
  8
0
  6
AUSGEZOGEN
 62
     3
 10
48.9270402934534232
 20
-54.3455603524392075
 30
0.0000000000000142
 11
39.2441537424897717
 21
-52.8119417853389095
 31
0.0000000000000121
  0
ARC
  5
385E
  8
0
  6
AUSGEZOGEN
 62
     3
 10
49.0834747584936721
 20
-53.3578720118442504
 30
0.0000000000000142
 40
0.9999999999998268
 50
260.9999999999964757
 51
312.6107016166380959
  0
ARC
  5
385F
  8
0
  6
AUSGEZOGEN
 62
     3
 10
-0.0000000000182198
 20
0.000000000018332
 30
0.0
 40
73.5000000000259064
 50
312.6107016166333779
 51
317.3892983833665085
  0
ARC
  5
3860
  8
0
  6
AUSGEZOGEN
 62
     3
 10
53.3578720118438525
 20
-49.0834747584934519
 30
0.0000000000000142
 40
1.000000000000318
 50
317.3892983833791277
 51
8.9999999999940457
  0
LINE
  5
3861
  8
0
  6
AUSGEZOGEN
 62
     3
 10
52.8119417853389805
 20
-39.244153742489722
 30
0.0000000000000142
 11
54.3455603524393212
 21
-48.9270402934532811
 31
0.0000000000000146
  0
ARC
  5
3862
  8
0
  6
AUSGEZOGEN
 62
     3
 10
53.7996301259341578
 20
-39.0877192774495086
 30
0.0000000000000142
 40
1.0000000000000231
 50
99.0000000000016342
 51
188.9999999999980957
  0
LINE
  5
3863
  8
0
  6
AUSGEZOGEN
 62
     3
 10
63.3260822118574822
 20
-36.5664123697539765
 30
0.0000000000000142
 11
53.6431956608938876
 21
-38.1000309368543526
 31
0.0000000000000121
  0
ARC
  5
3864
  8
0
  6
AUSGEZOGEN
 62
     3
 10
63.1696477468173327
 20
-35.5787240291589626
 30
0.0000000000000142
 40
0.9999999999998603
 50
278.9999999999968168
 51
330.6107016166353105
  0
ARC
  5
3865
  8
0
  6
AUSGEZOGEN
 62
     3
 10
-0.0000000000360118
 20
0.0000000000181046
 30
0.0
 40
73.5000000000404015
 50
330.6107016166341168
 51
335.3892983833662811
  0
ARC
  5
3866
  8
0
  6
AUSGEZOGEN
 62
     3
 10
65.9139797158558451
 20
-30.1926692761307187
 30
0.0000000000000142
 40
0.9999999999996724
 50
335.3892983833587209
 51
27.0000000000077307
  0
LINE
  5
3867
  8
0
  6
AUSGEZOGEN
 62
     3
 10
62.3542518094394822
 20
-21.0036206256735589
 30
0.0000000000000142
 11
66.8049862400438457
 21
-29.7386787763912004
 31
0.0000000000000152
  0
ARC
  5
3868
  8
0
  6
AUSGEZOGEN
 62
     3
 10
63.2452583336279588
 20
-20.5496301259340406
 30
0.0000000000000142
 40
1.0000000000000531
 50
117.0000000000038938
 51
206.9999999999959073
  0
LINE
  5
3869
  8
0
  6
AUSGEZOGEN
 62
     3
 10
71.5263259846059611
 20
-15.2078891711412307
 30
0.0000000000000142
 11
62.7912678338883197
 21
-19.6586236017456599
 31
0.0000000000000123
  0
ARC
  5
386A
  8
0
  6
AUSGEZOGEN
 62
     3
 10
71.0723354848664997
 20
-14.3168826469528803
 30
0.0000000000000142
 40
0.9999999999999012
 50
296.9999999999967031
 51
348.6107016166313883
  0
ARC
  5
386B
  8
0
  6
AUSGEZOGEN
 62
     3
 10
-0.0000000000603976
 20
0.0000000000092939
 30
0.0
 40
73.5000000000612346
 50
348.6107016166347989
 51
353.3892983833657127
  0
ARC
  5
386C
  8
0
  6
AUSGEZOGEN
 62
     3
 10
72.0179678355774797
 20
-8.3463949603238348
 30
0.0000000000000142
 40
1.0000000000002289
 50
353.3892983833752055
 51
44.9999999999942517
  0
LINE
  5
386D
  8
0
  6
AUSGEZOGEN
 62
     3
 10
65.7928932188135889
 20
-0.7071067811865817
 30
0.0000000000000142
 11
72.7250746167642603
 21
-7.6392881791371963
 31
0.0000000000000158
  0
ARC
  5
386E
  8
0
  6
AUSGEZOGEN
 62
     3
 10
66.5000000000001421
 20
-0.0000000000000284
 30
0.0000000000000142
 40
1.0000000000000071
 50
135.0
 51
225.0
  0
LINE
  5
386F
  8
0
  6
AUSGEZOGEN
 62
     3
 10
72.7250746167642035
 20
7.6392881791372238
 30
0.0000000000000142
 11
65.7928932188135889
 21
0.7071067811865249
 31
0.0000000000000127
  0
ARC
  5
3870
  8
0
  6
AUSGEZOGEN
 62
     3
 10
72.0179678355778776
 20
8.3463949603237211
 30
0.0000000000000142
 40
0.9999999999997989
 50
314.9999999999931219
 51
6.6107016166375896
  0
ARC
  5
3871
  8
0
  6
AUSGEZOGEN
 62
     3
 10
0.0000000000044607
 20
0.0000000000008811
 30
0.0
 40
73.4999999999955946
 50
6.6107016166322978
 51
11.3892983833674002
  0
ARC
  5
3872
  8
0
  6
AUSGEZOGEN
 62
     3
 10
71.0723354848664428
 20
14.3168826469528998
 30
0.0000000000000142
 40
0.9999999999999761
 50
11.3892983833663806
 51
63.0000000000011369
  0
LINE
  5
3873
  8
0
  6
AUSGEZOGEN
 62
     3
 10
62.7912678338883197
 20
19.6586236017456599
 30
0.0000000000000142
 11
71.5263259846059611
 21
15.2078891711412592
 31
0.0000000000000162
  0
ARC
  5
3874
  8
0
  6
AUSGEZOGEN
 62
     3
 10
63.245258333627838
 20
20.5496301259340193
 30
0.0000000000000142
 40
0.9999999999999761
 50
153.0000000000011084
 51
243.0000000000011937
  0
LINE
  5
3875
  8
0
  6
AUSGEZOGEN
 62
     3
 10
66.804986240043803
 20
29.7386787763912217
 30
0.0000000000000142
 11
62.3542518094394822
 21
21.0036206256735412
 31
0.0000000000000132
  0
ARC
  5
3876
  8
0
  6
AUSGEZOGEN
 62
     3
 10
65.9139797158555041
 20
30.1926692761307187
 30
0.0000000000000142
 40
0.9999999999999591
 50
333.0000000000026148
 51
24.6107016166374102
  0
ARC
  5
3877
  8
0
  6
AUSGEZOGEN
 62
     3
 10
-0.000000000022142
 20
-0.0000000000113687
 30
0.0
 40
73.5000000000250111
 50
24.6107016166334205
 51
29.3892983833666293
  0
ARC
  5
3878
  8
0
  6
AUSGEZOGEN
 62
     3
 10
63.1696477468171125
 20
35.5787240291586784
 30
0.0000000000000142
 40
1.0000000000002001
 50
29.3892983833739407
 51
80.9999999999966462
  0
LINE
  5
3879
  8
0
  6
AUSGEZOGEN
 62
     3
 10
53.6431956608938876
 20
38.1000309368543526
 30
0.0000000000000142
 11
63.3260822118574325
 21
36.566412369754012
 31
0.0000000000000164
  0
ARC
  5
387A
  8
0
  6
AUSGEZOGEN
 62
     3
 10
53.7996301259342076
 20
39.087719277449537
 30
0.0000000000000142
 40
1.000000000000093
 50
171.0000000000038938
 51
260.9999999999956799
  0
LINE
  5
387B
  8
0
  6
AUSGEZOGEN
 62
     3
 10
54.3455603524393212
 20
48.9270402934532811
 30
0.0000000000000142
 11
52.8119417853389805
 21
39.244153742489722
 31
0.0000000000000139
  0
ARC
  5
387C
  8
0
  6
AUSGEZOGEN
 62
     3
 10
53.3578720118442007
 20
49.0834747584934803
 30
0.0000000000000142
 40
0.9999999999999909
 50
351.0000000000013074
 51
42.6107016166338965
  0
ARC
  5
387D
  8
0
  6
AUSGEZOGEN
 62
     3
 10
0.0000000000127599
 20
0.0000000000126761
 30
0.0
 40
73.4999999999820943
 50
42.6107016166319994
 51
47.3892983833680006
  0
ARC
  5
387E
  8
0
  6
AUSGEZOGEN
 62
     3
 10
49.0834747584936721
 20
53.3578720118443925
 30
0.0000000000000142
 40
0.9999999999997141
 50
47.389298383359872
 51
99.0000000000044338
  0
LINE
  5
387F
  8
0
  6
AUSGEZOGEN
 62
     3
 10
39.2441537424897717
 20
52.8119417853388882
 30
0.0000000000000142
 11
48.9270402934534232
 21
54.3455603524392288
 31
0.0000000000000164
  0
ARC
  5
3880
  8
0
  6
AUSGEZOGEN
 62
     3
 10
39.0877192774495086
 20
53.7996301259340086
 30
0.0000000000000142
 40
0.9999999999999299
 50
188.9999999999992042
 51
279.0000000000023874
  0
LINE
  5
3881
  8
0
  6
AUSGEZOGEN
 62
     3
 10
36.5664123697540902
 20
63.3260822118573969
 30
0.0000000000000142
 11
38.1000309368544379
 21
53.6431956608938094
 31
0.0000000000000146
  0
ARC
  5
3882
  8
0
  6
AUSGEZOGEN
 62
     3
 10
35.5787240291590834
 20
63.1696477468171906
 30
0.0000000000000142
 40
0.999999999999896
 50
8.9999999999997442
 51
60.6107016166383303
  0
ARC
  5
3883
  8
0
  6
AUSGEZOGEN
 62
     3
 10
-0.0000000000001436
 20
-0.0000000000006537
 30
0.0
 40
73.5000000000007248
 50
60.6107016166326815
 51
65.3892983833674464
  0
ARC
  5
3884
  8
0
  6
AUSGEZOGEN
 62
     3
 10
30.1926692761308892
 20
65.9139797158552483
 30
0.0
 40
1.000000000000129
 50
65.3892983833724344
 51
117.0000000000017053
  0
LINE
  5
3885
  8
0
  6
AUSGEZOGEN
 62
     3
 10
21.0036206256736797
 20
62.3542518094393401
 30
0.0
 11
29.7386787763912608
 21
66.8049862400437036
 31
0.0000000000000019
  0
ARC
  5
3886
  8
0
  6
AUSGEZOGEN
 62
     3
 10
20.549630125934101
 20
63.245258333627703
 30
0.0
 40
0.9999999999999893
 50
207.0000000000003126
 51
297.000000000001819
  0
LINE
  5
3887
  8
0
  6
AUSGEZOGEN
 62
     3
 10
15.2078891711413693
 20
71.5263259846057906
 30
0.0
 11
19.6586236017457416
 21
62.7912678338881491
 31
0.000000000000001
  0
ARC
  5
3888
  8
0
  6
AUSGEZOGEN
 62
     3
 10
14.3168826469529602
 20
71.0723354848661018
 30
0.0
 40
1.000000000000163
 50
27.0000000000060503
 51
78.6107016166310757
  0
ARC
  5
3889
  8
0
  6
AUSGEZOGEN
 62
     3
 10
-0.0000000000015078
 20
-0.0000000000078444
 30
0.0
 40
73.5000000000080007
 50
78.6107016166325252
 51
83.3892983833668637
  0
ARC
  5
388A
  8
0
  6
AUSGEZOGEN
 62
     3
 10
8.3463949603239183
 20
72.0179678355774513
 30
0.0
 40
1.0000000000001279
 50
83.389298383371127
 51
134.9999999999976978
  0
LINE
  5
388B
  8
0
  6
AUSGEZOGEN
 62
     3
 10
0.707106781186694
 20
65.7928932188134468
 30
0.0
 11
7.6392881791373082
 21
72.725074616764104
 31
0.0000000000000015
  0
ARC
  5
388C
  8
0
  6
AUSGEZOGEN
 62
     3
 10
0.0000000000001406
 20
66.4999999999999716
 30
0.0
 40
0.9999999999999879
 50
224.9999999999988063
 51
315.0
  0
LINE
  5
388D
  8
0
  6
AUSGEZOGEN
 62
     3
 10
-7.6392881791370844
 20
72.725074616764104
 30
0.0
 11
-0.7071067811864129
 21
65.7928932188134468
 31
0.0000000000000015
  0
ARC
  5
388E
  8
0
  6
AUSGEZOGEN
 62
     3
 10
-8.3463949603236376
 20
72.0179678355775934
 30
0.0
 40
0.99999999999999
 50
44.9999999999988489
 51
96.6107016166330368
  0
ARC
  5
388F
  8
0
  6
AUSGEZOGEN
 62
     3
 10
0.0000000000012207
 20
-0.0000000000028422
 30
0.0
 40
73.5000000000029843
 50
96.6107016166331931
 51
101.3892983833678016
  0
ARC
  5
3890
  8
0
  6
AUSGEZOGEN
 62
     3
 10
-14.3168826469531307
 20
71.0723354848666702
 30
0.0
 40
0.999999999999467
 50
101.3892983833503934
 51
153.0000000000082139
  0
LINE
  5
3891
  8
0
  6
AUSGEZOGEN
 62
     3
 10
-19.6586236017455711
 20
62.7912678338881491
 30
0.0
 11
-15.2078891711410904
 21
71.5263259846058332
 31
0.000000000000001
  0
ARC
  5
3892
  8
0
  6
AUSGEZOGEN
 62
     3
 10
-20.5496301259339305
 20
63.2452583336276675
 30
0.0
 40
0.9999999999999252
 50
243.0000000000032969
 51
333.0000000000011937
  0
LINE
  5
3893
  8
0
  6
AUSGEZOGEN
 62
     3
 10
-29.7386787763910796
 20
66.8049862400437462
 30
0.0
 11
-21.0036206256733884
 21
62.3542518094393401
 31
0.0000000000000019
  0
ARC
  5
3894
  8
0
  6
AUSGEZOGEN
 62
     3
 10
-30.1926692761306015
 20
65.9139797158552483
 30
0.0
 40
1.000000000000125
 50
63.0000000000055422
 51
114.6107016166347989
  0
ARC
  5
3895
  8
0
  6
AUSGEZOGEN
 62
     3
 10
0.0000000000212864
 20
-0.0000000000412967
 30
0.0
 40
73.5000000000463842
 50
114.6107016166342021
 51
119.3892983833659969
  0
ARC
  5
3896
  8
0
  6
AUSGEZOGEN
 62
     3
 10
-35.5787240291590194
 20
63.1696477468171906
 30
-0.0000000000000142
 40
0.9999999999997528
 50
119.3892983833583941
 51
171.0000000000025011
  0
LINE
  5
3897
  8
0
  6
AUSGEZOGEN
 62
     3
 10
-38.1000309368541465
 20
53.6431956608938094
 30
-0.0000000000000142
 11
-36.5664123697539196
 21
63.3260822118573401
 31
-0.0000000000000139
  0
ARC
  5
3898
  8
0
  6
AUSGEZOGEN
 62
     3
 10
-39.0877192774493381
 20
53.799630125934101
 30
-0.0000000000000142
 40
1.000000000000079
 50
260.9999999999988063
 51
350.9999999999969873
  0
LINE
  5
3899
  8
0
  6
AUSGEZOGEN
 62
     3
 10
-48.9270402934531319
 20
54.345560352439179
 30
-0.0000000000000142
 11
-39.2441537424896012
 21
52.8119417853388882
 31
-0.0000000000000121
  0
ARC
  5
389A
  8
0
  6
AUSGEZOGEN
 62
     3
 10
-49.0834747584935087
 20
53.3578720118443925
 30
-0.0000000000000142
 40
0.9999999999996628
 50
80.9999999999886029
 51
132.6107016166423023
  0
ARC
  5
389B
  8
0
  6
AUSGEZOGEN
 62
     3
 10
0.0000000000600536
 20
-0.0000000000603393
 30
0.0
 40
73.5000000000849667
 50
132.6107016166351116
 51
137.3892983833644053
  0
ARC
  5
389C
  8
0
  6
AUSGEZOGEN
 62
     3
 10
-53.3578720118439591
 20
49.0834747584934519
 30
-0.0000000000000142
 40
1.0000000000000371
 50
137.389298383368299
 51
188.9999999999965041
  0
LINE
  5
389D
  8
0
  6
AUSGEZOGEN
 62
     3
 10
-52.8119417853388029
 20
39.244153742489722
 30
-0.0000000000000142
 11
-54.3455603524391506
 21
48.9270402934532811
 31
-0.0000000000000146
  0
ARC
  5
389E
  8
0
  6
AUSGEZOGEN
 62
     3
 10
-53.799630125934037
 20
39.0877192774494802
 30
-0.0000000000000142
 40
1.0000000000000211
 50
279.0000000000114824
 51
8.9999999999997993
  0
LINE
  5
389F
  8
0
  6
AUSGEZOGEN
 62
     3
 10
-63.3260822118571909
 20
36.566412369753948
 30
-0.0000000000000142
 11
-53.6431956608936105
 21
38.1000309368543526
 31
-0.0000000000000121
  0
ARC
  5
38A0
  8
0
  6
AUSGEZOGEN
 62
     3
 10
-63.169647746816878
 20
35.5787240291588205
 30
-0.0000000000000142
 40
1.00000000000005
 50
99.0000000000048743
 51
150.6107016166357937
  0
ARC
  5
38A1
  8
0
  6
AUSGEZOGEN
 62
     3
 10
-0.0000000000363528
 20
0.0000000000186446
 30
0.0
 40
73.4999999999590159
 50
150.6107016166313031
 51
155.3892983833688106
  0
ARC
  5
38A2
  8
0
  6
AUSGEZOGEN
 62
     3
 10
-65.9139797158553336
 20
30.1926692761306299
 30
-0.0000000000000142
 40
0.9999999999998997
 50
155.3892983833627
 51
206.9999999999974136
  0
LINE
  5
38A3
  8
0
  6
AUSGEZOGEN
 62
     3
 10
-62.354251809439198
 20
21.0036206256735412
 30
-0.0000000000000142
 11
-66.8049862400436325
 21
29.7386787763911684
 31
-0.0000000000000152
  0
ARC
  5
38A4
  8
0
  6
AUSGEZOGEN
 62
     3
 10
-63.2452583336273904
 20
20.5496301259339589
 30
-0.0000000000000142
 40
0.999999999999874
 50
296.9999999999944862
 51
27.0000000000062101
  0
LINE
  5
38A5
  8
0
  6
AUSGEZOGEN
 62
     3
 10
-71.5263259846056769
 20
15.2078891711412307
 30
-0.0000000000000142
 11
-62.7912678338879786
 21
19.6586236017456599
 31
-0.0000000000000123
  0
ARC
  5
38A6
  8
0
  6
AUSGEZOGEN
 62
     3
 10
-71.072335484866386
 20
14.3168826469529904
 30
-0.0000000000000142
 40
0.9999999999997672
 50
116.9999999999901945
 51
168.6107016166363906
  0
ARC
  5
38A7
  8
0
  6
AUSGEZOGEN
 62
     3
 10
0.000000000027255
 20
-0.0000000000034106
 30
0.0
 40
73.5000000000273701
 50
168.6107016166342021
 51
173.3892983833671906
  0
ARC
  5
38A8
  8
0
  6
AUSGEZOGEN
 62
     3
 10
-72.0179678355774229
 20
8.3463949603238916
 30
-0.0000000000000142
 40
1.0000000000000879
 50
173.3892983833740118
 51
225.0000000000046043
  0
LINE
  5
38A9
  8
0
  6
AUSGEZOGEN
 62
     3
 10
-65.7928932188133047
 20
0.7071067811865817
 30
-0.0000000000000142
 11
-72.7250746167639761
 21
7.6392881791372238
 31
-0.0000000000000158
  0
ARC
  5
38AA
  8
0
  6
AUSGEZOGEN
 62
     3
 10
-66.4999999999998579
 20
0.0000000000000284
 30
-0.0000000000000142
 40
1.0000000000000071
 50
315.0
 51
44.9999999999999929
  0
LINE
  5
38AB
  8
0
  6
AUSGEZOGEN
 62
     3
 10
-72.7250746167639761
 20
-7.6392881791372238
 30
-0.0000000000000142
 11
-65.7928932188133047
 21
-0.7071067811865249
 31
-0.0000000000000127
  0
ARC
  5
38AC
  8
0
  6
AUSGEZOGEN
 62
     3
 10
-72.017967835577366
 20
-8.3463949603238632
 30
-0.0000000000000142
 40
1.0000000000000639
 50
134.9999999999965041
 51
186.6107016166276082
  0
ARC
  5
38AD
  8
0
  6
AUSGEZOGEN
 62
     3
 10
-0.0000000000365234
 20
-0.0000000000066791
 30
0.0
 40
73.4999999999627818
 50
186.6107016166307062
 51
191.3892983833679011
  0
ARC
  5
38AE
  8
0
  6
AUSGEZOGEN
 62
     3
 10
-71.072335484866386
 20
-14.3168826469530508
 30
-0.0000000000000142
 40
0.9999999999997463
 50
191.3892983833603125
 51
243.0000000000090097
  0
LINE
  5
38AF
  8
0
  6
AUSGEZOGEN
 62
     3
 10
-62.7912678338880994
 20
-19.6586236017455995
 30
-0.0000000000000142
 11
-71.5263259846056769
 21
-15.2078891711412592
 31
-0.0000000000000162
  0
ARC
  5
38B0
  8
0
  6
AUSGEZOGEN
 62
     3
 10
-63.2452583336276675
 20
-20.5496301259339909
 30
-0.0000000000000142
 40
1.0000000000000391
 50
333.0000000000011937
 51
62.9999999999989768
  0
LINE
  5
38B1
  8
0
  6
AUSGEZOGEN
 62
     3
 10
-66.8049862400435757
 20
-29.7386787763912608
 30
-0.0000000000000142
 11
-62.3542518094392619
 21
-21.0036206256735412
 31
-0.0000000000000132
  0
ARC
  5
38B2
  8
0
  6
AUSGEZOGEN
 62
     3
 10
-65.9139797158555041
 20
-30.1926692761308004
 30
-0.0000000000000142
 40
0.9999999999997286
 50
152.9999999999922977
 51
204.6107016166398012
  0
ARC
  5
38B3
  8
0
  6
AUSGEZOGEN
 62
     3
 10
0.0000000000858605
 20
0.0000000000439968
 30
0.0
 40
73.5000000000962643
 50
204.6107016166359074
 51
209.3892983833644905
  0
ARC
  5
38B4
  8
0
  6
AUSGEZOGEN
 62
     3
 10
-63.1696477468168212
 20
-35.5787240291588205
 30
-0.0000000000000142
 40
1.0000000000000491
 50
209.3892983833669064
 51
260.9999999999885745
  0
LINE
  5
38B5
  8
0
  6
AUSGEZOGEN
 62
     3
 10
-53.643195660893717
 20
-38.1000309368543313
 30
-0.0000000000000142
 11
-63.3260822118572619
 21
-36.5664123697539765
 31
-0.0000000000000164
  0
ARC
  5
38B6
  8
0
  6
AUSGEZOGEN
 62
     3
 10
-53.7996301259339873
 20
-39.0877192774494802
 30
-0.0000000000000142
 40
1.000000000000042
 50
351.000000000001819
 51
80.9999999999951541
  0
LINE
  5
38B7
  8
0
  6
AUSGEZOGEN
 62
     3
 10
-54.3455603524390867
 20
-48.9270402934532385
 30
-0.0000000000000142
 11
-52.8119417853388029
 21
-39.2441537424896865
 31
-0.0000000000000139
  0
ARC
  5
38B8
  8
0
  6
AUSGEZOGEN
 62
     3
 10
-53.3578720118442504
 20
-49.0834747584935727
 30
-0.0000000000000142
 40
0.9999999999997239
 50
170.9999999999922977
 51
222.6107016166413075
  0
ARC
  5
38B9
  8
0
  6
AUSGEZOGEN
 62
     3
 10
0.0000000000018459
 20
0.0000000000017337
 30
0.0
 40
73.5000000000024443
 50
222.6107016166326105
 51
227.3892983833673043
  0
ARC
  5
38BA
  8
0
  6
AUSGEZOGEN
 62
     3
 10
-49.0834747584932813
 20
-53.3578720118438525
 30
-0.0000000000000142
 40
1.00000000000022
 50
227.3892983833690096
 51
278.9999999999899956
  0
LINE
  5
38BB
  8
0
  6
AUSGEZOGEN
 62
     3
 10
-39.2441537424896012
 20
-52.8119417853388882
 30
-0.0000000000000142
 11
-48.9270402934531887
 21
-54.3455603524392288
 31
-0.0000000000000164
  0
ARC
  5
38BC
  8
0
  6
AUSGEZOGEN
 62
     3
 10
-39.0877192774493381
 20
-53.799630125934037
 30
-0.0000000000000142
 40
0.9999999999999388
 50
9.0000000000024301
 51
99.0000000000021743
  0
LINE
  5
38BD
  8
0
  6
AUSGEZOGEN
 62
     3
 10
-36.566412369753813
 20
-63.3260822118573969
 30
-0.0000000000000142
 11
-38.1000309368542673
 21
-53.643195660893781
 31
-0.0000000000000146
  0
ARC
  5
38BE
  8
0
  6
AUSGEZOGEN
 62
     3
 10
-35.5787240291586215
 20
-63.1696477468171906
 30
-0.0000000000000142
 40
1.0000000000000351
 50
188.9999999999949125
 51
240.6107016166241124
  0
ARC
  5
38BF
  8
0
  6
AUSGEZOGEN
 62
     3
 10
-0.0000000000180492
 20
-0.0000000000346745
 30
0.0
 40
73.4999999999608633
 50
240.6107016166315873
 51
245.3892983833690948
  0
ARC
  5
38C0
  8
0
  6
AUSGEZOGEN
 62
     3
 10
-30.1926692761306015
 20
-65.9139797158559873
 30
0.0
 40
0.999999999999445
 50
245.3892983833547135
 51
297.0000000000180194
  0
LINE
  5
38C1
  8
0
  6
AUSGEZOGEN
 62
     3
 10
-21.0036206256734985
 20
-62.3542518094393401
 30
0.0
 11
-29.7386787763910299
 21
-66.8049862400437036
 31
-0.0000000000000019
  0
ARC
  5
38C2
  8
0
  6
AUSGEZOGEN
 62
     3
 10
-20.5496301259339305
 20
-63.2452583336275325
 30
0.0
 40
0.9999999999999246
 50
26.9999999999930616
 51
117.0000000000047038
  0
LINE
  5
38C3
  8
0
  6
AUSGEZOGEN
 62
     3
 10
-15.2078891711410904
 20
-71.526325984605819
 30
0.0
 11
-19.6586236017455711
 21
-62.7912678338881278
 31
-0.000000000000001
  0
ARC
  5
38C4
  8
0
  6
AUSGEZOGEN
 62
     3
 10
-14.3168826469526191
 20
-71.0723354848661302
 30
0.0
 40
1.0000000000001461
 50
207.0000000000046043
 51
258.6107016166275798
  0
ARC
  5
38C5
  8
0
  6
AUSGEZOGEN
 62
     3
 10
-0.0000000000008825
 20
-0.0000000000049738
 30
0.0
 40
73.4999999999949267
 50
258.610701616632582
 51
263.3892983833677022
  0
ARC
  5
38C6
  8
0
  6
AUSGEZOGEN
 62
     3
 10
-8.3463949603237513
 20
-72.0179678355772239
 30
0.0
 40
1.0000000000003291
 50
263.3892983833758876
 51
314.9999999999907914
  0
LINE
  5
38C7
  8
0
  6
AUSGEZOGEN
 62
     3
 10
-0.7071067811864694
 20
-65.7928932188134468
 30
0.0
 11
-7.6392881791370844
 21
-72.725074616764104
 31
-0.0000000000000015
  0
ARC
  5
38C8
  8
0
  6
AUSGEZOGEN
 62
     3
 10
0.0000000000000838
 20
-66.5
 30
0.0
 40
1.0000000000000071
 50
45.0
 51
135.0
  0
LINE
  5
38C9
  8
0
  6
AUSGEZOGEN
 62
     3
 10
7.6392881791373082
 20
-72.725074616764104
 30
0.0
 11
0.7071067811866368
 21
-65.7928932188134468
 31
-0.0000000000000015
  0
ARC
  5
38CA
  8
0
  6
AUSGEZOGEN
 62
     3
 10
8.3463949603238046
 20
-72.0179678355777355
 30
0.0
 40
0.9999999999998552
 50
224.9999999999953957
 51
276.6107016166371864
  0
ARC
  5
38CB
  8
0
  6
AUSGEZOGEN
 62
     3
 10
0.0000000000009365
 20
-0.0000000000040927
 30
0.0
 40
73.4999999999958646
 50
276.6107016166324115
 51
281.389298383367418
  0
ARC
  5
38CC
  8
0
  6
AUSGEZOGEN
 62
     3
 10
14.3168826469528394
 20
-71.0723354848660733
 30
0.0
 40
1.0000000000002569
 50
281.3892983833712265
 51
332.9999999999910756
  0
LINE
  5
38CD
  8
0
  6
AUSGEZOGEN
 62
     3
 10
19.6586236017457416
 20
-62.7912678338881278
 30
0.0
 11
15.2078891711413693
 21
-71.5263259846058759
 31
-0.000000000000001
  0
ARC
  5
38CE
  8
0
  6
AUSGEZOGEN
 62
     3
 10
20.5496301259341614
 20
-63.2452583336275893
 30
0.0
 40
0.9999999999998749
 50
62.9999999999981881
 51
153.0000000000040075
  0
LINE
  5
38CF
  8
0
  6
AUSGEZOGEN
 62
     3
 10
-15.2315462117277995
 20
-56.999999999999801
 30
0.0
 11
15.2315462117277693
 21
-56.999999999999801
 31
0.0000000000000068
  0
LINE
  5
38D0
  8
0
  6
AUSGEZOGEN
 62
     3
 10
57.0000000000000426
 20
-15.2315462117275295
 30
0.0
 11
57.0000000000000426
 21
15.2315462117280394
 31
0.0
  0
LINE
  5
38D1
  8
0
  6
AUSGEZOGEN
 62
     3
 10
-56.9999999999999503
 20
15.2315462117278706
 30
0.0
 11
-56.9999999999999503
 21
-15.2315462117277001
 31
0.0
  0
LINE
  5
38D2
  8
0
  6
AUSGEZOGEN
 62
     3
 10
15.2315462117276592
 20
57.0000000000001421
 30
0.0
 11
-15.2315462117279203
 21
57.0000000000001421
 31
-0.0000000000000068
  0
CIRCLE
  5
38D3
  8
0
  6
AUSGEZOGEN
 62
     3
 10
0.0000000000000444
 20
0.0000000000000287
 30
0.0
 40
61.0
  0
CIRCLE
  5
38D4
  8
0
  6
AUSGEZOGEN
 62
     3
 10
0.0000000000000444
 20
0.0000000000000287
 30
0.0
 40
59.0
  0
LINE
  5
38D5
  8
0
  6
AUSGEZOGEN
 62
     3
 10
24.6914264549235902
 20
-45.7668051312775432
 30
0.0
 11
17.6914264549235796
 21
-33.6424494782954895
 31
-0.0000000000000018
  0
LINE
  5
38D6
  8
0
  6
AUSGEZOGEN
 62
     3
 10
27.2895026662767286
 20
-44.2668051312774793
 30
0.0
 11
24.6914264549234694
 21
-45.7668051312774722
 31
-0.0000000000000006
  0
LINE
  5
38D7
  8
0
  6
AUSGEZOGEN
 62
     3
 10
20.2895026662767286
 20
-32.1424494782954966
 30
0.0
 11
27.2895026662767286
 21
-44.2668051312775432
 31
0.0000000000000018
  0
LINE
  5
38D8
  8
0
  6
AUSGEZOGEN
 62
     3
 10
20.2895026662767286
 20
-32.1424494782954966
 30
0.0
 11
17.6914264549234694
 21
-33.6424494782954966
 31
-0.0000000000000006
  0
LINE
  5
38D9
  8
0
  6
AUSGEZOGEN
 62
     3
 10
17.6914264549234694
 20
-33.6424494782953971
 30
0.0
 11
14.1914264549234694
 21
-27.5802716518043312
 31
-0.0000000000000008
  0
LINE
  5
38DA
  8
0
  6
AUSGEZOGEN
 62
     3
 10
16.7895026662767286
 20
-26.0802716518043312
 30
0.0
 11
20.2895026662767286
 21
-32.1424494782953971
 31
0.0000000000000008
  0
LINE
  5
38DB
  8
0
  6
AUSGEZOGEN
 62
     3
 10
16.7895026662767286
 20
-26.0802716518043312
 30
0.0
 11
14.1914264549234694
 21
-27.5802716518043312
 31
-0.0000000000000006
  0
LINE
  5
38DC
  8
0
  6
AUSGEZOGEN
 62
     3
 10
30.7895026662767393
 20
-50.3289829577684174
 30
0.0
 11
28.1914264549234694
 21
-51.8289829577684102
 31
-0.0000000000000006
  0
LINE
  5
38DD
  8
0
  6
AUSGEZOGEN
 62
     3
 10
28.1914264549233593
 20
-51.8289829577684387
 30
0.0
 11
24.6914264549233593
 21
-45.7668051312773585
 31
-0.0000000000000008
  0
LINE
  5
38DE
  8
0
  6
AUSGEZOGEN
 62
     3
 10
27.2895026662767286
 20
-44.2668051312774793
 30
0.0
 11
30.7895026662767393
 21
-50.3289829577685524
 31
0.0000000000000008
  0
LINE
  5
38DF
  8
0
  6
AUSGEZOGEN
 62
     3
 10
24.6914264549235902
 20
45.7668051312776782
 30
0.0
 11
17.6914264549235796
 21
33.6424494782956316
 31
-0.0000000000000018
  0
LINE
  5
38E0
  8
0
  6
AUSGEZOGEN
 62
     3
 10
20.2895026662767286
 20
32.1424494782956316
 30
0.0
 11
17.6914264549234694
 21
33.6424494782956316
 31
-0.0000000000000006
  0
LINE
  5
38E1
  8
0
  6
AUSGEZOGEN
 62
     3
 10
20.2895026662767286
 20
32.1424494782956316
 30
0.0
 11
27.2895026662767286
 21
44.2668051312776711
 31
0.0000000000000018
  0
LINE
  5
38E2
  8
0
  6
AUSGEZOGEN
 62
     3
 10
27.2895026662767286
 20
44.2668051312775077
 30
0.0
 11
24.6914264549234694
 21
45.7668051312775006
 31
-0.0000000000000006
  0
LINE
  5
38E3
  8
0
  6
AUSGEZOGEN
 62
     3
 10
17.6914264549234694
 20
33.6424494782954184
 30
0.0
 11
14.1914264549234694
 21
27.5802716518043489
 31
-0.0000000000000008
  0
LINE
  5
38E4
  8
0
  6
AUSGEZOGEN
 62
     3
 10
16.7895026662767286
 20
26.0802716518043489
 30
0.0
 11
14.1914264549234694
 21
27.5802716518043489
 31
-0.0000000000000006
  0
LINE
  5
38E5
  8
0
  6
AUSGEZOGEN
 62
     3
 10
16.7895026662767286
 20
26.0802716518043489
 30
0.0
 11
20.2895026662767286
 21
32.1424494782954184
 31
0.0000000000000008
  0
LINE
  5
38E6
  8
0
  6
AUSGEZOGEN
 62
     3
 10
30.7895026662767393
 20
50.3289829577685595
 30
0.0
 11
28.1914264549234694
 21
51.8289829577685595
 31
-0.0000000000000006
  0
LINE
  5
38E7
  8
0
  6
AUSGEZOGEN
 62
     3
 10
28.1914264549233593
 20
51.8289829577685808
 30
0.0
 11
24.6914264549233593
 21
45.7668051312775006
 31
-0.0000000000000008
  0
LINE
  5
38E8
  8
0
  6
AUSGEZOGEN
 62
     3
 10
27.2895026662767286
 20
44.2668051312775077
 30
0.0
 11
30.7895026662767393
 21
50.3289829577685808
 31
0.0000000000000008
  0
ARC
  5
38E9
  8
0
  6
AUSGEZOGEN
 62
     3
 10
0.0000000000001448
 20
0.0000000000001336
 30
0.0
 40
57.8686291501018175
 50
189.9398075794221938
 51
260.060192420576584
  0
ARC
  5
38EA
  8
0
  6
AUSGEZOGEN
 62
     3
 10
-0.00000000000031
 20
0.0000000000010715
 30
0.0
 40
57.8686291501028123
 50
279.9398075794233023
 51
298.514682350127714
  0
ARC
  5
38EB
  8
0
  6
AUSGEZOGEN
 62
     3
 10
-0.0000000000005373
 20
0.0000000000003716
 30
0.0
 40
57.8686291501023007
 50
301.4853176498725134
 51
350.0601924205776072
  0
ARC
  5
38EC
  8
0
  6
AUSGEZOGEN
 62
     3
 10
0.0000000000003721
 20
0.0000000000002259
 30
0.0
 40
57.8686291501013201
 50
9.9398075794219967
 51
58.5146823501279769
  0
ARC
  5
38ED
  8
0
  6
AUSGEZOGEN
 62
     3
 10
0.0000000000003721
 20
0.0000000000007233
 30
0.0
 40
57.8686291501009222
 50
61.4853176498721012
 51
80.0601924205786872
  0
ARC
  5
38EE
  8
0
  6
AUSGEZOGEN
 62
     3
 10
0.0000000000000311
 20
-0.0000000000000654
 30
0.0
 40
57.868629150101782
 50
99.9398075794213838
 51
170.0601924205776925
  0
ARC
  5
38EF
  8
0
  6
AUSGEZOGEN
 62
     3
 10
0.0000000000000247
 20
-0.0000000000000067
 30
0.0
 40
34.9000000000000909
 50
179.9999999999998863
 51
297.5366718750246946
  0
ARC
  5
38F0
  8
0
  6
AUSGEZOGEN
 62
     3
 10
0.0000000000001384
 20
0.0000000000000164
 30
0.0
 40
34.9000000000000199
 50
302.463328124975078
 51
57.5366718750249078
  0
ARC
  5
38F1
  8
0
  6
AUSGEZOGEN
 62
     3
 10
0.0000000000000247
 20
0.0000000000000448
 30
0.0
 40
34.9000000000000696
 50
62.4633281249752486
 51
180.0
  0
ARC
  5
38F2
  8
0
  6
AUSGEZOGEN
 62
     3
 10
0.0000000000000004
 20
0.0000000000000825
 30
0.0
 40
34.2814676152490918
 50
180.0000000000001137
 51
297.4921984785794962
  0
ARC
  5
38F3
  8
0
  6
AUSGEZOGEN
 62
     3
 10
0.0000000000000004
 20
0.0000000000000079
 30
0.0
 40
34.2814676152490776
 50
302.5078015214205038
 51
57.4921984785795175
  0
ARC
  5
38F4
  8
0
  6
AUSGEZOGEN
 62
     3
 10
0.0000000000000004
 20
-0.0000000000000614
 30
0.0
 40
34.2814676152491415
 50
62.507801521420518
 51
179.9999999999998863
  0
CIRCLE
  5
38F5
  8
0
  6
VERDECKT
 62
     1
 10
0.0000000000001406
 20
0.0000000000000284
 30
0.0
 40
58.5
  0
CIRCLE
  5
38F6
  8
0
  6
VERDECKT
 62
     1
 10
0.0000000000000028
 20
0.0000000000000121
 30
0.0
 40
64.0000000000001137
  0
CIRCLE
  5
38F7
  8
0
  6
VERDECKT
 62
     1
 10
0.0000000000000219
 20
0.0000000000000174
 30
0.0
 40
51.0
  0
CIRCLE
  5
38F8
  8
0
  6
VERDECKT
 62
     1
 10
0.0000000000000219
 20
0.0000000000000174
 30
0.0
 40
49.0
  0
CIRCLE
  5
38F9
  8
0
  6
VERDECKT
 62
     1
 10
0.0000000000000028
 20
0.0000000000000121
 30
0.0
 40
62.0
  0
LINE
  5
38FA
  8
0
  6
VERDECKT
 62
     1
 10
0.0000000000000426
 20
59.0000000000000284
 30
0.0
 11
15.4919333848296592
 21
59.0000000000000284
 31
0.0000000000000034
  0
LINE
  5
38FB
  8
0
  6
VERDECKT
 62
     1
 10
-15.4919333848295793
 20
59.0000000000000284
 30
0.0
 11
0.0000000000000426
 21
59.0000000000000284
 31
0.0000000000000034
  0
LINE
  5
38FC
  8
0
  6
VERDECKT
 62
     1
 10
0.0000000000000426
 20
-58.9999999999999716
 30
0.0
 11
-15.4919333848295793
 21
-58.9999999999999574
 31
-0.0000000000000034
  0
LINE
  5
38FD
  8
0
  6
VERDECKT
 62
     1
 10
15.4919333848296592
 20
-58.9999999999999787
 30
0.0
 11
0.0000000000000426
 21
-58.9999999999999716
 31
-0.0000000000000034
  0
LINE
  5
38FE
  8
0
  6
VERDECKT
 62
     1
 10
59.0000000000000426
 20
0.0000000000000282
 30
0.0
 11
59.0000000000000426
 21
-15.4919333848296503
 31
0.0
  0
LINE
  5
38FF
  8
0
  6
VERDECKT
 62
     1
 10
59.0000000000000426
 20
15.4919333848296503
 30
0.0
 11
59.0000000000000426
 21
0.0000000000000284
 31
0.0
  0
LINE
  5
3900
  8
0
  6
VERDECKT
 62
     1
 10
-58.9999999999999503
 20
0.0000000000000282
 30
0.0
 11
-58.9999999999999503
 21
15.4919333848296503
 31
0.0
  0
LINE
  5
3901
  8
0
  6
VERDECKT
 62
     1
 10
-58.9999999999999503
 20
-15.4919333848296503
 30
0.0
 11
-58.9999999999999503
 21
0.0000000000000284
 31
0.0
  0
LINE
  5
3902
  8
0
  6
VERDECKT
 62
     1
 10
29.7895026662767286
 20
-48.5969321501996916
 30
0.0
 11
27.1914264549234694
 21
-50.0969321501996987
 31
-0.0000000000000006
  0
LINE
  5
3903
  8
0
  6
VERDECKT
 62
     1
 10
29.7895026662767286
 20
48.5969321501997129
 30
0.0
 11
27.1914264549234694
 21
50.09693215019972
 31
-0.0000000000000006
  0
CIRCLE
  5
3904
  8
0
  6
VERDECKT
 62
     1
 10
0.0000000000000004
 20
0.0000000000000114
 30
0.0
 40
35.8875793553185076
  0
CIRCLE
  5
3905
  8
0
  6
VERDECKT
 62
     1
 10
0.0000000000000247
 20
0.0000000000000181
 30
0.0
 40
36.5000000000001066
  0
ARC
  5
3906
  8
0
  6
VERDECKT
 62
     1
 10
-0.0000000000056533
 20
-0.0000000000004908
 30
0.0
 40
57.8686291500960124
 50
179.9999999999994884
 51
189.9398075794225917
  0
ARC
  5
3907
  8
0
  6
VERDECKT
 62
     1
 10
0.0000000000000311
 20
0.0000000000003254
 30
0.0
 40
57.8686291501020023
 50
260.0601924205768114
 51
279.9398075794230181
  0
ARC
  5
3908
  8
0
  6
VERDECKT
 62
     1
 10
-0.0000000000188409
 20
0.0000000000327475
 30
0.0
 40
57.8686291501394692
 50
298.514682350128794
 51
301.485317649871206
  0
ARC
  5
3909
  8
0
  6
VERDECKT
 62
     1
 10
-0.0000000000000826
 20
0.0000000000000119
 30
0.0
 40
57.8686291501018104
 50
350.0601924205778914
 51
9.9398075794221352
  0
ARC
  5
390A
  8
0
  6
VERDECKT
 62
     1
 10
-0.0000000000236158
 20
-0.0000000000407511
 30
0.0
 40
57.8686291501488128
 50
58.5146823501289077
 51
61.4853176498708365
  0
ARC
  5
390B
  8
0
  6
VERDECKT
 62
     1
 10
0.0000000000000311
 20
0.0000000000004036
 30
0.0
 40
57.868629150101313
 50
80.0601924205784172
 51
99.9398075794214833
  0
ARC
  5
390C
  8
0
  6
VERDECKT
 62
     1
 10
-0.0000000000062217
 20
0.0000000000005563
 30
0.0
 40
57.8686291500954368
 50
170.0601924205772946
 51
180.0000000000005116
  0
ARC
  5
390D
  8
0
  6
VERDECKT
 62
     1
 10
0.0000000000041175
 20
-0.0000000000073218
 30
0.0
 40
34.8999999999916923
 50
297.5366718750244104
 51
302.4633281249759875
  0
ARC
  5
390E
  8
0
  6
VERDECKT
 62
     1
 10
0.0000000000041175
 20
0.0000000000073545
 30
0.0
 40
34.8999999999916994
 50
57.5366718750239698
 51
62.4633281249756678
  0
ARC
  5
390F
  8
0
  6
VERDECKT
 62
     1
 10
0.0000000000006826
 20
-0.0000000000012391
 30
0.0
 40
34.2814676152476565
 50
297.4921984785794962
 51
302.5078015214206175
  0
ARC
  5
3910
  8
0
  6
VERDECKT
 62
     1
 10
0.0000000000006826
 20
0.0000000000012229
 30
0.0
 40
34.281467615247692
 50
57.4921984785794109
 51
62.5078015214205394
  0
ENDBLK
  5
3912
  8
0
  0
ENDSEC
  0
SECTION
  2
ENTITIES
  0
TEXT
  5
1871
  8
TEXT35
 10
339.4627620700201192
 20
530.8138270605206799
 30
0.0
 40
3.5
  1

 41
0.8
  0
INSERT
  5
3854
  8
0
  2
A$C7A0E166E
 10
0.0
 20
0.0000000000000113
 30
0.0
  0
INSERT
  5
3913
  8
0
  2
A$C416F689B
 10
0.0
 20
-113.1157906098711976
 30
0.0
  0
VIEWPORT
  5
3436
 67
     1
  8
0
 10
5.7088856343541616
 20
6.8428344963384262
 30
0.0
 40
26.4506612513640995
 41
14.0125526867345496
 68
     1
 69
     1
1001
ACAD
1000
MVIEW
1002
{
1070
    16
1010
0.0
1020
0.0
1030
0.0
1010
0.0
1020
0.0
1030
1.0
1040
0.0
1040
14.0125526867345496
1040
5.7088856343541616
1040
6.8428344963384262
1040
50.0
1040
0.0
1040
0.0
1070
     0
1070
  1500
1070
     1
1070
     1
1070
     0
1070
     0
1070
     0
1070
     0
1040
0.0
1040
0.0
1040
0.0
1040
10.0
1040
10.0
1040
10.0
1040
10.0
1070
     0
1002
{
1002
}
1002
}
  0
ENDSEC
  0
EOF
