  0
SECTION
  2
HEADER
  9
$ACADVER
  1
AC1009
  9
$INSBASE
 10
0.0
 20
0.0
 30
0.0
  9
$EXTMIN
 10
-63.4532880889350892
 20
-153.7757229700511914
 30
-0.00000000000004
  9
$EXTMAX
 10
63.4532880889345634
 20
180.000000000000199
 30
0.0000000000000163
  9
$LIMMIN
 10
0.0
 20
0.0
  9
$LIMMAX
 10
297.0
 20
420.0
  9
$ORTHOMODE
 70
     1
  9
$REGENMODE
 70
     1
  9
$FILLMODE
 70
     1
  9
$QTEXTMODE
 70
     0
  9
$MIRRTEXT
 70
     1
  9
$DRAGMODE
 70
     2
  9
$LTSCALE
 40
10.0
  9
$OSMODE
 70
  1327
  9
$ATTMODE
 70
     1
  9
$TEXTSIZE
 40
3.5
  9
$TRACEWID
 40
0.5
  9
$TEXTSTYLE
  7
STANDARD
  9
$CLAYER
  8
0
  9
$CELTYPE
  6
BYLAYER
  9
$CECOLOR
 62
   256
  9
$DIMSCALE
 40
0.0
  9
$DIMASZ
 40
3.5
  9
$DIMEXO
 40
1.0
  9
$DIMDLI
 40
8.0
  9
$DIMRND
 40
0.0
  9
$DIMDLE
 40
0.0
  9
$DIMEXE
 40
1.0
  9
$DIMTP
 40
0.8
  9
$DIMTM
 40
0.0
  9
$DIMTXT
 40
3.5
  9
$DIMCEN
 40
1.5
  9
$DIMTSZ
 40
0.0
  9
$DIMTOL
 70
     0
  9
$DIMLIM
 70
     0
  9
$DIMTIH
 70
     0
  9
$DIMTOH
 70
     0
  9
$DIMSE1
 70
     0
  9
$DIMSE2
 70
     0
  9
$DIMTAD
 70
     1
  9
$DIMZIN
 70
     8
  9
$DIMBLK
  1

  9
$DIMASO
 70
     1
  9
$DIMSHO
 70
     0
  9
$DIMPOST
  1

  9
$DIMAPOST
  1

  9
$DIMALT
 70
     0
  9
$DIMALTD
 70
     2
  9
$DIMALTF
 40
25.3999999999999986
  9
$DIMLFAC
 40
1.0
  9
$DIMTOFL
 70
     1
  9
$DIMTVP
 40
0.0
  9
$DIMTIX
 70
     0
  9
$DIMSOXD
 70
     0
  9
$DIMSAH
 70
     0
  9
$DIMBLK1
  1

  9
$DIMBLK2
  1

  9
$DIMSTYLE
  2
STANDARD
  9
$DIMCLRD
 70
     0
  9
$DIMCLRE
 70
     0
  9
$DIMCLRT
 70
     1
  9
$DIMTFAC
 40
0.5
  9
$DIMGAP
 40
1.5
  9
$LUNITS
 70
     2
  9
$LUPREC
 70
     2
  9
$SKETCHINC
 40
1.0
  9
$FILLETRAD
 40
0.0
  9
$AUNITS
 70
     0
  9
$AUPREC
 70
     0
  9
$MENU
  1
ACAD
  9
$ELEVATION
 40
0.0
  9
$PELEVATION
 40
0.0
  9
$THICKNESS
 40
0.0
  9
$LIMCHECK
 70
     0
  9
$BLIPMODE
 70
     0
  9
$CHAMFERA
 40
0.0
  9
$CHAMFERB
 40
0.0
  9
$SKPOLY
 70
     0
  9
$TDCREATE
 40
2451879.5874421298503876
  9
$TDUPDATE
 40
2458401.6213888889178634
  9
$TDINDWG
 40
0.1161753819
  9
$TDUSRTIMER
 40
0.1161753819
  9
$USRTIMER
 70
     1
  9
$ANGBASE
 50
0.0
  9
$ANGDIR
 70
     0
  9
$PDMODE
 70
     0
  9
$PDSIZE
 40
0.0
  9
$PLINEWID
 40
0.0
  9
$COORDS
 70
     1
  9
$SPLFRAME
 70
     0
  9
$SPLINETYPE
 70
     6
  9
$SPLINESEGS
 70
     8
  9
$ATTDIA
 70
     0
  9
$ATTREQ
 70
     0
  9
$HANDLING
 70
     1
  9
$HANDSEED
  5
2D66
  9
$SURFTAB1
 70
     6
  9
$SURFTAB2
 70
     6
  9
$SURFTYPE
 70
     6
  9
$SURFU
 70
     6
  9
$SURFV
 70
     6
  9
$UCSNAME
  2

  9
$UCSORG
 10
0.0
 20
0.0
 30
0.0
  9
$UCSXDIR
 10
1.0
 20
0.0
 30
0.0
  9
$UCSYDIR
 10
0.0
 20
1.0
 30
0.0
  9
$PUCSNAME
  2

  9
$PUCSORG
 10
0.0
 20
0.0
 30
0.0
  9
$PUCSXDIR
 10
1.0
 20
0.0
 30
0.0
  9
$PUCSYDIR
 10
0.0
 20
1.0
 30
0.0
  9
$USERI1
 70
     0
  9
$USERI2
 70
     0
  9
$USERI3
 70
     0
  9
$USERI4
 70
     0
  9
$USERI5
 70
     0
  9
$USERR1
 40
0.0
  9
$USERR2
 40
0.0
  9
$USERR3
 40
0.0
  9
$USERR4
 40
0.0
  9
$USERR5
 40
0.0
  9
$WORLDVIEW
 70
     1
  9
$SHADEDGE
 70
     3
  9
$SHADEDIF
 70
    70
  9
$TILEMODE
 70
     1
  9
$MAXACTVP
 70
    16
  9
$PLIMCHECK
 70
     0
  9
$PEXTMIN
 10
-0.1378786349720507
 20
-0.1358694977229646
 30
-0.0000000000000058
  9
$PEXTMAX
 10
10.6387171986881999
 20
14.7698440379377605
 30
0.0000000000000104
  9
$PLIMMIN
 10
-0.2500002402958907
 20
-0.2499999962453767
  9
$PLIMMAX
 10
10.7499995194082203
 20
8.2499997634587334
  9
$UNITMODE
 70
     0
  9
$VISRETAIN
 70
     0
  9
$PLINEGEN
 70
     0
  9
$PSLTSCALE
 70
     0
  0
ENDSEC
  0
SECTION
  2
TABLES
  0
TABLE
  2
VPORT
 70
     1
  0
VPORT
  2
*ACTIVE
 70
     0
 10
0.0
 20
0.0
 11
1.0
 21
1.0
 12
-0.0000000000002274
 22
-45.1618826337071582
 13
0.0
 23
0.0
 14
1.0
 24
1.0
 15
10.0
 25
10.0
 16
-0.000000000000158
 26
0.0
 36
711.5445730552401074
 17
0.0
 27
58.2740211486816406
 37
-0.0000000000000118
 40
336.2727982042413259
 41
1.887640449438202
 42
50.0
 43
0.0
 44
0.0
 50
0.0
 51
0.0
 71
     0
 72
  1500
 73
     1
 74
     0
 75
     0
 76
     0
 77
     0
 78
     0
  0
ENDTAB
  0
TABLE
  2
LTYPE
 70
     4
  0
LTYPE
  2
AUSGEZOGEN
 70
     0
  3
Ausgezogene Linie
 72
    65
 73
     0
 40
0.0
  0
LTYPE
  2
CONTINUOUS
 70
     0
  3
Solid line
 72
    65
 73
     0
 40
0.0
  0
LTYPE
  2
VERDECKT
 70
     0
  3
Verdeckt __ __ __ __ __ __ __ __ __ __ __ __ __
 72
    65
 73
     2
 40
0.375
 49
0.25
 49
-0.125
  0
ENDTAB
  0
TABLE
  2
LAYER
 70
    12
  0
LAYER
  2
0
 70
     0
 62
     7
  6
AUSGEZOGEN
  0
LAYER
  2
DEFPOINTS
 70
     0
 62
     7
  6
AUSGEZOGEN
  0
LAYER
  2
TEXT35
 70
     0
 62
     1
  6
AUSGEZOGEN
  0
ENDTAB
  0
TABLE
  2
STYLE
 70
     4
  0
STYLE
  2
STANDARD
 70
     0
 40
0.0
 41
0.8
 50
0.0
 71
     0
 42
3.5
  3
simplex.shx
  4

  0
ENDTAB
  0
TABLE
  2
VIEW
 70
     2
  0
ENDTAB
  0
TABLE
  2
UCS
 70
     0
  0
ENDTAB
  0
TABLE
  2
APPID
 70
     9
  0
APPID
  2
ACAD
 70
     0
  0
APPID
  2
ACAD_NAV_VCDISPLAY
 70
     0
  0
APPID
  2
ACAD_PSEXT
 70
     0
  0
APPID
  2
ACAECLAYERSTANDARD
 70
     0
  0
APPID
  2
ACCMTRANSPARENCY
 70
     0
  0
APPID
  2
ACAD_EXEMPT_FROM_CAD_STANDARDS
 70
     0
  0
APPID
  2
ACAD_MLEADERVER
 70
     0
  0
APPID
  2
ACAD_OBJECT_CHANGE_GUID
 70
     0
  0
APPID
  2
ACADANNOMONITORALERTICONDI
 70
     0
  0
ENDTAB
  0
TABLE
  2
DIMSTYLE
 70
     2
  0
DIMSTYLE
  2
STANDARD
 70
     0
  3

  4

  5

  6

  7

 40
0.0
 41
3.5
 42
1.0
 43
8.0
 44
1.5
 45
0.0
 46
0.0
 47
0.5
 48
0.0
140
3.5
141
1.5
142
0.0
143
25.3999999999999986
144
1.0
145
0.0
146
1.0
147
1.0
 71
     0
 72
     0
 73
     0
 74
     0
 75
     0
 76
     0
 77
     1
 78
     8
170
     0
171
     2
172
     1
173
     0
174
     0
175
     0
176
     0
177
     0
178
     1
  0
ENDTAB
  0
ENDSEC
  0
SECTION
  2
BLOCKS
  0
BLOCK
  8
0
  2
$MODEL_SPACE
 70
     0
 10
0.0
 20
0.0
 30
0.0
  3
$MODEL_SPACE
  1

  0
ENDBLK
  5
1DFE
  8
0
  0
BLOCK
 67
     1
  8
0
  2
$PAPER_SPACE
 70
     0
 10
0.0
 20
0.0
 30
0.0
  3
$PAPER_SPACE
  1

  0
ENDBLK
  5
1DFC
 67
     1
  8
0
  0
BLOCK
  8
0
  2
A$C33050058
 70
     0
 10
0.0
 20
0.0
 30
0.0
  3
A$C33050058
  1

  0
LINE
  5
2B6C
  8
0
  6
AUSGEZOGEN
 62
     3
 10
43.2527355812501284
 20
102.5699999999999932
 30
-0.0000000000000228
 11
33.6601938457109782
 21
102.5699999999999932
 31
-0.0000000000000228
210
0.0
220
1.0
230
-0.0000000000000002
  0
LINE
  5
2B6D
  8
0
  6
AUSGEZOGEN
 62
     3
 10
43.2527355812501284
 20
101.0699999999999932
 30
-0.0000000000000224
 11
33.6601938457109782
 21
101.0699999999999932
 31
-0.0000000000000224
210
0.0
220
1.0
230
-0.0000000000000002
  0
LINE
  5
2B6E
  8
0
  6
AUSGEZOGEN
 62
     3
 10
43.2527355812501284
 20
102.5699999999999932
 30
-0.0000000000000228
 11
44.0982044914695734
 21
102.5699999999999932
 31
-0.0000000000000228
210
0.0
220
1.0
230
-0.0000000000000002
  0
LINE
  5
2B6F
  8
0
  6
AUSGEZOGEN
 62
     3
 10
43.2527355812501284
 20
101.0699999999999932
 30
-0.0000000000000224
 11
44.0982044914695734
 21
101.0699999999999932
 31
-0.0000000000000224
210
0.0
220
1.0
230
-0.0000000000000002
  0
LINE
  5
2B70
  8
0
  6
AUSGEZOGEN
 62
     3
 10
44.0982044914696303
 20
102.5699999999999932
 30
-0.0000000000000228
 11
46.3826299451475279
 21
102.5699999999999932
 31
-0.0000000000000228
210
0.0
220
1.0
230
-0.0000000000000002
  0
LINE
  5
2B71
  8
0
  6
AUSGEZOGEN
 62
     3
 10
44.0982044914696303
 20
101.0699999999999932
 30
-0.0000000000000224
 11
46.3826299451475279
 21
101.0699999999999932
 31
-0.0000000000000224
210
0.0
220
1.0
230
-0.0000000000000002
  0
LINE
  5
2B72
  8
0
  6
AUSGEZOGEN
 62
     3
 10
46.3826299451475279
 20
102.5699999999999932
 30
-0.0000000000000228
 11
46.6579013522547186
 21
102.5699999999999932
 31
-0.0000000000000228
210
0.0
220
1.0
230
-0.0000000000000002
  0
LINE
  5
2B73
  8
0
  6
AUSGEZOGEN
 62
     3
 10
46.3826299451475279
 20
101.0699999999999932
 30
-0.0000000000000224
 11
46.6579013522547186
 21
101.0699999999999932
 31
-0.0000000000000224
210
0.0
220
1.0
230
-0.0000000000000002
  0
LINE
  5
2B74
  8
0
  6
AUSGEZOGEN
 62
     3
 10
55.5500759498705676
 20
102.5699999999999932
 30
-0.0000000000000228
 11
46.6579013522547186
 21
102.5699999999999932
 31
-0.0000000000000228
210
0.0
220
1.0
230
-0.0000000000000002
  0
LINE
  5
2B75
  8
0
  6
AUSGEZOGEN
 62
     3
 10
55.5500759498705676
 20
101.0699999999999932
 30
-0.0000000000000224
 11
46.6579013522547186
 21
101.0699999999999932
 31
-0.0000000000000224
210
0.0
220
1.0
230
-0.0000000000000002
  0
LINE
  5
2B76
  8
0
  6
AUSGEZOGEN
 62
     3
 10
55.5500759498705889
 20
102.5699999999999932
 30
-0.0000000000000228
 11
56.2729056353832675
 21
102.5699999999999932
 31
-0.0000000000000228
210
0.0
220
1.0
230
-0.0000000000000002
  0
LINE
  5
2B77
  8
0
  6
AUSGEZOGEN
 62
     3
 10
55.5500759498705889
 20
101.0699999999999932
 30
-0.0000000000000224
 11
56.2729056353832675
 21
101.0699999999999932
 31
-0.0000000000000224
210
0.0
220
1.0
230
-0.0000000000000002
  0
LINE
  5
2B78
  8
0
  6
AUSGEZOGEN
 62
     3
 10
56.2729056353832675
 20
102.5699999999999932
 30
-0.0000000000000228
 11
57.7395970615250533
 21
102.5699999999999932
 31
-0.0000000000000228
210
0.0
220
1.0
230
-0.0000000000000002
  0
LINE
  5
2B79
  8
0
  6
AUSGEZOGEN
 62
     3
 10
56.2729056353832675
 20
101.0699999999999932
 30
-0.0000000000000224
 11
57.7395970615250533
 21
101.0699999999999932
 31
-0.0000000000000224
210
0.0
220
1.0
230
-0.0000000000000002
  0
LINE
  5
2B7A
  8
0
  6
AUSGEZOGEN
 62
     3
 10
57.7395970615250391
 20
102.5699999999999932
 30
-0.0000000000000228
 11
57.8374158574387209
 21
102.5699999999999932
 31
-0.0000000000000228
210
0.0
220
1.0
230
-0.0000000000000002
  0
LINE
  5
2B7B
  8
0
  6
AUSGEZOGEN
 62
     3
 10
57.7395970615250391
 20
101.0699999999999932
 30
-0.0000000000000224
 11
57.8374158574387209
 21
101.0699999999999932
 31
-0.0000000000000224
210
0.0
220
1.0
230
-0.0000000000000002
  0
LINE
  5
2B7C
  8
0
  6
AUSGEZOGEN
 62
     3
 10
62.4097878443801619
 20
102.5699999999999932
 30
-0.0000000000000228
 11
57.8374158574387209
 21
102.5699999999999932
 31
-0.0000000000000228
210
0.0
220
1.0
230
-0.0000000000000002
  0
LINE
  5
2B7D
  8
0
  6
AUSGEZOGEN
 62
     3
 10
62.4097878443801619
 20
101.0699999999999932
 30
-0.0000000000000224
 11
57.8374158574387209
 21
101.0699999999999932
 31
-0.0000000000000224
210
0.0
220
1.0
230
-0.0000000000000002
  0
LINE
  5
2B7E
  8
0
  6
AUSGEZOGEN
 62
     3
 10
62.4097878443801619
 20
102.5699999999999932
 30
-0.0000000000000228
 11
62.9392226993174972
 21
102.5699999999999932
 31
-0.0000000000000228
210
0.0
220
1.0
230
-0.0000000000000002
  0
LINE
  5
2B7F
  8
0
  6
AUSGEZOGEN
 62
     3
 10
62.4097878443801619
 20
101.0699999999999932
 30
-0.0000000000000224
 11
62.9392226993174972
 21
101.0699999999999932
 31
-0.0000000000000224
210
0.0
220
1.0
230
-0.0000000000000002
  0
LINE
  5
2B80
  8
0
  6
AUSGEZOGEN
 62
     3
 10
62.9392226993174972
 20
102.5699999999999932
 30
-0.0000000000000228
 11
63.4446101220922927
 21
102.5699999999999932
 31
-0.0000000000000228
210
0.0
220
1.0
230
-0.0000000000000002
  0
LINE
  5
2B81
  8
0
  6
AUSGEZOGEN
 62
     3
 10
62.9392226993174972
 20
101.0699999999999932
 30
-0.0000000000000224
 11
63.4446101220922927
 21
101.0699999999999932
 31
-0.0000000000000224
210
0.0
220
1.0
230
-0.0000000000000002
  0
LINE
  5
2B82
  8
0
  6
AUSGEZOGEN
 62
     3
 10
63.4446101220922927
 20
102.5699999999999932
 30
-0.0000000000000228
 11
63.4532880889345208
 21
102.5699999999999932
 31
-0.0000000000000228
210
0.0
220
1.0
230
-0.0000000000000002
  0
LINE
  5
2B83
  8
0
  6
AUSGEZOGEN
 62
     3
 10
63.4446101220922927
 20
101.0699999999999932
 30
-0.0000000000000224
 11
63.4532880889345208
 21
101.0699999999999932
 31
-0.0000000000000224
210
0.0
220
1.0
230
-0.0000000000000002
  0
LINE
  5
2B84
  8
0
  6
AUSGEZOGEN
 62
     3
 10
-63.4532880889350892
 20
102.5699999999999932
 30
-0.0000000000000228
 11
-63.44461012209279
 21
102.5699999999999932
 31
-0.0000000000000228
210
0.0
220
1.0
230
-0.0000000000000002
  0
LINE
  5
2B85
  8
0
  6
AUSGEZOGEN
 62
     3
 10
-63.4532880889350892
 20
101.0699999999999932
 30
-0.0000000000000224
 11
-63.44461012209279
 21
101.0699999999999932
 31
-0.0000000000000224
210
0.0
220
1.0
230
-0.0000000000000002
  0
LINE
  5
2B86
  8
0
  6
AUSGEZOGEN
 62
     3
 10
-63.44461012209279
 20
102.5699999999999932
 30
-0.0000000000000228
 11
-62.9392226993180088
 21
102.5699999999999932
 31
-0.0000000000000228
210
0.0
220
1.0
230
-0.0000000000000002
  0
LINE
  5
2B87
  8
0
  6
AUSGEZOGEN
 62
     3
 10
-63.44461012209279
 20
101.0699999999999932
 30
-0.0000000000000224
 11
-62.9392226993180088
 21
101.0699999999999932
 31
-0.0000000000000224
210
0.0
220
1.0
230
-0.0000000000000002
  0
LINE
  5
2B88
  8
0
  6
AUSGEZOGEN
 62
     3
 10
-62.939222699317952
 20
102.5699999999999932
 30
-0.0000000000000228
 11
-62.4097878443807872
 21
102.5699999999999932
 31
-0.0000000000000228
210
0.0
220
1.0
230
-0.0000000000000002
  0
LINE
  5
2B89
  8
0
  6
AUSGEZOGEN
 62
     3
 10
-62.939222699317952
 20
101.0699999999999932
 30
-0.0000000000000224
 11
-62.4097878443807872
 21
101.0699999999999932
 31
-0.0000000000000224
210
0.0
220
1.0
230
-0.0000000000000002
  0
LINE
  5
2B8A
  8
0
  6
AUSGEZOGEN
 62
     3
 10
-57.8374158574391686
 20
102.5699999999999932
 30
-0.0000000000000228
 11
-62.4097878443807872
 21
102.5699999999999932
 31
-0.0000000000000228
210
0.0
220
1.0
230
-0.0000000000000002
  0
LINE
  5
2B8B
  8
0
  6
AUSGEZOGEN
 62
     3
 10
-57.8374158574391686
 20
101.0699999999999932
 30
-0.0000000000000224
 11
-62.4097878443807872
 21
101.0699999999999932
 31
-0.0000000000000224
210
0.0
220
1.0
230
-0.0000000000000002
  0
LINE
  5
2B8C
  8
0
  6
AUSGEZOGEN
 62
     3
 10
-57.8374158574391473
 20
102.5699999999999932
 30
-0.0000000000000228
 11
-57.739597061525501
 21
102.5699999999999932
 31
-0.0000000000000228
210
0.0
220
1.0
230
-0.0000000000000002
  0
LINE
  5
2B8D
  8
0
  6
AUSGEZOGEN
 62
     3
 10
-57.8374158574391615
 20
101.0699999999999932
 30
-0.0000000000000224
 11
-57.739597061525501
 21
101.0699999999999932
 31
-0.0000000000000224
210
0.0
220
1.0
230
-0.0000000000000002
  0
LINE
  5
2B8E
  8
0
  6
AUSGEZOGEN
 62
     3
 10
-57.7395970615255081
 20
102.5699999999999932
 30
-0.0000000000000228
 11
-56.2729056353837791
 21
102.5699999999999932
 31
-0.0000000000000228
210
0.0
220
1.0
230
-0.0000000000000002
  0
LINE
  5
2B8F
  8
0
  6
AUSGEZOGEN
 62
     3
 10
-57.7395970615255081
 20
101.0699999999999932
 30
-0.0000000000000224
 11
-56.2729056353837791
 21
101.0699999999999932
 31
-0.0000000000000224
210
0.0
220
1.0
230
-0.0000000000000002
  0
LINE
  5
2B90
  8
0
  6
AUSGEZOGEN
 62
     3
 10
-56.272905635383772
 20
102.5699999999999932
 30
-0.0000000000000228
 11
-55.5500759498710934
 21
102.5699999999999932
 31
-0.0000000000000228
210
0.0
220
1.0
230
-0.0000000000000002
  0
LINE
  5
2B91
  8
0
  6
AUSGEZOGEN
 62
     3
 10
-56.272905635383772
 20
101.0699999999999932
 30
-0.0000000000000224
 11
-55.5500759498710934
 21
101.0699999999999932
 31
-0.0000000000000224
210
0.0
220
1.0
230
-0.0000000000000002
  0
LINE
  5
2B92
  8
0
  6
AUSGEZOGEN
 62
     3
 10
-46.6579013522550596
 20
102.5699999999999932
 30
-0.0000000000000228
 11
-55.5500759498710934
 21
102.5699999999999932
 31
-0.0000000000000228
210
0.0
220
1.0
230
-0.0000000000000002
  0
LINE
  5
2B93
  8
0
  6
AUSGEZOGEN
 62
     3
 10
-46.6579013522550596
 20
101.0699999999999932
 30
-0.0000000000000224
 11
-55.5500759498710934
 21
101.0699999999999932
 31
-0.0000000000000224
210
0.0
220
1.0
230
-0.0000000000000002
  0
LINE
  5
2B94
  8
0
  6
AUSGEZOGEN
 62
     3
 10
-46.6579013522550667
 20
102.5699999999999932
 30
-0.0000000000000228
 11
-46.3826299451479827
 21
102.5699999999999932
 31
-0.0000000000000228
210
0.0
220
1.0
230
-0.0000000000000002
  0
LINE
  5
2B95
  8
0
  6
AUSGEZOGEN
 62
     3
 10
-46.6579013522550667
 20
101.0699999999999932
 30
-0.0000000000000224
 11
-46.3826299451479827
 21
101.0699999999999932
 31
-0.0000000000000224
210
0.0
220
1.0
230
-0.0000000000000002
  0
LINE
  5
2B96
  8
0
  6
AUSGEZOGEN
 62
     3
 10
-46.3826299451479684
 20
102.5699999999999932
 30
-0.0000000000000228
 11
-44.0982044914700211
 21
102.5699999999999932
 31
-0.0000000000000228
210
0.0
220
1.0
230
-0.0000000000000002
  0
LINE
  5
2B97
  8
0
  6
AUSGEZOGEN
 62
     3
 10
-46.3826299451479684
 20
101.0699999999999932
 30
-0.0000000000000224
 11
-44.0982044914700211
 21
101.0699999999999932
 31
-0.0000000000000224
210
0.0
220
1.0
230
-0.0000000000000002
  0
LINE
  5
2B98
  8
0
  6
AUSGEZOGEN
 62
     3
 10
-44.0982044914700779
 20
102.5699999999999932
 30
-0.0000000000000228
 11
-43.2527355812505903
 21
102.5699999999999932
 31
-0.0000000000000228
210
0.0
220
1.0
230
-0.0000000000000002
  0
LINE
  5
2B99
  8
0
  6
AUSGEZOGEN
 62
     3
 10
-44.0982044914700779
 20
101.0699999999999932
 30
-0.0000000000000224
 11
-43.2527355812505903
 21
101.0699999999999932
 31
-0.0000000000000224
210
0.0
220
1.0
230
-0.0000000000000002
  0
LINE
  5
2B9A
  8
0
  6
AUSGEZOGEN
 62
     3
 10
-33.6601938457114329
 20
102.5699999999999932
 30
-0.0000000000000228
 11
-43.2527355812505903
 21
102.5699999999999932
 31
-0.0000000000000228
210
0.0
220
1.0
230
-0.0000000000000002
  0
LINE
  5
2B9B
  8
0
  6
AUSGEZOGEN
 62
     3
 10
-33.6601938457114329
 20
101.0699999999999932
 30
-0.0000000000000224
 11
-43.2527355812505903
 21
101.0699999999999932
 31
-0.0000000000000224
210
0.0
220
1.0
230
-0.0000000000000002
  0
LINE
  5
2B9C
  8
0
  6
AUSGEZOGEN
 62
     3
 10
-32.5160710400760991
 20
102.5699999999999932
 30
-0.0000000000000228
 11
-33.6601938457114329
 21
102.5699999999999932
 31
-0.0000000000000228
210
0.0
220
1.0
230
-0.0000000000000002
  0
LINE
  5
2B9D
  8
0
  6
AUSGEZOGEN
 62
     3
 10
-32.5160710400760991
 20
101.0699999999999932
 30
-0.0000000000000224
 11
-33.6601938457114329
 21
101.0699999999999932
 31
-0.0000000000000224
210
0.0
220
1.0
230
-0.0000000000000002
  0
LINE
  5
2B9E
  8
0
  6
AUSGEZOGEN
 62
     3
 10
-30.9967616860029196
 20
102.5699999999999932
 30
-0.0000000000000228
 11
-32.5160710400760991
 21
102.5699999999999932
 31
-0.0000000000000228
210
0.0
220
1.0
230
-0.0000000000000002
  0
LINE
  5
2B9F
  8
0
  6
AUSGEZOGEN
 62
     3
 10
-30.9967616860029196
 20
101.0699999999999932
 30
-0.0000000000000224
 11
-32.5160710400760991
 21
101.0699999999999932
 31
-0.0000000000000224
210
0.0
220
1.0
230
-0.0000000000000002
  0
LINE
  5
2BA0
  8
0
  6
AUSGEZOGEN
 62
     3
 10
-30.9967616860028805
 20
102.5699999999999932
 30
-0.0000000000000228
 11
-30.4854078429539186
 21
102.5699999999999932
 31
-0.0000000000000228
210
0.0
220
1.0
230
-0.0000000000000002
  0
LINE
  5
2BA1
  8
0
  6
AUSGEZOGEN
 62
     3
 10
-30.9967616860028805
 20
101.0699999999999932
 30
-0.0000000000000224
 11
-30.4854078429539186
 21
101.0699999999999932
 31
-0.0000000000000224
210
0.0
220
1.0
230
-0.0000000000000002
  0
LINE
  5
2BA2
  8
0
  6
AUSGEZOGEN
 62
     3
 10
-30.4854078429539186
 20
102.5699999999999932
 30
-0.0000000000000228
 11
-27.6068638416737713
 21
102.5699999999999932
 31
-0.0000000000000228
210
0.0
220
1.0
230
-0.0000000000000002
  0
LINE
  5
2BA3
  8
0
  6
AUSGEZOGEN
 62
     3
 10
-30.4854078429539186
 20
101.0699999999999932
 30
-0.0000000000000224
 11
-27.6068638416737713
 21
101.0699999999999932
 31
-0.0000000000000224
210
0.0
220
1.0
230
-0.0000000000000002
  0
LINE
  5
2BA4
  8
0
  6
AUSGEZOGEN
 62
     3
 10
-27.6068638416737606
 20
102.5699999999999932
 30
-0.0000000000000228
 11
-26.7215160944081198
 21
102.5699999999999932
 31
-0.0000000000000228
210
0.0
220
1.0
230
-0.0000000000000002
  0
LINE
  5
2BA5
  8
0
  6
AUSGEZOGEN
 62
     3
 10
-27.6068638416737606
 20
101.0699999999999932
 30
-0.0000000000000224
 11
-26.7215160944081198
 21
101.0699999999999932
 31
-0.0000000000000224
210
0.0
220
1.0
230
-0.0000000000000002
  0
LINE
  5
2BA6
  8
0
  6
AUSGEZOGEN
 62
     3
 10
-18.0679591791117709
 20
102.5699999999999932
 30
-0.0000000000000228
 11
-26.7215160944081198
 21
102.5699999999999932
 31
-0.0000000000000228
210
0.0
220
1.0
230
-0.0000000000000002
  0
LINE
  5
2BA7
  8
0
  6
AUSGEZOGEN
 62
     3
 10
-18.0679591791117709
 20
101.0699999999999932
 30
-0.0000000000000224
 11
-26.7215160944081198
 21
101.0699999999999932
 31
-0.0000000000000224
210
0.0
220
1.0
230
-0.0000000000000002
  0
LINE
  5
2BA8
  8
0
  6
AUSGEZOGEN
 62
     3
 10
-16.7229621551838896
 20
102.5699999999999932
 30
-0.0000000000000228
 11
-18.0679591791118312
 21
102.5699999999999932
 31
-0.0000000000000228
210
0.0
220
1.0
230
-0.0000000000000002
  0
LINE
  5
2BA9
  8
0
  6
AUSGEZOGEN
 62
     3
 10
-16.7229621551838896
 20
101.0699999999999932
 30
-0.0000000000000224
 11
-18.0679591791118312
 21
101.0699999999999932
 31
-0.0000000000000224
210
0.0
220
1.0
230
-0.0000000000000002
  0
LINE
  5
2BAA
  8
0
  6
AUSGEZOGEN
 62
     3
 10
-12.3137546781919092
 20
102.5699999999999932
 30
-0.0000000000000228
 11
-16.7229621551838896
 21
102.5699999999999932
 31
-0.0000000000000228
210
0.0
220
1.0
230
-0.0000000000000002
  0
LINE
  5
2BAB
  8
0
  6
AUSGEZOGEN
 62
     3
 10
-12.3137546781919092
 20
101.0699999999999932
 30
-0.0000000000000224
 11
-16.7229621551838896
 21
101.0699999999999932
 31
-0.0000000000000224
210
0.0
220
1.0
230
-0.0000000000000002
  0
LINE
  5
2BAC
  8
0
  6
AUSGEZOGEN
 62
     3
 10
-12.3137546781919198
 20
102.5699999999999932
 30
-0.0000000000000228
 11
-11.6040616167655308
 21
102.5699999999999932
 31
-0.0000000000000228
210
0.0
220
1.0
230
-0.0000000000000002
  0
LINE
  5
2BAD
  8
0
  6
AUSGEZOGEN
 62
     3
 10
-12.3137546781919198
 20
101.0699999999999932
 30
-0.0000000000000224
 11
-11.6040616167655308
 21
101.0699999999999932
 31
-0.0000000000000224
210
0.0
220
1.0
230
-0.0000000000000002
  0
LINE
  5
2BAE
  8
0
  6
AUSGEZOGEN
 62
     3
 10
-11.6040616167655308
 20
102.5699999999999932
 30
-0.0000000000000228
 11
-8.4131710107238877
 21
102.5699999999999932
 31
-0.0000000000000228
210
0.0
220
1.0
230
-0.0000000000000002
  0
LINE
  5
2BAF
  8
0
  6
AUSGEZOGEN
 62
     3
 10
-11.6040616167655308
 20
101.0699999999999932
 30
-0.0000000000000224
 11
-8.4131710107238877
 21
101.0699999999999932
 31
-0.0000000000000224
210
0.0
220
1.0
230
-0.0000000000000002
  0
LINE
  5
2BB0
  8
0
  6
AUSGEZOGEN
 62
     3
 10
-8.4131710107238842
 20
102.5699999999999932
 30
-0.0000000000000228
 11
-7.574608432494756
 21
102.5699999999999932
 31
-0.0000000000000228
210
0.0
220
1.0
230
-0.0000000000000002
  0
LINE
  5
2BB1
  8
0
  6
AUSGEZOGEN
 62
     3
 10
-8.4131710107238842
 20
101.0699999999999932
 30
-0.0000000000000224
 11
-7.574608432494756
 21
101.0699999999999932
 31
-0.0000000000000224
210
0.0
220
1.0
230
-0.0000000000000002
  0
LINE
  5
2BB2
  8
0
  6
AUSGEZOGEN
 62
     3
 10
-0.7071067811867806
 20
102.5699999999999932
 30
-0.0000000000000228
 11
-7.574608432494756
 21
102.5699999999999932
 31
-0.0000000000000228
210
0.0
220
1.0
230
-0.0000000000000002
  0
LINE
  5
2BB3
  8
0
  6
AUSGEZOGEN
 62
     3
 10
-0.7071067811867806
 20
101.0699999999999932
 30
-0.0000000000000224
 11
-7.574608432494756
 21
101.0699999999999932
 31
-0.0000000000000224
210
0.0
220
1.0
230
-0.0000000000000002
  0
LINE
  5
2BB4
  8
0
  6
AUSGEZOGEN
 62
     3
 10
0.7071067811863259
 20
102.5699999999999932
 30
-0.0000000000000228
 11
-0.7071067811867806
 21
102.5699999999999932
 31
-0.0000000000000228
210
0.0
220
1.0
230
-0.0000000000000002
  0
LINE
  5
2BB5
  8
0
  6
AUSGEZOGEN
 62
     3
 10
0.7071067811863259
 20
101.0699999999999932
 30
-0.0000000000000224
 11
-0.7071067811867806
 21
101.0699999999999932
 31
-0.0000000000000224
210
0.0
220
1.0
230
-0.0000000000000002
  0
LINE
  5
2BB6
  8
0
  6
AUSGEZOGEN
 62
     3
 10
7.5746084324941867
 20
102.5699999999999932
 30
-0.0000000000000228
 11
0.7071067811863259
 21
102.5699999999999932
 31
-0.0000000000000228
210
0.0
220
1.0
230
-0.0000000000000002
  0
LINE
  5
2BB7
  8
0
  6
AUSGEZOGEN
 62
     3
 10
7.5746084324941867
 20
101.0699999999999932
 30
-0.0000000000000224
 11
0.7071067811863259
 21
101.0699999999999932
 31
-0.0000000000000224
210
0.0
220
1.0
230
-0.0000000000000002
  0
LINE
  5
2BB8
  8
0
  6
AUSGEZOGEN
 62
     3
 10
7.5746084324941991
 20
102.5699999999999932
 30
-0.0000000000000228
 11
8.4131710107233175
 21
102.5699999999999932
 31
-0.0000000000000228
210
0.0
220
1.0
230
-0.0000000000000002
  0
LINE
  5
2BB9
  8
0
  6
AUSGEZOGEN
 62
     3
 10
7.5746084324941991
 20
101.0699999999999932
 30
-0.0000000000000224
 11
8.4131710107233175
 21
101.0699999999999932
 31
-0.0000000000000224
210
0.0
220
1.0
230
-0.0000000000000002
  0
LINE
  5
2BBA
  8
0
  6
AUSGEZOGEN
 62
     3
 10
8.4131710107233193
 20
102.5699999999999932
 30
-0.0000000000000228
 11
11.6040616167649695
 21
102.5699999999999932
 31
-0.0000000000000228
210
0.0
220
1.0
230
-0.0000000000000002
  0
LINE
  5
2BBB
  8
0
  6
AUSGEZOGEN
 62
     3
 10
8.4131710107233193
 20
101.0699999999999932
 30
-0.0000000000000224
 11
11.6040616167649695
 21
101.0699999999999932
 31
-0.0000000000000224
210
0.0
220
1.0
230
-0.0000000000000002
  0
LINE
  5
2BBC
  8
0
  6
AUSGEZOGEN
 62
     3
 10
11.6040616167649606
 20
102.5699999999999932
 30
-0.0000000000000228
 11
12.3137546781913993
 21
102.5699999999999932
 31
-0.0000000000000228
210
0.0
220
1.0
230
-0.0000000000000002
  0
LINE
  5
2BBD
  8
0
  6
AUSGEZOGEN
 62
     3
 10
11.6040616167649606
 20
101.0699999999999932
 30
-0.0000000000000224
 11
12.3137546781913993
 21
101.0699999999999932
 31
-0.0000000000000224
210
0.0
220
1.0
230
-0.0000000000000002
  0
LINE
  5
2BBE
  8
0
  6
AUSGEZOGEN
 62
     3
 10
16.7229621551833816
 20
102.5699999999999932
 30
-0.0000000000000228
 11
12.3137546781913993
 21
102.5699999999999932
 31
-0.0000000000000228
210
0.0
220
1.0
230
-0.0000000000000002
  0
LINE
  5
2BBF
  8
0
  6
AUSGEZOGEN
 62
     3
 10
16.7229621551833816
 20
101.0699999999999932
 30
-0.0000000000000224
 11
12.3137546781913993
 21
101.0699999999999932
 31
-0.0000000000000224
210
0.0
220
1.0
230
-0.0000000000000002
  0
LINE
  5
2BC0
  8
0
  6
AUSGEZOGEN
 62
     3
 10
18.067959179111309
 20
102.5699999999999932
 30
-0.0000000000000228
 11
16.72296215518341
 21
102.5699999999999932
 31
-0.0000000000000228
210
0.0
220
1.0
230
-0.0000000000000002
  0
LINE
  5
2BC1
  8
0
  6
AUSGEZOGEN
 62
     3
 10
18.067959179111309
 20
101.0699999999999932
 30
-0.0000000000000224
 11
16.72296215518341
 21
101.0699999999999932
 31
-0.0000000000000224
210
0.0
220
1.0
230
-0.0000000000000002
  0
LINE
  5
2BC2
  8
0
  6
AUSGEZOGEN
 62
     3
 10
26.7215160944076011
 20
102.5699999999999932
 30
-0.0000000000000228
 11
18.067959179111309
 21
102.5699999999999932
 31
-0.0000000000000228
210
0.0
220
1.0
230
-0.0000000000000002
  0
LINE
  5
2BC3
  8
0
  6
AUSGEZOGEN
 62
     3
 10
26.7215160944076011
 20
101.0699999999999932
 30
-0.0000000000000224
 11
18.067959179111309
 21
101.0699999999999932
 31
-0.0000000000000224
210
0.0
220
1.0
230
-0.0000000000000002
  0
LINE
  5
2BC4
  8
0
  6
AUSGEZOGEN
 62
     3
 10
26.7215160944076118
 20
102.5699999999999932
 30
-0.0000000000000228
 11
27.6068638416733201
 21
102.5699999999999932
 31
-0.0000000000000228
210
0.0
220
1.0
230
-0.0000000000000002
  0
LINE
  5
2BC5
  8
0
  6
AUSGEZOGEN
 62
     3
 10
26.7215160944076118
 20
101.0699999999999932
 30
-0.0000000000000224
 11
27.6068638416733201
 21
101.0699999999999932
 31
-0.0000000000000224
210
0.0
220
1.0
230
-0.0000000000000002
  0
LINE
  5
2BC6
  8
0
  6
AUSGEZOGEN
 62
     3
 10
27.6068638416733094
 20
102.5699999999999932
 30
-0.0000000000000228
 11
30.4854078429535207
 21
102.5699999999999932
 31
-0.0000000000000228
210
0.0
220
1.0
230
-0.0000000000000002
  0
LINE
  5
2BC7
  8
0
  6
AUSGEZOGEN
 62
     3
 10
27.6068638416733094
 20
101.0699999999999932
 30
-0.0000000000000224
 11
30.4854078429535207
 21
101.0699999999999932
 31
-0.0000000000000224
210
0.0
220
1.0
230
-0.0000000000000002
  0
LINE
  5
2BC8
  8
0
  6
AUSGEZOGEN
 62
     3
 10
30.4854078429535207
 20
102.5699999999999932
 30
-0.0000000000000228
 11
30.9967616860025217
 21
102.5699999999999932
 31
-0.0000000000000228
210
0.0
220
1.0
230
-0.0000000000000002
  0
LINE
  5
2BC9
  8
0
  6
AUSGEZOGEN
 62
     3
 10
30.4854078429535207
 20
101.0699999999999932
 30
-0.0000000000000224
 11
30.9967616860025217
 21
101.0699999999999932
 31
-0.0000000000000224
210
0.0
220
1.0
230
-0.0000000000000002
  0
LINE
  5
2BCA
  8
0
  6
AUSGEZOGEN
 62
     3
 10
32.5160710400756514
 20
102.5699999999999932
 30
-0.0000000000000228
 11
30.9967616860025217
 21
102.5699999999999932
 31
-0.0000000000000228
210
0.0
220
1.0
230
-0.0000000000000002
  0
LINE
  5
2BCB
  8
0
  6
AUSGEZOGEN
 62
     3
 10
32.5160710400756514
 20
101.0699999999999932
 30
-0.0000000000000224
 11
30.9967616860025217
 21
101.0699999999999932
 31
-0.0000000000000224
210
0.0
220
1.0
230
-0.0000000000000002
  0
LINE
  5
2BCC
  8
0
  6
AUSGEZOGEN
 62
     3
 10
33.6601938457109782
 20
102.5699999999999932
 30
-0.0000000000000228
 11
32.5160710400756514
 21
102.5699999999999932
 31
-0.0000000000000228
210
0.0
220
1.0
230
-0.0000000000000002
  0
LINE
  5
2BCD
  8
0
  6
AUSGEZOGEN
 62
     3
 10
33.6601938457109782
 20
101.0699999999999932
 30
-0.0000000000000224
 11
32.5160710400756514
 21
101.0699999999999932
 31
-0.0000000000000224
210
0.0
220
1.0
230
-0.0000000000000002
  0
LINE
  5
2BCE
  8
0
  6
AUSGEZOGEN
 62
     3
 10
46.6579013522546973
 20
102.5699999999999932
 30
-0.0000000000000228
 11
46.6579013522546973
 21
101.0699999999999932
 31
-0.0000000000000224
210
0.0
220
1.0
230
-0.0000000000000002
  0
LINE
  5
2BCF
  8
0
  6
AUSGEZOGEN
 62
     3
 10
57.8374158574387565
 20
102.5699999999999932
 30
-0.0000000000000228
 11
57.8374158574387565
 21
101.0699999999999932
 31
-0.0000000000000224
210
0.0
220
1.0
230
-0.0000000000000002
  0
LINE
  5
2BD0
  8
0
  6
AUSGEZOGEN
 62
     3
 10
63.4532880889345634
 20
102.5699999999999932
 30
-0.0000000000000228
 11
63.4532880889345634
 21
101.0699999999999932
 31
-0.0000000000000224
210
0.0
220
1.0
230
-0.0000000000000002
  0
LINE
  5
2BD1
  8
0
  6
AUSGEZOGEN
 62
     3
 10
-63.4532880889350892
 20
102.5699999999999932
 30
-0.0000000000000228
 11
-63.4532880889350892
 21
101.0699999999999932
 31
-0.0000000000000224
210
0.0
220
1.0
230
-0.0000000000000002
  0
LINE
  5
2BD2
  8
0
  6
AUSGEZOGEN
 62
     3
 10
-57.8374158574391615
 20
102.5699999999999932
 30
-0.0000000000000228
 11
-57.8374158574391615
 21
101.0699999999999932
 31
-0.0000000000000224
210
0.0
220
1.0
230
-0.0000000000000002
  0
LINE
  5
2BD3
  8
0
  6
AUSGEZOGEN
 62
     3
 10
-46.6579013522550525
 20
102.5699999999999932
 30
-0.0000000000000228
 11
-46.6579013522550525
 21
101.0699999999999932
 31
-0.0000000000000224
210
0.0
220
1.0
230
-0.0000000000000002
  0
LINE
  5
2BD4
  8
0
  6
AUSGEZOGEN
 62
     3
 10
-13.5674797050268197
 20
164.9999999999998863
 30
-0.0000000000000366
 11
-35.4325202949731874
 21
164.9999999999998863
 31
-0.0000000000000366
210
0.0
220
1.0
230
-0.0000000000000002
  0
LINE
  5
2BD5
  8
0
  6
AUSGEZOGEN
 62
     3
 10
-35.4325202949731874
 20
171.9999999999998863
 30
-0.0000000000000382
 11
-35.4325202949731874
 21
164.9999999999998863
 31
-0.0000000000000366
210
0.0
220
1.0
230
-0.0000000000000002
  0
LINE
  5
2BD6
  8
0
  6
AUSGEZOGEN
 62
     3
 10
-13.5674797050268108
 20
164.9999999999998863
 30
-0.0000000000000366
 11
-13.5674797050268108
 21
171.9999999999998863
 31
-0.0000000000000382
210
0.0
220
1.0
230
-0.0000000000000002
  0
LINE
  5
2BD7
  8
0
  6
AUSGEZOGEN
 62
     3
 10
50.6000000000000085
 20
164.9999999999998863
 30
-0.0000000000000366
 11
49.0000000000001066
 21
164.9999999999998863
 31
-0.0000000000000366
210
0.0
220
1.0
230
-0.0000000000000002
  0
LINE
  5
2BD8
  8
0
  6
AUSGEZOGEN
 62
     3
 10
49.0000000000001066
 20
171.9999999999998863
 30
-0.0000000000000382
 11
49.0000000000001066
 21
164.9999999999998863
 31
-0.0000000000000366
210
0.0
220
1.0
230
-0.0000000000000002
  0
LINE
  5
2BD9
  8
0
  6
AUSGEZOGEN
 62
     3
 10
-50.6000000000000298
 20
171.9999999999998863
 30
-0.0000000000000382
 11
-49.0
 21
171.9999999999998863
 31
-0.0000000000000382
210
0.0
220
1.0
230
-0.0000000000000002
  0
LINE
  5
2BDA
  8
0
  6
AUSGEZOGEN
 62
     3
 10
-49.0
 20
164.9999999999998863
 30
-0.0000000000000366
 11
-49.0
 21
171.9999999999998863
 31
-0.0000000000000382
210
0.0
220
1.0
230
-0.0000000000000002
  0
LINE
  5
2BDB
  8
0
  6
AUSGEZOGEN
 62
     3
 10
-35.4325202949731874
 20
171.9999999999998863
 30
-0.0000000000000382
 11
-13.5674797050268108
 21
171.9999999999998863
 31
-0.0000000000000382
210
0.0
220
1.0
230
-0.0000000000000002
  0
LINE
  5
2BDC
  8
0
  6
AUSGEZOGEN
 62
     3
 10
49.0000000000001066
 20
171.9999999999998863
 30
-0.0000000000000382
 11
50.6000000000000227
 21
171.9999999999998863
 31
-0.0000000000000382
210
0.0
220
1.0
230
-0.0000000000000002
  0
LINE
  5
2BDD
  8
0
  6
AUSGEZOGEN
 62
     3
 10
-48.9999999999999929
 20
164.9999999999998863
 30
-0.0000000000000366
 11
-50.6000000000000227
 21
164.9999999999998863
 31
-0.0000000000000366
210
0.0
220
1.0
230
-0.0000000000000002
  0
LINE
  5
2BDE
  8
0
  6
AUSGEZOGEN
 62
     3
 10
50.6000000000000227
 20
180.0
 30
-0.00000000000004
 11
-50.6000000000000227
 21
180.0
 31
-0.00000000000004
210
0.0
220
1.0
230
-0.0000000000000002
  0
LINE
  5
2BDF
  8
0
  6
AUSGEZOGEN
 62
     3
 10
54.0000000000000497
 20
0.0
 30
0.0
 11
-54.0000000000000497
 21
0.0
 31
0.0
210
0.0
220
1.0
230
-0.0000000000000002
  0
LINE
  5
2BE0
  8
0
  6
AUSGEZOGEN
 62
     3
 10
-54.0000000000001066
 20
0.0
 30
0.0
 11
-54.0000000000001066
 21
12.5314222700814906
 31
-0.0000000000000028
210
0.0
220
1.0
230
-0.0000000000000002
  0
LINE
  5
2BE1
  8
0
  6
AUSGEZOGEN
 62
     3
 10
54.0000000000001066
 20
0.0
 30
0.0
 11
54.0000000000001066
 21
12.5314222700814906
 31
-0.0000000000000028
210
0.0
220
1.0
230
-0.0000000000000002
  0
ARC
  5
2BE2
  8
0
  6
AUSGEZOGEN
 62
     3
 10
-38.3999999999997783
 20
12.5314222700813094
 30
0.0
 40
15.60000000000033
210
0.0
220
-0.0000000000000002
230
-1.0
 50
159.9999999999996021
 51
179.9999999999992895
  0
ARC
  5
2BE3
  8
0
  6
AUSGEZOGEN
 62
     3
 10
38.3999999999997712
 20
12.5314222700813094
 30
0.0
 40
15.6000000000003407
210
0.0
220
-0.0000000000000002
230
-1.0
 50
0.000000000000687
 51
20.0000000000003517
  0
LINE
  5
2BE4
  8
0
  6
AUSGEZOGEN
 62
     3
 10
45.3443033089972616
 20
39.0634543773115723
 30
-0.0000000000000087
 11
53.0592048842602182
 21
17.8669365059619487
 31
-0.000000000000004
210
0.0
220
1.0
230
-0.0000000000000002
  0
LINE
  5
2BE5
  8
0
  6
AUSGEZOGEN
 62
     3
 10
-45.3443033089972616
 20
39.0634543773115723
 30
-0.0000000000000087
 11
-53.0592048842602182
 21
17.8669365059619487
 31
-0.000000000000004
210
0.0
220
1.0
230
-0.0000000000000002
  0
ARC
  5
2BE6
  8
0
  6
AUSGEZOGEN
 62
     3
 10
-58.500000000002899
 20
43.8517363838713905
 30
0.0
 40
14.0000000000029008
210
0.0
220
-0.0000000000000002
230
-1.0
 50
340.0000000000022737
 51
359.9999999999981242
  0
ARC
  5
2BE7
  8
0
  6
AUSGEZOGEN
 62
     3
 10
58.500000000002963
 20
43.8517363838713976
 30
0.0
 40
14.0000000000029594
210
0.0
220
-0.0000000000000002
230
-1.0
 50
180.0000000000017906
 51
199.9999999999976978
  0
LINE
  5
2BE8
  8
0
  6
AUSGEZOGEN
 62
     3
 10
-44.5
 20
43.8517363838709286
 30
-0.0000000000000097
 11
-44.5
 21
90.4896868422743381
 31
-0.0000000000000201
210
0.0
220
1.0
230
-0.0000000000000002
  0
LINE
  5
2BE9
  8
0
  6
AUSGEZOGEN
 62
     3
 10
44.5
 20
43.8517363838709286
 30
-0.0000000000000097
 11
44.5
 21
90.4896868422743381
 31
-0.0000000000000201
210
0.0
220
1.0
230
-0.0000000000000002
  0
ARC
  5
2BEA
  8
0
  6
AUSGEZOGEN
 62
     3
 10
-58.5000000000022524
 20
90.4896868422739544
 30
0.0
 40
14.0000000000022506
210
0.0
220
-0.0000000000000002
230
-1.0
 50
0.0000000000015776
 51
19.9999999999981206
  0
ARC
  5
2BEB
  8
0
  6
AUSGEZOGEN
 62
     3
 10
58.5000000000022524
 20
90.4896868422739544
 30
0.0
 40
14.0000000000022506
210
0.0
220
-0.0000000000000002
230
-1.0
 50
160.0000000000019043
 51
179.9999999999984084
  0
LINE
  5
2BEC
  8
0
  6
AUSGEZOGEN
 62
     3
 10
-45.3443033089972616
 20
95.2779688488336518
 30
-0.0000000000000212
 11
-47.4524302439644288
 21
101.0699999999999932
 31
-0.0000000000000224
210
0.0
220
1.0
230
-0.0000000000000002
  0
LINE
  5
2BED
  8
0
  6
AUSGEZOGEN
 62
     3
 10
-47.9983855953637431
 20
102.5699999999999932
 30
-0.0000000000000228
 11
-49.6592048842603617
 21
107.1330634940380975
 31
-0.0000000000000238
210
0.0
220
1.0
230
-0.0000000000000002
  0
LINE
  5
2BEE
  8
0
  6
AUSGEZOGEN
 62
     3
 10
45.3443033089972616
 20
95.2779688488336518
 30
-0.0000000000000212
 11
47.4524302439644288
 21
101.0699999999999932
 31
-0.0000000000000224
210
0.0
220
1.0
230
-0.0000000000000002
  0
LINE
  5
2BEF
  8
0
  6
AUSGEZOGEN
 62
     3
 10
47.9983855953637431
 20
102.5699999999999932
 30
-0.0000000000000228
 11
49.6592048842603617
 21
107.1330634940380975
 31
-0.0000000000000238
210
0.0
220
1.0
230
-0.0000000000000002
  0
ARC
  5
2BF0
  8
0
  6
AUSGEZOGEN
 62
     3
 10
-35.0000000000000568
 20
112.468577729918394
 30
0.0
 40
15.6000000000000796
210
0.0
220
-0.0000000000000002
230
-1.0
 50
179.9999999999994031
 51
199.9999999999992895
  0
ARC
  5
2BF1
  8
0
  6
AUSGEZOGEN
 62
     3
 10
35.0000000000000568
 20
112.468577729918394
 30
0.0
 40
15.6000000000000796
210
0.0
220
-0.0000000000000002
230
-1.0
 50
340.0000000000006253
 51
0.0000000000005852
  0
LINE
  5
2BF2
  8
0
  6
AUSGEZOGEN
 62
     3
 10
-50.6000000000001293
 20
112.4685777299185929
 30
-0.000000000000025
 11
-50.6000000000001293
 21
164.9999999999998863
 31
-0.0000000000000366
210
0.0
220
1.0
230
-0.0000000000000002
  0
LINE
  5
2BF3
  8
0
  6
AUSGEZOGEN
 62
     3
 10
-50.6000000000001293
 20
171.9999999999998863
 30
-0.0000000000000382
 11
-50.6000000000001293
 21
180.0
 31
-0.00000000000004
210
0.0
220
1.0
230
-0.0000000000000002
  0
LINE
  5
2BF4
  8
0
  6
AUSGEZOGEN
 62
     3
 10
50.6000000000001293
 20
112.4685777299185929
 30
-0.000000000000025
 11
50.6000000000001293
 21
164.9999999999998863
 31
-0.0000000000000366
210
0.0
220
1.0
230
-0.0000000000000002
  0
LINE
  5
2BF5
  8
0
  6
AUSGEZOGEN
 62
     3
 10
50.6000000000001293
 20
171.9999999999998863
 30
-0.0000000000000382
 11
50.6000000000001293
 21
179.9999999999998863
 31
-0.00000000000004
210
0.0
220
1.0
230
-0.0000000000000002
  0
LINE
  5
2BF6
  8
0
  6
VERDECKT
 62
     1
 10
-47.9393398282202199
 20
120.0
 30
-0.0000000000000266
 11
47.9393398282202199
 21
120.0
 31
-0.0000000000000266
210
0.0
220
1.0
230
-0.0000000000000002
  0
LINE
  5
2BF7
  8
0
  6
VERDECKT
 62
     1
 10
-48.9999999999995524
 20
118.9393398282207954
 30
-0.0000000000000264
 11
48.9999999999995524
 21
118.9393398282207954
 31
-0.0000000000000264
210
0.0
220
1.0
230
-0.0000000000000002
  0
LINE
  5
2BF8
  8
0
  6
VERDECKT
 62
     1
 10
-26.0682864386853907
 20
2.000000000000028
 30
-0.0000000000000004
 11
26.0682864386853907
 21
2.000000000000028
 31
-0.0000000000000004
210
0.0
220
1.0
230
-0.0000000000000002
  0
LINE
  5
2BF9
  8
0
  6
VERDECKT
 62
     1
 10
-24.5625566823704808
 20
2.0000000000000231
 30
-0.0000000000000004
 11
-25.0000000000000604
 21
6.999999999999968
 31
-0.0000000000000016
210
0.0
220
1.0
230
-0.0000000000000002
  0
LINE
  5
2BFA
  8
0
  6
VERDECKT
 62
     1
 10
24.5625566823704808
 20
2.0000000000000231
 30
-0.0000000000000004
 11
25.0000000000000604
 21
6.999999999999968
 31
-0.0000000000000016
210
0.0
220
1.0
230
-0.0000000000000002
  0
LINE
  5
2BFB
  8
0
  6
VERDECKT
 62
     1
 10
25.0
 20
93.954058453981574
 30
-0.0000000000000209
 11
25.0
 21
6.9999999999999734
 31
-0.0000000000000016
210
0.0
220
1.0
230
-0.0000000000000002
  0
LINE
  5
2BFC
  8
0
  6
VERDECKT
 62
     1
 10
-25.0
 20
93.954058453981574
 30
-0.0000000000000209
 11
-25.0
 21
6.9999999999999734
 31
-0.0000000000000016
210
0.0
220
1.0
230
-0.0000000000000002
  0
ARC
  5
2BFD
  8
0
  6
VERDECKT
 62
     1
 10
32.4999999999999218
 20
93.954058453981574
 30
0.0
 40
7.4999999999999289
210
0.0
220
-0.0000000000000002
230
-1.0
 50
134.9999999999994031
 51
179.9999999999998863
  0
ARC
  5
2BFE
  8
0
  6
VERDECKT
 62
     1
 10
-32.4999999999999218
 20
93.954058453981574
 30
0.0
 40
7.4999999999999281
210
0.0
220
-0.0000000000000002
230
-1.0
 50
0.0000000000001145
 51
45.0000000000005471
  0
LINE
  5
2BFF
  8
0
  6
VERDECKT
 62
     1
 10
-27.1966991411008898
 20
99.2573593128806948
 30
-0.000000000000022
 11
-47.9393398282202128
 21
120.0000000000000995
 31
-0.0000000000000266
210
0.0
220
1.0
230
-0.0000000000000002
  0
LINE
  5
2C00
  8
0
  6
VERDECKT
 62
     1
 10
27.1966991411008898
 20
99.2573593128806948
 30
-0.000000000000022
 11
47.9393398282202128
 21
120.0000000000000995
 31
-0.0000000000000266
210
0.0
220
1.0
230
-0.0000000000000002
  0
LINE
  5
2C01
  8
0
  6
VERDECKT
 62
     1
 10
47.9393398282202128
 20
120.0
 30
-0.0000000000000266
 11
48.999999999999531
 21
118.9393398282207954
 31
-0.0000000000000264
210
0.0
220
1.0
230
-0.0000000000000002
  0
LINE
  5
2C02
  8
0
  6
VERDECKT
 62
     1
 10
-47.9393398282202128
 20
120.0
 30
-0.0000000000000266
 11
-48.999999999999531
 21
118.9393398282207954
 31
-0.0000000000000264
210
0.0
220
1.0
230
-0.0000000000000002
  0
LINE
  5
2C03
  8
0
  6
VERDECKT
 62
     1
 10
-28.2573593128806699
 20
98.1966991411008649
 30
-0.0000000000000218
 11
-48.999999999999531
 21
118.9393398282207954
 31
-0.0000000000000264
210
0.0
220
1.0
230
-0.0000000000000002
  0
LINE
  5
2C04
  8
0
  6
VERDECKT
 62
     1
 10
28.2573593128806699
 20
98.1966991411008649
 30
-0.0000000000000218
 11
48.999999999999531
 21
118.9393398282207954
 31
-0.0000000000000264
210
0.0
220
1.0
230
-0.0000000000000002
  0
ARC
  5
2C05
  8
0
  6
VERDECKT
 62
     1
 10
32.5000000000009166
 20
93.9540584539813892
 30
0.0
 40
6.0000000000008136
210
0.0
220
-0.0000000000000002
230
-1.0
 50
135.0000000000054001
 51
179.9999999999982094
  0
ARC
  5
2C06
  8
0
  6
VERDECKT
 62
     1
 10
-32.5000000000008811
 20
93.9540584539814034
 30
0.0
 40
6.0000000000007656
210
0.0
220
-0.0000000000000002
230
-1.0
 50
0.0000000000016284
 51
44.9999999999947917
  0
LINE
  5
2C07
  8
0
  6
VERDECKT
 62
     1
 10
26.5
 20
93.954058453981574
 30
-0.0000000000000209
 11
26.5
 21
6.9345085856372481
 31
-0.0000000000000015
210
0.0
220
1.0
230
-0.0000000000000002
  0
LINE
  5
2C08
  8
0
  6
VERDECKT
 62
     1
 10
-26.5
 20
93.954058453981574
 30
-0.0000000000000209
 11
-26.5
 21
6.9345085856372481
 31
-0.0000000000000015
210
0.0
220
1.0
230
-0.0000000000000002
  0
LINE
  5
2C09
  8
0
  6
VERDECKT
 62
     1
 10
-26.0682864386853907
 20
2.000000000000028
 30
-0.0000000000000004
 11
-26.5
 21
6.9345085856372481
 31
-0.0000000000000015
210
0.0
220
1.0
230
-0.0000000000000002
  0
LINE
  5
2C0A
  8
0
  6
VERDECKT
 62
     1
 10
26.0682864386853907
 20
2.000000000000028
 30
-0.0000000000000004
 11
26.5
 21
6.9345085856372481
 31
-0.0000000000000015
210
0.0
220
1.0
230
-0.0000000000000002
  0
LINE
  5
2C0B
  8
0
  6
VERDECKT
 62
     1
 10
47.9999999999997726
 20
102.5699999999999932
 30
-0.0000000000000228
 11
47.9999999999997726
 21
101.0699999999999932
 31
-0.0000000000000224
210
0.0
220
1.0
230
-0.0000000000000002
  0
LINE
  5
2C0C
  8
0
  6
VERDECKT
 62
     1
 10
-48.0000000000002203
 20
102.5699999999999932
 30
-0.0000000000000228
 11
-48.0000000000002203
 21
101.0699999999999932
 31
-0.0000000000000224
210
0.0
220
1.0
230
-0.0000000000000002
  0
LINE
  5
2C0D
  8
0
  6
VERDECKT
 62
     1
 10
45.1139686793717232
 20
102.5699999999999932
 30
-0.0000000000000228
 11
45.1139686793717232
 21
101.0699999999999932
 31
-0.0000000000000224
210
0.0
220
1.0
230
-0.0000000000000002
  0
LINE
  5
2C0E
  8
0
  6
VERDECKT
 62
     1
 10
53.2102214288235373
 20
102.5699999999999932
 30
-0.0000000000000228
 11
53.2102214288235373
 21
101.0699999999999932
 31
-0.0000000000000224
210
0.0
220
1.0
230
-0.0000000000000002
  0
LINE
  5
2C0F
  8
0
  6
VERDECKT
 62
     1
 10
55.9999999999997868
 20
102.5699999999999932
 30
-0.0000000000000228
 11
55.9999999999997868
 21
101.0699999999999932
 31
-0.0000000000000224
210
0.0
220
1.0
230
-0.0000000000000002
  0
LINE
  5
2C10
  8
0
  6
VERDECKT
 62
     1
 10
-56.0000000000002203
 20
102.5699999999999932
 30
-0.0000000000000228
 11
-56.0000000000002203
 21
101.0699999999999932
 31
-0.0000000000000224
210
0.0
220
1.0
230
-0.0000000000000002
  0
LINE
  5
2C11
  8
0
  6
VERDECKT
 62
     1
 10
-53.2102214288240276
 20
102.5699999999999932
 30
-0.0000000000000228
 11
-53.2102214288240276
 21
101.0699999999999932
 31
-0.0000000000000224
210
0.0
220
1.0
230
-0.0000000000000002
  0
LINE
  5
2C12
  8
0
  6
VERDECKT
 62
     1
 10
-45.1139686793722703
 20
102.5699999999999932
 30
-0.0000000000000228
 11
-45.1139686793722703
 21
101.0699999999999932
 31
-0.0000000000000224
210
0.0
220
1.0
230
-0.0000000000000002
  0
LINE
  5
2C13
  8
0
  6
VERDECKT
 62
     1
 10
46.9999999999997726
 20
172.0000000000001137
 30
-0.0000000000000382
 11
46.9999999999997726
 21
165.0000000000001137
 31
-0.0000000000000366
210
0.0
220
1.0
230
-0.0000000000000002
  0
LINE
  5
2C14
  8
0
  6
VERDECKT
 62
     1
 10
49.0
 20
165.0000000000001137
 30
-0.0000000000000366
 11
47.0
 21
165.0000000000001137
 31
-0.0000000000000366
210
0.0
220
1.0
230
-0.0000000000000002
  0
LINE
  5
2C15
  8
0
  6
VERDECKT
 62
     1
 10
47.0
 20
172.0000000000001137
 30
-0.0000000000000382
 11
49.0
 21
172.0000000000001137
 31
-0.0000000000000382
210
0.0
220
1.0
230
-0.0000000000000002
  0
LINE
  5
2C16
  8
0
  6
VERDECKT
 62
     1
 10
-11.5000000000015898
 20
165.0000000000001137
 30
-0.0000000000000366
 11
-11.5000000000015898
 21
172.0000000000001137
 31
-0.0000000000000382
210
0.0
220
1.0
230
-0.0000000000000002
  0
LINE
  5
2C17
  8
0
  6
VERDECKT
 62
     1
 10
-35.4999999999988702
 20
172.0000000000001137
 30
-0.0000000000000382
 11
-35.4999999999988702
 21
165.0000000000001137
 31
-0.0000000000000366
210
0.0
220
1.0
230
-0.0000000000000002
  0
LINE
  5
2C18
  8
0
  6
VERDECKT
 62
     1
 10
-13.5674797050268108
 20
172.0000000000001137
 30
-0.0000000000000382
 11
-11.5000000000001101
 21
172.0000000000001137
 31
-0.0000000000000382
210
0.0
220
1.0
230
-0.0000000000000002
  0
LINE
  5
2C19
  8
0
  6
VERDECKT
 62
     1
 10
-35.4999999999998934
 20
172.0000000000001137
 30
-0.0000000000000382
 11
-35.4325202949731874
 21
172.0000000000001137
 31
-0.0000000000000382
210
0.0
220
1.0
230
-0.0000000000000002
  0
LINE
  5
2C1A
  8
0
  6
VERDECKT
 62
     1
 10
-11.5000000000001101
 20
165.0000000000001137
 30
-0.0000000000000366
 11
-13.5674797050268108
 21
165.0000000000001137
 31
-0.0000000000000366
210
0.0
220
1.0
230
-0.0000000000000002
  0
LINE
  5
2C1B
  8
0
  6
VERDECKT
 62
     1
 10
-35.4325202949731874
 20
165.0000000000001137
 30
-0.0000000000000366
 11
-35.4999999999998934
 21
165.0000000000001137
 31
-0.0000000000000366
210
0.0
220
1.0
230
-0.0000000000000002
  0
LINE
  5
2C1C
  8
0
  6
VERDECKT
 62
     1
 10
-47.0000000000002274
 20
165.0000000000001137
 30
-0.0000000000000366
 11
-47.0000000000002274
 21
172.0000000000001137
 31
-0.0000000000000382
210
0.0
220
1.0
230
-0.0000000000000002
  0
LINE
  5
2C1D
  8
0
  6
VERDECKT
 62
     1
 10
-46.9999999999998792
 20
165.0000000000001137
 30
-0.0000000000000366
 11
-49.0
 21
165.0000000000001137
 31
-0.0000000000000366
210
0.0
220
1.0
230
-0.0000000000000002
  0
LINE
  5
2C1E
  8
0
  6
VERDECKT
 62
     1
 10
-49.0000000000000071
 20
172.0000000000001137
 30
-0.0000000000000382
 11
-46.9999999999998792
 21
172.0000000000001137
 31
-0.0000000000000382
210
0.0
220
1.0
230
-0.0000000000000002
  0
LINE
  5
2C1F
  8
0
  6
VERDECKT
 62
     1
 10
-47.4524302439644288
 20
101.0699999999999932
 30
-0.0000000000000224
 11
-47.9983855953637431
 21
102.5699999999999932
 31
-0.0000000000000228
210
0.0
220
1.0
230
-0.0000000000000002
  0
LINE
  5
2C20
  8
0
  6
VERDECKT
 62
     1
 10
47.4524302439644288
 20
101.0699999999999932
 30
-0.0000000000000224
 11
47.9983855953637431
 21
102.5699999999999932
 31
-0.0000000000000228
210
0.0
220
1.0
230
-0.0000000000000002
  0
LINE
  5
2C21
  8
0
  6
VERDECKT
 62
     1
 10
-49.0000000000002274
 20
112.4685777299185929
 30
-0.000000000000025
 11
-49.0000000000002274
 21
165.0000000000001137
 31
-0.0000000000000366
210
0.0
220
1.0
230
-0.0000000000000002
  0
LINE
  5
2C22
  8
0
  6
VERDECKT
 62
     1
 10
-49.0000000000002274
 20
172.0000000000001137
 30
-0.0000000000000382
 11
-49.0000000000002274
 21
180.000000000000199
 31
-0.00000000000004
210
0.0
220
1.0
230
-0.0000000000000002
  0
LINE
  5
2C23
  8
0
  6
VERDECKT
 62
     1
 10
49.0000000000002274
 20
112.4685777299185929
 30
-0.000000000000025
 11
49.0000000000002274
 21
165.0000000000001137
 31
-0.0000000000000366
210
0.0
220
1.0
230
-0.0000000000000002
  0
LINE
  5
2C24
  8
0
  6
VERDECKT
 62
     1
 10
49.0000000000002274
 20
172.0000000000001137
 30
-0.0000000000000382
 11
49.0000000000002274
 21
180.000000000000199
 31
-0.00000000000004
210
0.0
220
1.0
230
-0.0000000000000002
  0
ARC
  5
2C25
  8
0
  6
VERDECKT
 62
     1
 10
-34.9999999999973923
 20
112.468577729919005
 30
0.0
 40
14.0000000000028404
210
0.0
220
-0.0000000000000002
230
-1.0
 50
180.0000000000017053
 51
199.9999999999978968
  0
ARC
  5
2C26
  8
0
  6
VERDECKT
 62
     1
 10
34.9999999999975415
 20
112.468577729919005
 30
0.0
 40
14.0000000000026805
210
0.0
220
-0.0000000000000002
230
-1.0
 50
340.0000000000018758
 51
359.9999999999984084
  0
LINE
  5
2C27
  8
0
  6
VERDECKT
 62
     1
 10
-43.8407951157398728
 20
95.8252010781547341
 30
-0.0000000000000213
 11
-48.1556966910029516
 21
107.6802957233590945
 31
-0.0000000000000239
210
0.0
220
1.0
230
-0.0000000000000002
  0
LINE
  5
2C28
  8
0
  6
VERDECKT
 62
     1
 10
43.8407951157398728
 20
95.8252010781547341
 30
-0.0000000000000213
 11
48.1556966910029516
 21
107.6802957233590945
 31
-0.0000000000000239
210
0.0
220
1.0
230
-0.0000000000000002
  0
ARC
  5
2C29
  8
0
  6
VERDECKT
 62
     1
 10
-58.4999999999996305
 20
90.4896868422745513
 30
0.0
 40
15.5999999999995307
210
0.0
220
-0.0000000000000002
230
-1.0
 50
359.9999999999992042
 51
19.9999999999996589
  0
ARC
  5
2C2A
  8
0
  6
VERDECKT
 62
     1
 10
58.4999999999995026
 20
90.4896868422745939
 30
0.0
 40
15.5999999999993992
210
0.0
220
-0.0000000000000002
230
-1.0
 50
160.0000000000003126
 51
180.0000000000007105
  0
LINE
  5
2C2B
  8
0
  6
VERDECKT
 62
     1
 10
-42.9000000000000767
 20
43.8517363838709286
 30
-0.0000000000000097
 11
-42.9000000000000767
 21
90.4896868422743381
 31
-0.0000000000000201
210
0.0
220
1.0
230
-0.0000000000000002
  0
LINE
  5
2C2C
  8
0
  6
VERDECKT
 62
     1
 10
42.9000000000000767
 20
43.8517363838709286
 30
-0.0000000000000097
 11
42.9000000000000767
 21
90.4896868422743381
 31
-0.0000000000000201
210
0.0
220
1.0
230
-0.0000000000000002
  0
ARC
  5
2C2D
  8
0
  6
VERDECKT
 62
     1
 10
-58.4999999999998366
 20
43.8517363838707368
 30
0.0
 40
15.5999999999997492
210
0.0
220
-0.0000000000000002
230
-1.0
 50
340.0000000000002842
 51
0.0000000000006475
  0
ARC
  5
2C2E
  8
0
  6
VERDECKT
 62
     1
 10
58.4999999999999503
 20
43.851736383870751
 30
0.0
 40
15.5999999999998593
210
0.0
220
-0.0000000000000002
230
-1.0
 50
179.9999999999992895
 51
199.9999999999994884
  0
LINE
  5
2C2F
  8
0
  6
VERDECKT
 62
     1
 10
43.8407951157398585
 20
38.51622214799049
 30
-0.0000000000000086
 11
51.5556966910028223
 21
17.3197042766408593
 31
-0.0000000000000038
210
0.0
220
1.0
230
-0.0000000000000002
  0
LINE
  5
2C30
  8
0
  6
VERDECKT
 62
     1
 10
-43.8407951157398585
 20
38.51622214799049
 30
-0.0000000000000086
 11
-51.5556966910028223
 21
17.3197042766408593
 31
-0.0000000000000038
210
0.0
220
1.0
230
-0.0000000000000002
  0
ARC
  5
2C31
  8
0
  6
VERDECKT
 62
     1
 10
-38.400000000000972
 20
12.5314222700816895
 30
0.0
 40
13.9999999999991296
210
0.0
220
-0.0000000000000002
230
-1.0
 50
159.9999999999994884
 51
180.0000000000007105
  0
ARC
  5
2C32
  8
0
  6
VERDECKT
 62
     1
 10
38.400000000000972
 20
12.5314222700817002
 30
0.0
 40
13.9999999999991207
210
0.0
220
-0.0000000000000002
230
-1.0
 50
359.9999999999992042
 51
20.000000000000469
  0
LINE
  5
2C33
  8
0
  6
VERDECKT
 62
     1
 10
-52.3999999999999773
 20
0.0
 30
0.0
 11
-52.3999999999999773
 21
12.5314222700814906
 31
-0.0000000000000028
210
0.0
220
1.0
230
-0.0000000000000002
  0
LINE
  5
2C34
  8
0
  6
VERDECKT
 62
     1
 10
52.3999999999999773
 20
0.0
 30
0.0
 11
52.3999999999999773
 21
12.5314222700814906
 31
-0.0000000000000028
210
0.0
220
1.0
230
-0.0000000000000002
  0
LINE
  5
2C35
  8
0
  6
VERDECKT
 62
     1
 10
22.2990381056765692
 20
171.999999999999801
 30
-0.0000000000000382
 11
15.2990381056766793
 21
166.999999999999801
 31
-0.0000000000000371
210
0.0
220
1.0
230
-0.0000000000000002
  0
LINE
  5
2C36
  8
0
  6
VERDECKT
 62
     1
 10
12.7009618943234308
 20
166.999999999999801
 30
-0.0000000000000371
 11
15.2990381056768001
 21
166.999999999999801
 31
-0.0000000000000371
210
0.0
220
1.0
230
-0.0000000000000002
  0
LINE
  5
2C37
  8
0
  6
VERDECKT
 62
     1
 10
12.7009618943234308
 20
166.999999999999801
 30
-0.0000000000000371
 11
19.70096189432331
 21
171.999999999999801
 31
-0.0000000000000382
210
0.0
220
1.0
230
-0.0000000000000002
  0
LINE
  5
2C38
  8
0
  6
VERDECKT
 62
     1
 10
9.2009618943234273
 20
166.9999999999998863
 30
-0.0000000000000371
 11
12.7009618943234308
 21
166.999999999999801
 31
-0.0000000000000371
210
0.0
220
1.0
230
-0.0000000000000002
  0
LINE
  5
2C39
  8
0
  6
VERDECKT
 62
     1
 10
11.7990381056768001
 20
166.9999999999998863
 30
-0.0000000000000371
 11
11.7990381056766793
 21
159.8000000000000114
 31
-0.0000000000000355
210
0.0
220
1.0
230
-0.0000000000000002
  0
LINE
  5
2C3A
  8
0
  6
VERDECKT
 62
     1
 10
9.2009618943233136
 20
159.8000000000000114
 30
-0.0000000000000355
 11
9.2009618943234273
 21
166.9999999999998863
 31
-0.0000000000000371
210
0.0
220
1.0
230
-0.0000000000000002
  0
LINE
  5
2C3B
  8
0
  6
VERDECKT
 62
     1
 10
12.7009618943234308
 20
159.8000000000000114
 30
-0.0000000000000355
 11
15.2990381056768001
 21
159.8000000000000114
 31
-0.0000000000000355
210
0.0
220
1.0
230
-0.0000000000000002
  0
LINE
  5
2C3C
  8
0
  6
VERDECKT
 62
     1
 10
12.7009618943234308
 20
159.8000000000000114
 30
-0.0000000000000355
 11
9.2009618943234273
 21
159.8000000000000114
 31
-0.0000000000000355
210
0.0
220
1.0
230
-0.0000000000000002
  0
LINE
  5
2C3D
  8
0
  6
VERDECKT
 62
     1
 10
15.2990381056768001
 20
159.8000000000000114
 30
-0.0000000000000355
 11
22.29903810567669
 21
154.8000000000000114
 31
-0.0000000000000344
210
0.0
220
1.0
230
-0.0000000000000002
  0
LINE
  5
2C3E
  8
0
  6
VERDECKT
 62
     1
 10
19.70096189432331
 20
154.8000000000000114
 30
-0.0000000000000344
 11
12.7009618943234308
 21
159.8000000000000114
 31
-0.0000000000000355
210
0.0
220
1.0
230
-0.0000000000000002
  0
LINE
  5
2C3F
  8
0
  6
VERDECKT
 62
     1
 10
23.20096189432331
 20
154.7999999999998124
 30
-0.0000000000000344
 11
25.79903810567669
 21
154.7999999999998124
 31
-0.0000000000000344
210
0.0
220
1.0
230
-0.0000000000000002
  0
LINE
  5
2C40
  8
0
  6
VERDECKT
 62
     1
 10
23.20096189432331
 20
154.7999999999998124
 30
-0.0000000000000344
 11
19.70096189432331
 21
154.8000000000000114
 31
-0.0000000000000344
210
0.0
220
1.0
230
-0.0000000000000002
  0
LINE
  5
2C41
  8
0
  6
VERDECKT
 62
     1
 10
25.79903810567669
 20
154.7999999999998124
 30
-0.0000000000000344
 11
25.79903810567669
 21
157.2999999999998124
 31
-0.0000000000000349
210
0.0
220
1.0
230
-0.0000000000000002
  0
LINE
  5
2C42
  8
0
  6
VERDECKT
 62
     1
 10
23.20096189432331
 20
157.2999999999998124
 30
-0.0000000000000349
 11
25.79903810567669
 21
157.2999999999998124
 31
-0.0000000000000349
210
0.0
220
1.0
230
-0.0000000000000002
  0
LINE
  5
2C43
  8
0
  6
VERDECKT
 62
     1
 10
23.20096189432331
 20
157.2999999999998124
 30
-0.0000000000000349
 11
23.20096189432331
 21
154.7999999999998124
 31
-0.0000000000000344
210
0.0
220
1.0
230
-0.0000000000000002
  0
LINE
  5
2C44
  8
0
  6
VERDECKT
 62
     1
 10
25.79903810567669
 20
157.2999999999998124
 30
-0.0000000000000349
 11
24.79903810567669
 21
158.4547005383790861
 31
-0.0000000000000352
210
0.0
220
1.0
230
-0.0000000000000002
  0
LINE
  5
2C45
  8
0
  6
VERDECKT
 62
     1
 10
22.20096189432331
 20
158.4547005383790861
 30
-0.0000000000000352
 11
24.79903810567669
 21
158.4547005383790861
 31
-0.0000000000000352
210
0.0
220
1.0
230
-0.0000000000000002
  0
LINE
  5
2C46
  8
0
  6
VERDECKT
 62
     1
 10
22.20096189432331
 20
158.4547005383790861
 30
-0.0000000000000352
 11
23.20096189432331
 21
157.2999999999998124
 31
-0.0000000000000349
210
0.0
220
1.0
230
-0.0000000000000002
  0
LINE
  5
2C47
  8
0
  6
VERDECKT
 62
     1
 10
24.79903810567669
 20
158.4547005383790861
 30
-0.0000000000000352
 11
24.79903810567669
 21
168.3452994616206126
 31
-0.0000000000000374
210
0.0
220
1.0
230
-0.0000000000000002
  0
LINE
  5
2C48
  8
0
  6
VERDECKT
 62
     1
 10
22.20096189432331
 20
168.3452994616206126
 30
-0.0000000000000374
 11
24.79903810567669
 21
168.3452994616206126
 31
-0.0000000000000374
210
0.0
220
1.0
230
-0.0000000000000002
  0
LINE
  5
2C49
  8
0
  6
VERDECKT
 62
     1
 10
22.20096189432331
 20
168.3452994616206126
 30
-0.0000000000000374
 11
22.20096189432331
 21
158.4547005383790861
 31
-0.0000000000000352
210
0.0
220
1.0
230
-0.0000000000000002
  0
LINE
  5
2C4A
  8
0
  6
VERDECKT
 62
     1
 10
24.79903810567669
 20
168.3452994616206126
 30
-0.0000000000000374
 11
25.79903810567669
 21
169.4999999999998863
 31
-0.0000000000000376
210
0.0
220
1.0
230
-0.0000000000000002
  0
LINE
  5
2C4B
  8
0
  6
VERDECKT
 62
     1
 10
23.20096189432331
 20
169.4999999999998863
 30
-0.0000000000000376
 11
25.79903810567669
 21
169.4999999999998863
 31
-0.0000000000000376
210
0.0
220
1.0
230
-0.0000000000000002
  0
LINE
  5
2C4C
  8
0
  6
VERDECKT
 62
     1
 10
23.20096189432331
 20
169.4999999999998863
 30
-0.0000000000000376
 11
22.20096189432331
 21
168.3452994616206126
 31
-0.0000000000000374
210
0.0
220
1.0
230
-0.0000000000000002
  0
LINE
  5
2C4D
  8
0
  6
VERDECKT
 62
     1
 10
25.79903810567669
 20
169.4999999999998863
 30
-0.0000000000000376
 11
25.79903810567669
 21
171.9999999999998863
 31
-0.0000000000000382
210
0.0
220
1.0
230
-0.0000000000000002
  0
LINE
  5
2C4E
  8
0
  6
VERDECKT
 62
     1
 10
23.20096189432331
 20
171.9999999999998863
 30
-0.0000000000000382
 11
25.79903810567669
 21
171.9999999999998863
 31
-0.0000000000000382
210
0.0
220
1.0
230
-0.0000000000000002
  0
LINE
  5
2C4F
  8
0
  6
VERDECKT
 62
     1
 10
23.20096189432331
 20
171.9999999999998863
 30
-0.0000000000000382
 11
23.20096189432331
 21
169.4999999999998863
 31
-0.0000000000000376
210
0.0
220
1.0
230
-0.0000000000000002
  0
LINE
  5
2C50
  8
0
  6
VERDECKT
 62
     1
 10
19.70096189432331
 20
171.999999999999801
 30
-0.0000000000000382
 11
23.20096189432331
 21
171.9999999999998863
 31
-0.0000000000000382
210
0.0
220
1.0
230
-0.0000000000000002
  0
ENDBLK
  5
2C52
  8
0
  0
BLOCK
  8
0
  2
A$C56EB0E5D
 70
     0
 10
0.0
 20
0.0
 30
0.0
  3
A$C56EB0E5D
  1

  0
ARC
  5
2C56
  8
0
  6
AUSGEZOGEN
 62
     3
 10
0.0000000000000004
 20
0.0000000000000051
 30
0.0
 40
24.5625566823704311
 50
63.5011493106753022
 51
180.0
  0
ARC
  5
2C57
  8
0
  6
AUSGEZOGEN
 62
     3
 10
0.0000000000000004
 20
0.0000000000000122
 30
0.0
 40
24.5625566823704311
 50
303.5011493106749754
 51
56.4988506893249607
  0
ARC
  5
2C58
  8
0
  6
AUSGEZOGEN
 62
     3
 10
0.0000000000000004
 20
0.0000000000000122
 30
0.0
 40
24.5625566823704311
 50
180.0
 51
296.4988506893249109
  0
ARC
  5
2C59
  8
0
  6
AUSGEZOGEN
 62
     3
 10
0.0000000000000209
 20
0.0000000000000463
 30
0.0
 40
25.0
 50
63.4398127675151713
 51
180.0
  0
ARC
  5
2C5A
  8
0
  6
AUSGEZOGEN
 62
     3
 10
0.0000000000000209
 20
0.0000000000000179
 30
0.0
 40
25.0
 50
303.4398127675149794
 51
56.5601872324849708
  0
ARC
  5
2C5B
  8
0
  6
AUSGEZOGEN
 62
     3
 10
0.0000000000000209
 20
-0.0000000000000212
 30
0.0
 40
24.9999999999999716
 50
179.9999999999998863
 51
296.5601872324850774
  0
ARC
  5
2C5C
  8
0
  6
AUSGEZOGEN
 62
     3
 10
0.0000000000001403
 20
-0.0000000000000338
 30
0.0
 40
47.9393398282203478
 50
131.3609507808201897
 51
168.6390492191819988
  0
ARC
  5
2C5D
  8
0
  6
AUSGEZOGEN
 62
     3
 10
0.0000000000000266
 20
-0.000000000000009
 30
0.0
 40
47.9393398282202625
 50
61.7930513730368816
 51
108.6390492191798955
  0
ARC
  5
2C5E
  8
0
  6
AUSGEZOGEN
 62
     3
 10
0.0000000000001403
 20
0.000000000000055
 30
0.0
 40
47.9393398282201275
 50
11.3609507808206693
 51
58.2069486269633103
  0
ARC
  5
2C5F
  8
0
  6
AUSGEZOGEN
 62
     3
 10
0.0000000000000266
 20
0.0000000000000052
 30
0.0
 40
47.9393398282202128
 50
301.7930513730368034
 51
348.6390492191794124
  0
ARC
  5
2C60
  8
0
  6
AUSGEZOGEN
 62
     3
 10
0.0000000000000266
 20
0.0000000000003605
 30
0.0
 40
47.9393398282205325
 50
251.3609507808168075
 51
298.2069486269630829
  0
ARC
  5
2C61
  8
0
  6
AUSGEZOGEN
 62
     3
 10
0.0000000000007088
 20
0.0000000000004493
 30
0.0
 40
47.9393398282210015
 50
191.3609507808182002
 51
228.6390492191831925
  0
LINE
  5
2C62
  8
0
  6
AUSGEZOGEN
 62
     3
 10
43.2527355812501497
 20
-46.6455896928498532
 30
0.0000000000000142
 11
33.6601938457109995
 21
-45.1262803387768088
 31
0.0000000000000121
  0
ARC
  5
2C63
  8
0
  6
AUSGEZOGEN
 62
     3
 10
43.4091700462902992
 20
-45.6579013522544699
 30
0.0000000000000142
 40
1.0000000000002229
 50
261.0000000000068212
 51
313.5537253564021967
  0
ARC
  5
2C64
  8
0
  6
AUSGEZOGEN
 62
     3
 10
-0.0000000000692125
 20
0.0000000000685816
 30
0.0
 40
64.0000000000972449
 50
313.5537253564111779
 51
316.4462746435896179
  0
ARC
  5
2C65
  8
0
  6
AUSGEZOGEN
 62
     3
 10
45.6579013522561681
 20
-43.4091700462909671
 30
0.0000000000000142
 40
0.9999999999985592
 50
316.4462746435494864
 51
9.0000000000446292
  0
LINE
  5
2C66
  8
0
  6
AUSGEZOGEN
 62
     3
 10
45.1262803387766311
 20
-33.6601938457111203
 30
0.0000000000000142
 11
46.6455896928497609
 21
-43.2527355812501924
 31
0.0000000000000145
  0
ARC
  5
2C67
  8
0
  6
AUSGEZOGEN
 62
     3
 10
46.1139686793717587
 20
-33.5037593806709211
 30
0.0000000000000142
 40
1.000000000000014
 50
98.999999999998451
 51
188.9999999999986073
  0
LINE
  5
2C68
  8
0
  6
AUSGEZOGEN
 62
     3
 10
55.5500759498706032
 20
-30.9967616860025394
 30
0.0000000000000142
 11
45.9575342143315524
 21
-32.516071040075758
 31
0.0000000000000121
  0
ARC
  5
2C69
  8
0
  6
AUSGEZOGEN
 62
     3
 10
55.3936414848301624
 20
-30.0090733454073586
 30
0.0000000000000142
 40
1.000000000000232
 50
279.0000000000102887
 51
331.5537253564152138
  0
ARC
  5
2C6A
  8
0
  6
AUSGEZOGEN
 62
     3
 10
0.0000000001146191
 20
-0.0000000000568718
 30
0.0
 40
63.9999999998718607
 50
331.5537253564045272
 51
334.4462746435930853
  0
ARC
  5
2C6B
  8
0
  6
AUSGEZOGEN
 62
     3
 10
56.8374158574391899
 20
-27.1755065941473504
 30
0.0000000000000142
 40
0.9999999999995839
 50
334.4462746435809208
 51
27.0000000000121716
  0
LINE
  5
2C6C
  8
0
  6
AUSGEZOGEN
 62
     3
 10
53.3192149046351673
 20
-18.0679591791115115
 30
0.0000000000000142
 11
57.7284223816270909
 21
-26.7215160944078001
 31
0.0000000000000152
  0
ARC
  5
2C6D
  8
0
  6
AUSGEZOGEN
 62
     3
 10
54.2102214288236368
 20
-17.6139686793719896
 30
0.0000000000000142
 40
1.000000000000079
 50
117.000000000006807
 51
206.9999999999959073
  0
LINE
  5
2C6E
  8
0
  6
AUSGEZOGEN
 62
     3
 10
62.4097878443801832
 20
-12.3137546781916303
 30
0.0000000000000142
 11
53.7562309290839409
 21
-16.722962155183609
 31
0.0000000000000123
  0
ARC
  5
2C6F
  8
0
  6
AUSGEZOGEN
 62
     3
 10
61.9557973446404873
 20
-11.4227481540031004
 30
0.0000000000000142
 40
1.0000000000002101
 50
297.0000000000031264
 51
349.5537253564012872
  0
ARC
  5
2C70
  8
0
  6
AUSGEZOGEN
 62
     3
 10
0.0000000001100716
 20
-0.0000000000164562
 30
0.0
 40
63.9999999998885301
 50
349.5537253564052094
 51
352.4462746435930853
  0
ARC
  5
2C71
  8
0
  6
AUSGEZOGEN
 62
     3
 10
62.4532880889340873
 20
-8.2817152136811387
 30
0.0000000000000142
 40
1.0000000000004701
 50
352.4462746436071257
 51
44.9999999999896474
  0
LINE
  5
2C72
  8
0
  6
AUSGEZOGEN
 62
     3
 10
56.2928932188132407
 20
-0.7071067811865533
 30
0.0000000000000142
 11
63.1603948701211024
 21
-7.5746084324943856
 31
0.0000000000000157
  0
ARC
  5
2C73
  8
0
  6
AUSGEZOGEN
 62
     3
 10
56.9999999999997868
 20
0.0
 30
0.0000000000000142
 40
0.9999999999999879
 50
135.0000000000011084
 51
225.0
  0
LINE
  5
2C74
  8
0
  6
AUSGEZOGEN
 62
     3
 10
63.1603948701211024
 20
7.5746084324945278
 30
0.0000000000000142
 11
56.2928932188132407
 21
0.7071067811865249
 31
0.0000000000000127
  0
ARC
  5
2C75
  8
0
  6
AUSGEZOGEN
 62
     3
 10
62.4532880889339808
 20
8.2817152136810535
 30
0.0000000000000142
 40
1.0000000000005109
 50
315.0000000000276259
 51
7.5537253564042404
  0
ARC
  5
2C76
  8
0
  6
AUSGEZOGEN
 62
     3
 10
-0.0000000000760906
 20
-0.0000000000106297
 30
0.0
 40
64.0000000000765397
 50
7.5537253564090738
 51
10.4462746435885308
  0
ARC
  5
2C77
  8
0
  6
AUSGEZOGEN
 62
     3
 10
61.9557973446406081
 20
11.4227481540032691
 30
0.0000000000000142
 40
1.0000000000000779
 50
10.4462746435966505
 51
63.0000000000004619
  0
LINE
  5
2C78
  8
0
  6
AUSGEZOGEN
 62
     3
 10
53.7562309290839409
 20
16.7229621551836409
 30
0.0000000000000142
 11
62.4097878443801832
 21
12.3137546781917102
 31
0.0000000000000161
  0
ARC
  5
2C79
  8
0
  6
AUSGEZOGEN
 62
     3
 10
54.2102214288235231
 20
17.6139686793719896
 30
0.0000000000000142
 40
0.9999999999999893
 50
152.9999999999996874
 51
242.9999999999982094
  0
LINE
  5
2C7A
  8
0
  6
AUSGEZOGEN
 62
     3
 10
57.7284223816270909
 20
26.7215160944079493
 30
0.0000000000000142
 11
53.3192149046351673
 21
18.0679591791115399
 31
0.0000000000000132
  0
ARC
  5
2C7B
  8
0
  6
AUSGEZOGEN
 62
     3
 10
56.8374158574382804
 20
27.1755065941474996
 30
0.0000000000000142
 40
1.0000000000003919
 50
333.0000000000114824
 51
25.5537253563952405
  0
ARC
  5
2C7C
  8
0
  6
AUSGEZOGEN
 62
     3
 10
-0.0000000000622208
 20
-0.000000000030326
 30
0.0
 40
64.0000000000690505
 50
25.553725356409231
 51
28.4462746435888505
  0
ARC
  5
2C7D
  8
0
  6
AUSGEZOGEN
 62
     3
 10
55.3936414848299279
 20
30.0090733454068506
 30
0.0000000000000142
 40
1.000000000000786
 50
28.4462746436099394
 51
80.9999999999821938
  0
LINE
  5
2C7E
  8
0
  6
AUSGEZOGEN
 62
     3
 10
45.9575342143315524
 20
32.5160710400758717
 30
0.0000000000000142
 11
55.5500759498706032
 21
30.9967616860027206
 31
0.0000000000000163
  0
ARC
  5
2C7F
  8
0
  6
AUSGEZOGEN
 62
     3
 10
46.1139686793718724
 20
33.5037593806709992
 30
0.0000000000000142
 40
1.0000000000000979
 50
171.0000000000023022
 51
260.9999999999919282
  0
LINE
  5
2C80
  8
0
  6
AUSGEZOGEN
 62
     3
 10
46.6455896928496401
 20
43.2527355812503629
 30
0.0000000000000142
 11
45.1262803387766311
 21
33.6601938457112126
 31
0.0000000000000139
  0
ARC
  5
2C81
  8
0
  6
AUSGEZOGEN
 62
     3
 10
45.6579013522549673
 20
43.409170046290761
 30
0.0000000000000142
 40
0.9999999999995518
 50
350.9999999999860165
 51
43.5537253564208484
  0
ARC
  5
2C82
  8
0
  6
AUSGEZOGEN
 62
     3
 10
0.0000000000187243
 20
0.0000000000196394
 30
0.0
 40
63.9999999999727294
 50
43.5537253564076394
 51
46.4462746435916785
  0
ARC
  5
2C83
  8
0
  6
AUSGEZOGEN
 62
     3
 10
43.4091700462902494
 20
45.657901352254747
 30
0.0000000000000142
 40
1.0000000000000979
 50
46.4462746435956575
 51
98.9999999999976836
  0
LINE
  5
2C84
  8
0
  6
AUSGEZOGEN
 62
     3
 10
33.6601938457109995
 20
45.1262803387769225
 30
0.0000000000000142
 11
43.2527355812500431
 21
46.6455896928499882
 31
0.0000000000000163
  0
ARC
  5
2C85
  8
0
  6
AUSGEZOGEN
 62
     3
 10
33.5037593806706795
 20
46.1139686793719576
 30
0.0000000000000142
 40
0.9999999999999211
 50
188.9999999999959073
 51
279.0000000000059117
  0
LINE
  5
2C86
  8
0
  6
AUSGEZOGEN
 62
     3
 10
30.9967616860024187
 20
55.5500759498709371
 30
0.0
 11
32.5160710400756088
 21
45.9575342143318082
 31
0.0000000000000003
  0
ARC
  5
2C87
  8
0
  6
AUSGEZOGEN
 62
     3
 10
30.0090733454070708
 20
55.393641484830539
 30
0.0
 40
1.0000000000002269
 50
9.0000000000079385
 51
61.5537253564019977
  0
ARC
  5
2C88
  8
0
  6
AUSGEZOGEN
 62
     3
 10
0.0000000000035471
 20
0.0000000000081855
 30
0.0
 40
63.999999999991033
 50
61.5537253564081084
 51
64.446274643591309
  0
ARC
  5
2C89
  8
0
  6
AUSGEZOGEN
 62
     3
 10
27.175506594147091
 20
56.8374158574388275
 30
0.0
 40
1.0000000000001019
 50
64.4462746435912237
 51
116.9999999999950973
  0
LINE
  5
2C8A
  8
0
  6
AUSGEZOGEN
 62
     3
 10
18.0679591791113303
 20
53.3192149046354302
 30
0.0
 11
26.7215160944075691
 21
57.7284223816273183
 31
0.0000000000000019
  0
ARC
  5
2C8B
  8
0
  6
AUSGEZOGEN
 62
     3
 10
17.6139686793717587
 20
54.2102214288238713
 30
0.0
 40
1.00000000000004
 50
207.0000000000061107
 51
297.0000000000002274
  0
LINE
  5
2C8C
  8
0
  6
AUSGEZOGEN
 62
     3
 10
12.3137546781913692
 20
62.409787844380503
 30
0.0
 11
16.7229621551833993
 21
53.7562309290842109
 31
0.000000000000001
  0
ARC
  5
2C8D
  8
0
  6
AUSGEZOGEN
 62
     3
 10
11.4227481540030098
 20
61.9557973446409775
 30
0.0
 40
0.9999999999999613
 50
26.9999999999988809
 51
79.5537253564069857
  0
ARC
  5
2C8E
  8
0
  6
AUSGEZOGEN
 62
     3
 10
-0.0000000000044679
 20
-0.0000000000227942
 30
0.0
 40
64.0000000000232063
 50
79.5537253564085773
 51
82.4462746435903711
  0
ARC
  5
2C8F
  8
0
  6
AUSGEZOGEN
 62
     3
 10
8.2817152136807621
 20
62.4532880889349329
 30
0.0
 40
0.9999999999999278
 50
82.4462746435896463
 51
135.0000000000046043
  0
LINE
  5
2C90
  8
0
  6
AUSGEZOGEN
 62
     3
 10
0.7071067811863486
 20
56.2928932188134823
 30
0.0
 11
7.5746084324942098
 21
63.1603948701213724
 31
0.0000000000000015
  0
ARC
  5
2C91
  8
0
  6
AUSGEZOGEN
 62
     3
 10
-0.0000000000002046
 20
57.0
 30
0.0
 40
0.9999999999999879
 50
224.9999999999988063
 51
315.0
  0
LINE
  5
2C92
  8
0
  6
AUSGEZOGEN
 62
     3
 10
-7.574608432494732
 20
63.1603948701213724
 30
0.0
 11
-0.7071067811867576
 21
56.2928932188134823
 31
0.0000000000000015
  0
ARC
  5
2C93
  8
0
  6
AUSGEZOGEN
 62
     3
 10
-8.2817152136812862
 20
62.4532880889346984
 30
0.0
 40
1.000000000000121
 50
45.0000000000057483
 51
97.5537253564088758
  0
ARC
  5
2C94
  8
0
  6
AUSGEZOGEN
 62
     3
 10
0.0000000000028081
 20
-0.0000000000225953
 30
0.0
 40
64.0000000000228226
 50
97.5537253564086626
 51
100.4462746435903995
  0
ARC
  5
2C95
  8
0
  6
AUSGEZOGEN
 62
     3
 10
-11.4227481540034699
 20
61.9557973446410131
 30
0.0
 40
1.0000000000000011
 50
100.4462746435958991
 51
153.0000000000055138
  0
LINE
  5
2C96
  8
0
  6
AUSGEZOGEN
 62
     3
 10
-16.7229621551839287
 20
53.7562309290842109
 30
0.0
 11
-12.3137546781918896
 21
62.4097878443804674
 31
0.000000000000001
  0
ARC
  5
2C97
  8
0
  6
AUSGEZOGEN
 62
     3
 10
-17.6139686793722809
 20
54.2102214288234734
 30
0.0
 40
0.999999999999672
 50
242.9999999999959073
 51
333.0000000000126761
  0
LINE
  5
2C98
  8
0
  6
AUSGEZOGEN
 62
     3
 10
-26.7215160944080985
 20
57.7284223816273467
 30
0.0
 11
-18.0679591791117389
 21
53.3192149046354302
 31
0.0000000000000019
  0
ARC
  5
2C99
  8
0
  6
AUSGEZOGEN
 62
     3
 10
-27.1755065941476204
 20
56.8374158574389696
 30
0.0
 40
1.00000000000002
 50
63.0000000000026219
 51
115.5537253564071989
  0
ARC
  5
2C9A
  8
0
  6
AUSGEZOGEN
 62
     3
 10
-0.0000000000028194
 20
0.0000000000059117
 30
0.0
 40
63.9999999999935909
 50
115.5537253564087052
 51
118.4462746435918064
  0
ARC
  5
2C9B
  8
0
  6
AUSGEZOGEN
 62
     3
 10
-30.0090733454079306
 20
55.3936414848307308
 30
0.0
 40
0.9999999999998088
 50
118.4462746435841041
 51
171.0000000000030127
  0
LINE
  5
2C9C
  8
0
  6
AUSGEZOGEN
 62
     3
 10
-32.5160710400760777
 20
45.9575342143317869
 30
-0.0000000000000142
 11
-30.9967616860028912
 21
55.5500759498708803
 31
-0.0000000000000139
  0
ARC
  5
2C9D
  8
0
  6
AUSGEZOGEN
 62
     3
 10
-33.5037593806710419
 20
46.1139686793717587
 30
-0.0000000000000142
 40
0.9999999999997601
 50
260.9999999999894271
 51
351.0000000000126761
  0
LINE
  5
2C9E
  8
0
  6
AUSGEZOGEN
 62
     3
 10
-43.2527355812505689
 20
46.6455896928499385
 30
-0.0000000000000142
 11
-33.6601938457114116
 21
45.1262803387768869
 31
-0.0000000000000121
  0
ARC
  5
2C9F
  8
0
  6
AUSGEZOGEN
 62
     3
 10
-43.4091700462907681
 20
45.6579013522547186
 30
-0.0000000000000142
 40
1.00000000000006
 50
81.0000000000017906
 51
133.5537253564064883
  0
ARC
  5
2CA0
  8
0
  6
AUSGEZOGEN
 62
     3
 10
0.0000000000236696
 20
-0.0000000000244427
 30
0.0
 40
64.0000000000341771
 50
133.5537253564089895
 51
136.4462746435901863
  0
ARC
  5
2CA1
  8
0
  6
AUSGEZOGEN
 62
     3
 10
-45.6579013522550383
 20
43.4091700462905905
 30
-0.0000000000000142
 40
0.999999999999995
 50
136.4462746435912095
 51
189.0000000000019043
  0
LINE
  5
2CA2
  8
0
  6
AUSGEZOGEN
 62
     3
 10
-45.1262803387771569
 20
33.6601938457112269
 30
-0.0000000000000142
 11
-46.645589692850173
 21
43.2527355812503274
 31
-0.0000000000000145
  0
ARC
  5
2CA3
  8
0
  6
AUSGEZOGEN
 62
     3
 10
-46.1139686793721708
 20
33.5037593806709424
 30
-0.0000000000000142
 40
0.9999999999999299
 50
278.9999999999992042
 51
9.0000000000045528
  0
LINE
  5
2CA4
  8
0
  6
AUSGEZOGEN
 62
     3
 10
-55.5500759498710579
 20
30.9967616860026816
 30
-0.0000000000000142
 11
-45.9575342143319574
 21
32.5160710400758717
 31
-0.0000000000000121
  0
ARC
  5
2CA5
  8
0
  6
AUSGEZOGEN
 62
     3
 10
-55.3936414848309084
 20
30.0090733454075895
 30
-0.0000000000000142
 40
0.9999999999999557
 50
98.9999999999957225
 51
151.5537253564102116
  0
ARC
  5
2CA6
  8
0
  6
AUSGEZOGEN
 62
     3
 10
-0.0000000000097543
 20
0.0000000000050306
 30
0.0
 40
63.9999999999892495
 50
151.5537253564083926
 51
154.4462746435916927
  0
ARC
  5
2CA7
  8
0
  6
AUSGEZOGEN
 62
     3
 10
-56.8374158574390265
 20
27.1755065941474605
 30
-0.0000000000000142
 40
1.000000000000103
 50
154.4462746435949043
 51
206.9999999999986926
  0
LINE
  5
2CA8
  8
0
  6
AUSGEZOGEN
 62
     3
 10
-53.3192149046356434
 20
18.0679591791115399
 30
-0.0000000000000142
 11
-57.7284223816275031
 21
26.7215160944078889
 31
-0.0000000000000152
  0
ARC
  5
2CA9
  8
0
  6
AUSGEZOGEN
 62
     3
 10
-54.2102214288237576
 20
17.6139686793718795
 30
-0.0000000000000142
 40
0.9999999999997724
 50
296.9999999999938041
 51
27.0000000000134683
  0
LINE
  5
2CAA
  8
0
  6
AUSGEZOGEN
 62
     3
 10
-62.409787844380773
 20
12.3137546781916303
 30
-0.0000000000000142
 11
-53.7562309290844098
 21
16.7229621551836587
 31
-0.0000000000000123
  0
ARC
  5
2CAB
  8
0
  6
AUSGEZOGEN
 62
     3
 10
-61.9557973446412475
 20
11.4227481540033793
 30
-0.0000000000000142
 40
0.9999999999999406
 50
117.0000000000002984
 51
169.5537253564133096
  0
ARC
  5
2CAC
  8
0
  6
AUSGEZOGEN
 62
     3
 10
0.0000000000658475
 20
-0.000000000009436
 30
0.0
 40
64.0000000000667484
 50
169.5537253564110074
 51
172.4462746435908116
  0
ARC
  5
2CAD
  8
0
  6
AUSGEZOGEN
 62
     3
 10
-62.4532880889347908
 20
8.2817152136811103
 30
-0.0000000000000142
 40
1.0000000000002081
 50
172.4462746435968086
 51
224.9999999999930935
  0
LINE
  5
2CAE
  8
0
  6
AUSGEZOGEN
 62
     3
 10
-56.2928932188136528
 20
0.7071067811865817
 30
-0.0000000000000142
 11
-63.1603948701215714
 21
7.5746084324945002
 31
-0.0000000000000157
  0
ARC
  5
2CAF
  8
0
  6
AUSGEZOGEN
 62
     3
 10
-57.000000000000199
 20
0.0000000000000568
 30
-0.0000000000000142
 40
1.0000000000000071
 50
315.0
 51
44.9999999999999929
  0
LINE
  5
2CB0
  8
0
  6
AUSGEZOGEN
 62
     3
 10
-63.1603948701216282
 20
-7.5746084324945278
 30
-0.0000000000000142
 11
-56.2928932188136528
 21
-0.7071067811864964
 31
-0.0000000000000127
  0
ARC
  5
2CB1
  8
0
  6
AUSGEZOGEN
 62
     3
 10
-62.4532880889350679
 20
-8.2817152136811103
 30
-0.0000000000000142
 40
0.9999999999999936
 50
135.0
 51
187.5537253564031914
  0
ARC
  5
2CB2
  8
0
  6
AUSGEZOGEN
 62
     3
 10
0.0000000000740329
 20
0.0000000000129035
 30
0.0
 40
64.0000000000753602
 50
187.5537253564112063
 51
190.4462746435906979
  0
ARC
  5
2CB3
  8
0
  6
AUSGEZOGEN
 62
     3
 10
-61.9557973446413612
 20
-11.4227481540035001
 30
-0.0000000000000142
 40
0.9999999999996969
 50
190.4462746435825125
 51
243.0000000000003126
  0
LINE
  5
2CB4
  8
0
  6
AUSGEZOGEN
 62
     3
 10
-53.7562309290844809
 20
-16.7229621551835805
 30
-0.0000000000000142
 11
-62.409787844380773
 21
-12.3137546781916001
 31
-0.0000000000000161
  0
ARC
  5
2CB5
  8
0
  6
AUSGEZOGEN
 62
     3
 10
-54.2102214288239281
 20
-17.6139686793719612
 30
-0.0000000000000142
 40
0.9999999999999255
 50
332.9999999999997158
 51
63.0000000000040501
  0
LINE
  5
2CB6
  8
0
  6
AUSGEZOGEN
 62
     3
 10
-57.7284223816275031
 20
-26.7215160944078391
 30
-0.0000000000000142
 11
-53.3192149046356434
 21
-18.0679591791114795
 31
-0.0000000000000132
  0
ARC
  5
2CB7
  8
0
  6
AUSGEZOGEN
 62
     3
 10
-56.8374158574391473
 20
-27.1755065941473788
 30
-0.0000000000000142
 40
0.9999999999999946
 50
152.9999999999996874
 51
205.5537253564079947
  0
ARC
  5
2CB8
  8
0
  6
AUSGEZOGEN
 62
     3
 10
-0.0000000000070827
 20
-0.000000000004178
 30
0.0
 40
63.9999999999919922
 50
205.5537253564077957
 51
208.4462746435910105
  0
ARC
  5
2CB9
  8
0
  6
AUSGEZOGEN
 62
     3
 10
-55.3936414848309084
 20
-30.0090733454075007
 30
-0.0000000000000142
 40
0.9999999999999772
 50
208.4462746435926022
 51
261.0000000000046043
  0
LINE
  5
2CBA
  8
0
  6
AUSGEZOGEN
 62
     3
 10
-45.9575342143319574
 20
-32.5160710400757935
 30
-0.0000000000000142
 11
-55.5500759498710579
 21
-30.9967616860026283
 31
-0.0000000000000163
  0
ARC
  5
2CBB
  8
0
  6
AUSGEZOGEN
 62
     3
 10
-46.1139686793722205
 20
-33.5037593806709211
 30
-0.0000000000000142
 40
0.9999999999999861
 50
351.0000000000013074
 51
80.9999999999980957
  0
LINE
  5
2CBC
  8
0
  6
AUSGEZOGEN
 62
     3
 10
-46.645589692850173
 20
-43.2527355812502989
 30
-0.0000000000000142
 11
-45.126280338777093
 21
-33.6601938457111203
 31
-0.0000000000000139
  0
ARC
  5
2CBD
  8
0
  6
AUSGEZOGEN
 62
     3
 10
-45.6579013522551023
 20
-43.4091700462905408
 30
-0.0000000000000142
 40
0.999999999999938
 50
170.9999999999990905
 51
223.5537253564110074
  0
ARC
  5
2CBE
  8
0
  6
AUSGEZOGEN
 62
     3
 10
0.0000000000025239
 20
0.0000000000027569
 30
0.0
 40
64.0000000000038654
 50
223.5537253564085916
 51
226.4462746435912948
  0
ARC
  5
2CBF
  8
0
  6
AUSGEZOGEN
 62
     3
 10
-43.4091700462907184
 20
-45.6579013522544273
 30
-0.0000000000000142
 40
1.0000000000003131
 50
226.4462746435987981
 51
278.999999999992383
  0
LINE
  5
2CC0
  8
0
  6
AUSGEZOGEN
 62
     3
 10
-33.6601938457114116
 20
-45.1262803387768585
 30
-0.0000000000000142
 11
-43.2527355812505689
 21
-46.6455896928499101
 31
-0.0000000000000163
  0
ARC
  5
2CC1
  8
0
  6
AUSGEZOGEN
 62
     3
 10
-33.5037593806711484
 20
-46.1139686793719576
 30
-0.0000000000000142
 40
0.9999999999999299
 50
8.9999999999992113
 51
99.0000000000024301
  0
LINE
  5
2CC2
  8
0
  6
AUSGEZOGEN
 62
     3
 10
-30.9967616860028912
 20
-55.5500759498708589
 30
0.0
 11
-32.5160710400760777
 21
-45.9575342143317513
 31
-0.0000000000000003
  0
ARC
  5
2CC3
  8
0
  6
AUSGEZOGEN
 62
     3
 10
-30.009073345407419
 20
-55.3936414848304182
 30
0.0
 40
1.0000000000003311
 50
189.0000000000084128
 51
241.5537253563977913
  0
ARC
  5
2CC4
  8
0
  6
AUSGEZOGEN
 62
     3
 10
0.0000000000682349
 20
0.0000000001357705
 30
0.0
 40
64.0000000001519567
 50
241.553725356412599
 51
244.4462746435885094
  0
ARC
  5
2CC5
  8
0
  6
AUSGEZOGEN
 62
     3
 10
-27.17550659414756
 20
-56.8374158574387067
 30
0.0
 40
1.0000000000001521
 50
244.4462746435933127
 51
296.9999999999901092
  0
LINE
  5
2CC6
  8
0
  6
AUSGEZOGEN
 62
     3
 10
-18.0679591791117389
 20
-53.3192149046353734
 30
0.0
 11
-26.7215160944080985
 21
-57.728422381627297
 31
-0.0000000000000019
  0
ARC
  5
2CC7
  8
0
  6
AUSGEZOGEN
 62
     3
 10
-17.6139686793722312
 20
-54.2102214288235587
 30
0.0
 40
0.9999999999999246
 50
26.9999999999930616
 51
117.0000000000047038
  0
LINE
  5
2CC8
  8
0
  6
AUSGEZOGEN
 62
     3
 10
-12.3137546781918896
 20
-62.409787844380503
 30
0.0
 11
-16.7229621551838683
 21
-53.7562309290841611
 31
-0.000000000000001
  0
ARC
  5
2CC9
  8
0
  6
AUSGEZOGEN
 62
     3
 10
-11.4227481540036493
 20
-61.9557973446410983
 30
0.0
 40
0.9999999999998291
 50
206.9999999999959925
 51
259.5537253564122011
  0
ARC
  5
2CCA
  8
0
  6
AUSGEZOGEN
 62
     3
 10
-0.0000000000035015
 20
-0.00000000002089
 30
0.0
 40
63.99999999997884
 50
259.5537253564079947
 51
262.4462746435917779
  0
ARC
  5
2CCB
  8
0
  6
AUSGEZOGEN
 62
     3
 10
-8.2817152136815135
 20
-62.4532880889342366
 30
0.0
 40
1.00000000000053
 50
262.4462746436075236
 51
314.9999999999885176
  0
LINE
  5
2CCC
  8
0
  6
AUSGEZOGEN
 62
     3
 10
-0.7071067811867578
 20
-56.2928932188134397
 30
0.0
 11
-7.574608432494732
 21
-63.1603948701213085
 31
-0.0000000000000015
  0
ARC
  5
2CCD
  8
0
  6
AUSGEZOGEN
 62
     3
 10
-0.0000000000002046
 20
-57.0
 30
0.0
 40
1.0000000000000071
 50
45.0
 51
135.0
  0
LINE
  5
2CCE
  8
0
  6
AUSGEZOGEN
 62
     3
 10
7.5746084324942098
 20
-63.1603948701213085
 30
0.0
 11
0.707106781186349
 21
-56.2928932188134397
 31
-0.0000000000000015
  0
ARC
  5
2CCF
  8
0
  6
AUSGEZOGEN
 62
     3
 10
8.2817152136807071
 20
-62.4532880889349826
 30
0.0
 40
0.9999999999997905
 50
224.9999999999930935
 51
277.5537253564145885
  0
ARC
  5
2CD0
  8
0
  6
AUSGEZOGEN
 62
     3
 10
0.0000000000029786
 20
-0.00000000002089
 30
0.0
 40
63.99999999997884
 50
277.5537253564082221
 51
280.4462746435920053
  0
ARC
  5
2CD1
  8
0
  6
AUSGEZOGEN
 62
     3
 10
11.4227481540030702
 20
-61.955797344640871
 30
0.0
 40
1.0000000000000011
 50
280.44627464358922
 51
332.999999999998181
  0
LINE
  5
2CD2
  8
0
  6
AUSGEZOGEN
 62
     3
 10
16.7229621551833993
 20
-53.7562309290842109
 30
0.0
 11
12.3137546781914207
 21
-62.4097878443804532
 31
-0.000000000000001
  0
ARC
  5
2CD3
  8
0
  6
AUSGEZOGEN
 62
     3
 10
17.6139686793718688
 20
-54.2102214288239566
 30
0.0
 40
1.0000000000001521
 50
63.0000000000099618
 51
152.9999999999924967
  0
LINE
  5
2CD4
  8
0
  6
AUSGEZOGEN
 62
     3
 10
26.7215160944076295
 20
-57.728422381627297
 30
0.0
 11
18.0679591791113303
 21
-53.3192149046353734
 31
-0.0000000000000019
  0
ARC
  5
2CD5
  8
0
  6
AUSGEZOGEN
 62
     3
 10
27.1755065941472012
 20
-56.8374158574389412
 30
0.0
 40
0.9999999999999946
 50
242.9999999999982094
 51
295.553725356407881
  0
ARC
  5
2CD6
  8
0
  6
AUSGEZOGEN
 62
     3
 10
0.0000000000196906
 20
-0.0000000000408136
 30
0.0
 40
63.9999999999545892
 50
295.5537253564082789
 51
298.446274643593199
  0
ARC
  5
2CD7
  8
0
  6
AUSGEZOGEN
 62
     3
 10
30.009073345407689
 20
-55.3936414848308232
 30
0.0
 40
0.9999999999996786
 50
298.4462746435814893
 51
351.0000000000084128
  0
LINE
  5
2CD8
  8
0
  6
AUSGEZOGEN
 62
     3
 10
32.5160710400756727
 20
-45.9575342143317016
 30
0.0000000000000142
 11
30.9967616860025394
 21
-55.5500759498708589
 31
0.0000000000000139
  0
ARC
  5
2CD9
  8
0
  6
AUSGEZOGEN
 62
     3
 10
33.5037593806708003
 20
-46.1139686793719434
 30
0.0000000000000142
 40
0.9999999999999861
 50
81.0000000000012932
 51
170.9999999999996874
  0
LINE
  5
2CDA
  8
0
  6
AUSGEZOGEN
 62
     3
 10
46.999999999999801
 20
-13.8564064605510495
 30
0.0
 11
46.999999999999801
 21
13.8564064605504207
 31
0.0
  0
LINE
  5
2CDB
  8
0
  6
AUSGEZOGEN
 62
     3
 10
-35.5000000000001918
 20
-33.7749907475934918
 30
0.0
 11
-11.5000000000001901
 21
-47.6313972081444774
 31
0.0000000000000053
  0
LINE
  5
2CDC
  8
0
  6
AUSGEZOGEN
 62
     3
 10
-47.0000000000001918
 20
13.8564064605508506
 30
0.0
 11
-47.0000000000001918
 21
-13.8564064605514794
 31
0.0
  0
LINE
  5
2CDD
  8
0
  6
AUSGEZOGEN
 62
     3
 10
-11.5000000000003002
 20
47.6313972081437811
 30
0.0
 11
-35.5000000000000711
 21
33.7749907475929092
 31
-0.0000000000000053
  0
CIRCLE
  5
2CDE
  8
0
  6
AUSGEZOGEN
 62
     3
 10
0.00000000000004
 20
0.0000000000000262
 30
0.0
 40
50.6000000000000014
  0
CIRCLE
  5
2CDF
  8
0
  6
AUSGEZOGEN
 62
     3
 10
0.00000000000004
 20
0.0000000000000231
 30
0.0
 40
49.0
  0
LINE
  5
2CE0
  8
0
  6
AUSGEZOGEN
 62
     3
 10
19.7009618943234592
 20
37.1230669589465094
 30
0.0
 11
12.7009618943234699
 21
24.9987113059644592
 31
-0.0000000000000018
  0
LINE
  5
2CE1
  8
0
  6
AUSGEZOGEN
 62
     3
 10
15.2990381056767202
 20
23.4987113059644699
 30
0.0
 11
12.7009618943234592
 21
24.9987113059644699
 31
-0.0000000000000006
  0
LINE
  5
2CE2
  8
0
  6
AUSGEZOGEN
 62
     3
 10
15.2990381056767202
 20
23.4987113059644699
 30
0.0
 11
22.2990381056767291
 21
35.6230669589465094
 31
0.0000000000000018
  0
LINE
  5
2CE3
  8
0
  6
AUSGEZOGEN
 62
     3
 10
22.2990381056767291
 20
35.6230669589464526
 30
0.0
 11
19.7009618943234592
 21
37.1230669589464526
 31
-0.0000000000000006
  0
LINE
  5
2CE4
  8
0
  6
AUSGEZOGEN
 62
     3
 10
12.7009618943234592
 20
24.9987113059644805
 30
0.0
 11
9.2009618943234646
 21
18.936533479473411
 31
-0.0000000000000008
  0
LINE
  5
2CE5
  8
0
  6
AUSGEZOGEN
 62
     3
 10
11.7990381056767202
 20
17.436533479473411
 30
0.0
 11
9.2009618943234646
 21
18.936533479473411
 31
-0.0000000000000006
  0
LINE
  5
2CE6
  8
0
  6
AUSGEZOGEN
 62
     3
 10
11.7990381056767202
 20
17.436533479473411
 30
0.0
 11
15.2990381056767202
 21
23.4987113059644912
 31
0.0000000000000008
  0
LINE
  5
2CE7
  8
0
  6
AUSGEZOGEN
 62
     3
 10
23.1894796118170206
 20
43.1653568887496633
 30
0.0
 11
19.7009618943233491
 21
37.1230669589464526
 31
-0.0000000000000008
  0
LINE
  5
2CE8
  8
0
  6
AUSGEZOGEN
 62
     3
 10
22.2990381056767291
 20
35.6230669589464526
 30
0.0
 11
25.7875558231703899
 21
41.6653568887496419
 31
0.0000000000000008
  0
LINE
  5
2CE9
  8
0
  6
AUSGEZOGEN
 62
     3
 10
22.2990381056766083
 20
-35.6230669589463389
 30
0.0
 11
15.2990381056767202
 21
-23.4987113059642887
 31
-0.0000000000000018
  0
LINE
  5
2CEA
  8
0
  6
AUSGEZOGEN
 62
     3
 10
12.7009618943234592
 20
-24.9987113059642887
 30
0.0
 11
15.2990381056768392
 21
-23.4987113059642887
 31
0.0000000000000006
  0
LINE
  5
2CEB
  8
0
  6
AUSGEZOGEN
 62
     3
 10
12.7009618943234592
 20
-24.9987113059642887
 30
0.0
 11
19.7009618943233491
 21
-37.1230669589463389
 31
0.0000000000000018
  0
LINE
  5
2CEC
  8
0
  6
AUSGEZOGEN
 62
     3
 10
19.7009618943233491
 20
-37.1230669589463389
 30
0.0
 11
22.2990381056767291
 21
-35.6230669589463389
 31
0.0000000000000006
  0
LINE
  5
2CED
  8
0
  6
AUSGEZOGEN
 62
     3
 10
15.2990381056767202
 20
-23.4987113059644201
 30
0.0
 11
11.7990381056767202
 21
-17.4365334794733506
 31
-0.0000000000000008
  0
LINE
  5
2CEE
  8
0
  6
AUSGEZOGEN
 62
     3
 10
9.2009618943234646
 20
-18.9365334794732405
 30
0.0
 11
11.7990381056768392
 21
-17.4365334794732405
 31
0.0000000000000006
  0
LINE
  5
2CEF
  8
0
  6
AUSGEZOGEN
 62
     3
 10
9.2009618943234646
 20
-18.9365334794732405
 30
0.0
 11
12.7009618943234592
 21
-24.99871130596431
 31
0.0000000000000008
  0
LINE
  5
2CF0
  8
0
  6
AUSGEZOGEN
 62
     3
 10
25.7875558231703899
 20
-41.665356888749578
 30
0.0
 11
22.2990381056767291
 21
-35.6230669589463389
 31
-0.0000000000000008
  0
LINE
  5
2CF1
  8
0
  6
AUSGEZOGEN
 62
     3
 10
19.7009618943233491
 20
-37.1230669589463389
 30
0.0
 11
23.1894796118170206
 21
-43.1653568887495922
 31
0.0000000000000008
  0
ARC
  5
2CF2
  8
0
  6
VERDECKT
 62
     1
 10
-0.0000000000028417
 20
-0.0000000000051179
 30
0.0
 40
24.5625566823762895
 50
56.4988506893260194
 51
63.5011493106746769
  0
ARC
  5
2CF3
  8
0
  6
VERDECKT
 62
     1
 10
0.0000000000061395
 20
-0.0000000000105074
 30
0.0
 40
24.5625566823582702
 50
296.498850689323092
 51
303.5011493106766807
  0
ARC
  5
2CF4
  8
0
  6
VERDECKT
 62
     1
 10
0.0000000000059326
 20
0.0000000000103314
 30
0.0
 40
24.9999999999881304
 50
56.5601872324832584
 51
63.43981276751677
  0
ARC
  5
2CF5
  8
0
  6
VERDECKT
 62
     1
 10
-0.0000000000025939
 20
0.0000000000044516
 30
0.0
 40
25.0000000000051408
 50
296.5601872324858732
 51
303.439812767514411
  0
ARC
  5
2CF6
  8
0
  6
VERDECKT
 62
     1
 10
0.0000000000033236
 20
-0.0000000000002985
 30
0.0
 40
47.9393398282235168
 50
168.6390492191825103
 51
179.9999999999996021
  0
ARC
  5
2CF7
  8
0
  6
VERDECKT
 62
     1
 10
0.0000000000000266
 20
0.0000000000000194
 30
0.0
 40
47.9393398282202199
 50
108.6390492191798955
 51
131.3609507808201045
  0
ARC
  5
2CF8
  8
0
  6
VERDECKT
 62
     1
 10
0.000000000016966
 20
0.0000000000292583
 30
0.0
 40
47.939339828186462
 50
58.2069486269620029
 51
61.7930513730382103
  0
ARC
  5
2CF9
  8
0
  6
VERDECKT
 62
     1
 10
0.0000000000000266
 20
0.0000000000000248
 30
0.0
 40
47.9393398282202199
 50
348.6390492191792987
 51
11.3609507808206693
  0
ARC
  5
2CFA
  8
0
  6
VERDECKT
 62
     1
 10
-0.0000000000112284
 20
0.0000000000189554
 30
0.0
 40
47.9393398282422325
 50
298.206948626964504
 51
301.7930513730362918
  0
ARC
  5
2CFB
  8
0
  6
VERDECKT
 62
     1
 10
-0.0000000000006555
 20
-0.0000000000013377
 30
0.0
 40
47.9393398282187135
 50
228.6390492191829935
 51
251.3609507808168928
  0
ARC
  5
2CFC
  8
0
  6
VERDECKT
 62
     1
 10
0.0000000000033236
 20
0.0000000000003361
 30
0.0
 40
47.939339828223531
 50
180.0000000000003126
 51
191.3609507808174897
  0
CIRCLE
  5
2CFD
  8
0
  6
VERDECKT
 62
     1
 10
0.0000000000000209
 20
0.0000000000000179
 30
0.0
 40
26.5000000000001101
  0
CIRCLE
  5
2CFE
  8
0
  6
VERDECKT
 62
     1
 10
0.0000000000000004
 20
0.0000000000000122
 30
0.0
 40
26.0682864386853907
  0
CIRCLE
  5
2CFF
  8
0
  6
VERDECKT
 62
     1
 10
-0.0000000000002046
 20
0.0000000000000284
 30
0.0
 40
48.0
  0
LINE
  5
2D00
  8
0
  6
VERDECKT
 62
     1
 10
-24.4999999999999609
 20
-42.4352447854374617
 30
0.0
 11
-13.5674797050267699
 21
-48.7471383206612714
 31
0.0000000000000024
  0
LINE
  5
2D01
  8
0
  6
VERDECKT
 62
     1
 10
-35.4325202949731519
 20
-36.123351250213652
 30
0.0
 11
-24.4999999999999716
 21
-42.4352447854374617
 31
0.0000000000000024
  0
LINE
  5
2D02
  8
0
  6
VERDECKT
 62
     1
 10
-24.4999999999999609
 20
42.4352447854375114
 30
0.0
 11
-35.4325202949731519
 21
36.1233512502137017
 31
-0.0000000000000024
  0
LINE
  5
2D03
  8
0
  6
VERDECKT
 62
     1
 10
-13.5674797050267699
 20
48.7471383206613282
 30
0.0
 11
-24.4999999999999716
 21
42.4352447854375114
 31
-0.0000000000000024
  0
LINE
  5
2D04
  8
0
  6
VERDECKT
 62
     1
 10
49.0000000000001492
 20
0.0000000000000226
 30
0.0
 11
49.0000000000001492
 21
12.6237870704471806
 31
0.0
  0
LINE
  5
2D05
  8
0
  6
VERDECKT
 62
     1
 10
49.0000000000001492
 20
-12.6237870704471202
 30
0.0
 11
49.0000000000001492
 21
0.0000000000000231
 31
0.0
  0
LINE
  5
2D06
  8
0
  6
VERDECKT
 62
     1
 10
-48.9999999999999574
 20
12.62378707044763
 30
0.0
 11
-48.9999999999999574
 21
0.0000000000000231
 31
0.0
  0
LINE
  5
2D07
  8
0
  6
VERDECKT
 62
     1
 10
-48.9999999999999574
 20
0.0000000000000226
 30
0.0
 11
-48.9999999999999574
 21
-12.6237870704475803
 31
0.0
  0
CIRCLE
  5
2D08
  8
0
  6
VERDECKT
 62
     1
 10
0.0000000000000028
 20
0.0000000000000129
 30
0.0
 40
54.0000000000001066
  0
CIRCLE
  5
2D09
  8
0
  6
VERDECKT
 62
     1
 10
0.0000000000000201
 20
0.0000000000000176
 30
0.0
 40
44.5
  0
CIRCLE
  5
2D0A
  8
0
  6
VERDECKT
 62
     1
 10
0.0000000000000201
 20
0.0000000000000176
 30
0.0
 40
42.9000000000000767
  0
CIRCLE
  5
2D0B
  8
0
  6
VERDECKT
 62
     1
 10
0.0000000000000028
 20
0.0000000000000129
 30
0.0
 40
52.4000000000000909
  0
LINE
  5
2D0C
  8
0
  6
VERDECKT
 62
     1
 10
24.7990381056767291
 20
39.953193977868672
 30
0.0
 11
22.2009618943234592
 21
41.4531939778686578
 31
-0.0000000000000006
  0
LINE
  5
2D0D
  8
0
  6
VERDECKT
 62
     1
 10
25.7990381056767291
 20
41.6852447854374972
 30
0.0
 11
23.2009618943234699
 21
43.1852447854374972
 31
-0.0000000000000006
  0
LINE
  5
2D0E
  8
0
  6
VERDECKT
 62
     1
 10
23.2009618943233491
 20
43.1852447854375185
 30
0.0
 11
23.1894796118170206
 21
43.1653568887496633
 31
0.0
  0
LINE
  5
2D0F
  8
0
  6
VERDECKT
 62
     1
 10
25.7875558231703899
 20
41.6653568887496419
 30
0.0
 11
25.7990381056767291
 21
41.6852447854375114
 31
0.0
  0
LINE
  5
2D10
  8
0
  6
VERDECKT
 62
     1
 10
22.2009618943233491
 20
-41.4531939778685512
 30
0.0
 11
24.7990381056767291
 21
-39.9531939778685512
 31
0.0000000000000006
  0
LINE
  5
2D11
  8
0
  6
VERDECKT
 62
     1
 10
23.2009618943233491
 20
-43.1852447854374475
 30
0.0
 11
25.7990381056767291
 21
-41.6852447854374404
 31
0.0000000000000006
  0
LINE
  5
2D12
  8
0
  6
VERDECKT
 62
     1
 10
25.7990381056767291
 20
-41.685244785437412
 30
0.0
 11
25.7875558231703899
 21
-41.665356888749578
 31
0.0
  0
LINE
  5
2D13
  8
0
  6
VERDECKT
 62
     1
 10
23.1894796118170206
 20
-43.1653568887495922
 30
0.0
 11
23.2009618943233491
 21
-43.185244785437412
 31
0.0
  0
ENDBLK
  5
2D15
  8
0
  0
ENDSEC
  0
SECTION
  2
ENTITIES
  0
TEXT
  5
12C8
  8
TEXT35
 10
35.2868559635740482
 20
181.2157724913357981
 30
0.0
 40
3.5
  1

 41
0.8
  0
INSERT
  5
2C53
  8
0
  2
A$C33050058
 10
0.0
 20
0.0000000000000121
 30
0.0
  0
INSERT
  5
2D16
  8
0
  2
A$C56EB0E5D
 10
0.0
 20
-90.3311128479587069
 30
0.0
  0
VIEWPORT
  5
27C9
 67
     1
  8
0
 10
6.1983468245490263
 20
7.317069820809162
 30
0.0
 40
28.3499166587750118
 41
15.0187058489938998
 68
     1
 69
     1
1001
ACAD
1000
MVIEW
1002
{
1070
    16
1010
0.0
1020
0.0
1030
0.0
1010
0.0
1020
0.0
1030
1.0
1040
0.0
1040
15.0187058489938998
1040
6.1983468245490263
1040
7.317069820809162
1040
50.0
1040
0.0
1040
0.0
1070
     0
1070
  1500
1070
     1
1070
     1
1070
     0
1070
     0
1070
     0
1070
     0
1040
0.0
1040
0.0
1040
0.0
1040
10.0
1040
10.0
1040
10.0
1040
10.0
1070
     0
1002
{
1002
}
1002
}
  0
ENDSEC
  0
EOF
