  0
SECTION
  2
HEADER
  9
$ACADVER
  1
AC1009
  9
$INSBASE
 10
0.0
 20
0.0
 30
0.0
  9
$EXTMIN
 10
-73.0363601410296042
 20
-203.471147957713498
 30
-0.004272134979658
  9
$EXTMAX
 10
73.0447492393636821
 20
140.0164218284978119
 30
0.0064088543950334
  9
$LIMMIN
 10
0.0
 20
0.0
  9
$LIMMAX
 10
297.0
 20
420.0
  9
$ORTHOMODE
 70
     1
  9
$REGENMODE
 70
     1
  9
$FILLMODE
 70
     1
  9
$QTEXTMODE
 70
     0
  9
$MIRRTEXT
 70
     1
  9
$DRAGMODE
 70
     2
  9
$LTSCALE
 40
20.0
  9
$OSMODE
 70
  1327
  9
$ATTMODE
 70
     1
  9
$TEXTSIZE
 40
3.5
  9
$TRACEWID
 40
0.5
  9
$TEXTSTYLE
  7
STANDARD
  9
$CLAYER
  8
0
  9
$CELTYPE
  6
BYLAYER
  9
$CECOLOR
 62
   256
  9
$DIMSCALE
 40
1.0
  9
$DIMASZ
 40
3.5
  9
$DIMEXO
 40
1.0
  9
$DIMDLI
 40
8.0
  9
$DIMRND
 40
0.0
  9
$DIMDLE
 40
0.0
  9
$DIMEXE
 40
1.0
  9
$DIMTP
 40
1.0
  9
$DIMTM
 40
1.0
  9
$DIMTXT
 40
3.5
  9
$DIMCEN
 40
0.0
  9
$DIMTSZ
 40
0.0
  9
$DIMTOL
 70
     0
  9
$DIMLIM
 70
     0
  9
$DIMTIH
 70
     0
  9
$DIMTOH
 70
     0
  9
$DIMSE1
 70
     0
  9
$DIMSE2
 70
     0
  9
$DIMTAD
 70
     1
  9
$DIMZIN
 70
     8
  9
$DIMBLK
  1

  9
$DIMASO
 70
     1
  9
$DIMSHO
 70
     0
  9
$DIMPOST
  1

  9
$DIMAPOST
  1

  9
$DIMALT
 70
     0
  9
$DIMALTD
 70
     2
  9
$DIMALTF
 40
25.3999999999999986
  9
$DIMLFAC
 40
1.0
  9
$DIMTOFL
 70
     1
  9
$DIMTVP
 40
0.0
  9
$DIMTIX
 70
     0
  9
$DIMSOXD
 70
     0
  9
$DIMSAH
 70
     0
  9
$DIMBLK1
  1

  9
$DIMBLK2
  1

  9
$DIMSTYLE
  2
STANDARD
  9
$DIMCLRD
 70
     0
  9
$DIMCLRE
 70
     0
  9
$DIMCLRT
 70
     1
  9
$DIMTFAC
 40
1.0
  9
$DIMGAP
 40
1.5
  9
$LUNITS
 70
     2
  9
$LUPREC
 70
     2
  9
$SKETCHINC
 40
1.0
  9
$FILLETRAD
 40
16.0
  9
$AUNITS
 70
     0
  9
$AUPREC
 70
     0
  9
$MENU
  1
ACAD
  9
$ELEVATION
 40
0.0
  9
$PELEVATION
 40
0.0
  9
$THICKNESS
 40
0.0
  9
$LIMCHECK
 70
     0
  9
$BLIPMODE
 70
     0
  9
$CHAMFERA
 40
0.0
  9
$CHAMFERB
 40
0.0
  9
$SKPOLY
 70
     0
  9
$TDCREATE
 40
2451879.6264351848512888
  9
$TDUPDATE
 40
2458401.5803935178555548
  9
$TDINDWG
 40
0.0918373264
  9
$TDUSRTIMER
 40
0.0918373264
  9
$USRTIMER
 70
     1
  9
$ANGBASE
 50
0.0
  9
$ANGDIR
 70
     0
  9
$PDMODE
 70
     0
  9
$PDSIZE
 40
0.0
  9
$PLINEWID
 40
0.0
  9
$COORDS
 70
     1
  9
$SPLFRAME
 70
     0
  9
$SPLINETYPE
 70
     6
  9
$SPLINESEGS
 70
     8
  9
$ATTDIA
 70
     0
  9
$ATTREQ
 70
     0
  9
$HANDLING
 70
     1
  9
$HANDSEED
  5
34E8
  9
$SURFTAB1
 70
     6
  9
$SURFTAB2
 70
     6
  9
$SURFTYPE
 70
     6
  9
$SURFU
 70
     6
  9
$SURFV
 70
     6
  9
$UCSNAME
  2

  9
$UCSORG
 10
0.0
 20
0.0
 30
0.0
  9
$UCSXDIR
 10
1.0
 20
0.0
 30
0.0
  9
$UCSYDIR
 10
0.0
 20
1.0
 30
0.0
  9
$PUCSNAME
  2

  9
$PUCSORG
 10
0.0
 20
0.0
 30
0.0
  9
$PUCSXDIR
 10
1.0
 20
0.0
 30
0.0
  9
$PUCSYDIR
 10
0.0
 20
1.0
 30
0.0
  9
$USERI1
 70
     0
  9
$USERI2
 70
     0
  9
$USERI3
 70
     0
  9
$USERI4
 70
     0
  9
$USERI5
 70
     0
  9
$USERR1
 40
0.0
  9
$USERR2
 40
0.0
  9
$USERR3
 40
0.0
  9
$USERR4
 40
0.0
  9
$USERR5
 40
0.0
  9
$WORLDVIEW
 70
     1
  9
$SHADEDGE
 70
     3
  9
$SHADEDIF
 70
    70
  9
$TILEMODE
 70
     1
  9
$MAXACTVP
 70
    16
  9
$PLIMCHECK
 70
     0
  9
$PEXTMIN
 10
-0.1175322956252529
 20
-0.1350217828067777
 30
-0.0000000000112498
  9
$PEXTMAX
 10
10.9811542929415307
 20
15.3501343508604702
 30
0.0000000000002956
  9
$PLIMMIN
 10
-0.2500002402958907
 20
-0.2499999962453767
  9
$PLIMMAX
 10
10.7499995194082203
 20
8.2499997634587334
  9
$UNITMODE
 70
     0
  9
$VISRETAIN
 70
     0
  9
$PLINEGEN
 70
     0
  9
$PSLTSCALE
 70
     0
  0
ENDSEC
  0
SECTION
  2
TABLES
  0
TABLE
  2
VPORT
 70
     1
  0
VPORT
  2
*ACTIVE
 70
     0
 10
0.0
 20
0.0
 11
1.0
 21
1.0
 12
0.004194549167039
 22
-65.2194284942953288
 13
0.0
 23
0.0
 14
1.0
 24
1.0
 15
10.0
 25
10.0
 16
-0.0000000000001486
 26
0.0
 36
669.3622199697600763
 17
0.0
 27
33.4920654296875284
 37
-0.0000000000000074
 40
346.0573022285021807
 41
1.887640449438202
 42
50.0
 43
0.0
 44
0.0
 50
0.0
 51
0.0
 71
     0
 72
  1500
 73
     1
 74
     0
 75
     0
 76
     0
 77
     0
 78
     0
  0
ENDTAB
  0
TABLE
  2
LTYPE
 70
     4
  0
LTYPE
  2
AUSGEZOGEN
 70
     0
  3
Ausgezogene Linie
 72
    65
 73
     0
 40
0.0
  0
LTYPE
  2
CONTINUOUS
 70
     0
  3
Solid line
 72
    65
 73
     0
 40
0.0
  0
LTYPE
  2
VERDECKT
 70
     0
  3
Verdeckt __ __ __ __ __ __ __ __ __ __ __ __ __
 72
    65
 73
     2
 40
0.375
 49
0.25
 49
-0.125
  0
ENDTAB
  0
TABLE
  2
LAYER
 70
    12
  0
LAYER
  2
0
 70
     0
 62
     7
  6
AUSGEZOGEN
  0
LAYER
  2
DEFPOINTS
 70
     0
 62
     7
  6
AUSGEZOGEN
  0
LAYER
  2
TEXT35
 70
     0
 62
     1
  6
AUSGEZOGEN
  0
ENDTAB
  0
TABLE
  2
STYLE
 70
     4
  0
STYLE
  2
STANDARD
 70
     0
 40
0.0
 41
0.8
 50
0.0
 71
     0
 42
3.5
  3
simplex.shx
  4

  0
ENDTAB
  0
TABLE
  2
VIEW
 70
     2
  0
ENDTAB
  0
TABLE
  2
UCS
 70
     0
  0
ENDTAB
  0
TABLE
  2
APPID
 70
    11
  0
APPID
  2
ACAD
 70
     0
  0
APPID
  2
ACAD_NAV_VCDISPLAY
 70
     0
  0
APPID
  2
ACAECLAYERSTANDARD
 70
     0
  0
APPID
  2
ACCMTRANSPARENCY
 70
     0
  0
APPID
  2
ACAD_PSEXT
 70
     0
  0
APPID
  2
ACAD_MLEADERVER
 70
     0
  0
APPID
  2
ACAD_OBJECT_CHANGE_GUID
 70
     0
  0
APPID
  2
ACAD_STEPID
 70
     0
  0
APPID
  2
ACAD_DSTYLE_DIMRADIAL_EXTENSION
 70
     0
  0
APPID
  2
ACAD_EXEMPT_FROM_CAD_STANDARDS
 70
     0
  0
APPID
  2
ACADANNOMONITORALERTICONDI
 70
     0
  0
ENDTAB
  0
TABLE
  2
DIMSTYLE
 70
     2
  0
DIMSTYLE
  2
STANDARD
 70
     0
  3

  4

  5

  6

  7

 40
0.0
 41
3.5
 42
1.0
 43
8.0
 44
1.5
 45
0.0
 46
0.0
 47
0.5
 48
0.0
140
3.5
141
1.5
142
0.0
143
25.3999999999999986
144
1.0
145
0.0
146
1.0
147
1.0
 71
     0
 72
     0
 73
     0
 74
     0
 75
     0
 76
     0
 77
     1
 78
     8
170
     0
171
     2
172
     1
173
     0
174
     0
175
     0
176
     0
177
     0
178
     1
  0
ENDTAB
  0
ENDSEC
  0
SECTION
  2
BLOCKS
  0
BLOCK
  8
0
  2
$MODEL_SPACE
 70
     0
 10
0.0
 20
0.0
 30
0.0
  3
$MODEL_SPACE
  1

  0
ENDBLK
  5
2426
  8
0
  0
BLOCK
 67
     1
  8
0
  2
$PAPER_SPACE
 70
     0
 10
0.0
 20
0.0
 30
0.0
  3
$PAPER_SPACE
  1

  0
ENDBLK
  5
2424
 67
     1
  8
0
  0
BLOCK
  8
0
  2
A$C01F3049C
 70
     0
 10
0.0
 20
0.0
 30
0.0
  3
A$C01F3049C
  1

  0
LINE
  5
32FE
  8
0
  6
AUSGEZOGEN
 62
     1
 10
-63.9999999999998792
 20
-0.0000000000000568
 30
0.0
 11
63.9999999999998792
 21
0.0000000000000568
 31
0.0
210
0.0
220
1.0
230
-0.0000000000000002
  0
LINE
  5
32FF
  8
0
  6
AUSGEZOGEN
 62
     1
 10
-15.4919333848297303
 20
125.0000000000000995
 30
-0.0000000000000278
 11
15.49193338482951
 21
125.0000000000000995
 31
-0.0000000000000278
210
0.0
220
1.0
230
-0.0000000000000002
  0
LINE
  5
3300
  8
0
  6
AUSGEZOGEN
 62
     1
 10
15.4919333848294993
 20
132.0000000000001137
 30
-0.0000000000000293
 11
-15.4919333848297391
 21
132.0000000000001137
 31
-0.0000000000000293
210
0.0
220
1.0
230
-0.0000000000000002
  0
LINE
  5
3301
  8
0
  6
AUSGEZOGEN
 62
     1
 10
15.4919333848294993
 20
132.000000000000199
 30
-0.0000000000000293
 11
15.4919333848294993
 21
125.000000000000199
 31
-0.0000000000000278
210
0.0
220
1.0
230
-0.0000000000000002
  0
LINE
  5
3302
  8
0
  6
AUSGEZOGEN
 62
     1
 10
-15.4919333848297303
 20
125.000000000000199
 30
-0.0000000000000278
 11
-15.4919333848297303
 21
132.000000000000199
 31
-0.0000000000000293
210
0.0
220
1.0
230
-0.0000000000000002
  0
LINE
  5
3303
  8
0
  6
AUSGEZOGEN
 62
     1
 10
58.9999999999998792
 20
125.0000000000000995
 30
-0.0000000000000278
 11
60.9999999999998792
 21
125.0000000000000995
 31
-0.0000000000000278
210
0.0
220
1.0
230
-0.0000000000000002
  0
LINE
  5
3304
  8
0
  6
AUSGEZOGEN
 62
     1
 10
60.9999999999998792
 20
132.0000000000001137
 30
-0.0000000000000293
 11
58.9999999999998792
 21
132.0000000000001137
 31
-0.0000000000000293
210
0.0
220
1.0
230
-0.0000000000000002
  0
LINE
  5
3305
  8
0
  6
AUSGEZOGEN
 62
     1
 10
58.9999999999998792
 20
125.0000000000000995
 30
-0.0000000000000278
 11
58.9999999999998792
 21
132.0000000000001137
 31
-0.0000000000000293
210
0.0
220
1.0
230
-0.0000000000000002
  0
LINE
  5
3306
  8
0
  6
AUSGEZOGEN
 62
     1
 10
-61.0000000000001208
 20
125.0000000000000995
 30
-0.0000000000000278
 11
-59.0000000000001066
 21
125.0000000000000995
 31
-0.0000000000000278
210
0.0
220
1.0
230
-0.0000000000000002
  0
LINE
  5
3307
  8
0
  6
AUSGEZOGEN
 62
     1
 10
-59.0000000000001066
 20
132.0000000000001137
 30
-0.0000000000000293
 11
-61.0000000000001208
 21
132.0000000000001137
 31
-0.0000000000000293
210
0.0
220
1.0
230
-0.0000000000000002
  0
LINE
  5
3308
  8
0
  6
AUSGEZOGEN
 62
     1
 10
-59.0000000000001066
 20
132.0000000000001137
 30
-0.0000000000000293
 11
-59.0000000000001066
 21
125.0000000000000995
 31
-0.0000000000000278
210
0.0
220
1.0
230
-0.0000000000000002
  0
LINE
  5
3309
  8
0
  6
AUSGEZOGEN
 62
     1
 10
-61.0000000000001208
 20
140.0
 30
-0.0000000000000311
 11
60.9999999999998792
 21
140.0
 31
-0.0000000000000311
210
0.0
220
1.0
230
-0.0000000000000002
  0
ARC
  5
330A
  8
0
  6
AUSGEZOGEN
 62
     1
 10
44.9999999999992397
 20
71.0948389659280053
 30
0.0
 40
16.0000000000008811
210
0.0
220
-0.0000000000000002
230
-1.0
 50
340.0000002658280778
 51
0.0000000000001654
  0
ARC
  5
330B
  8
0
  6
AUSGEZOGEN
 62
     1
 10
-44.9999999999993676
 20
71.0948389659280764
 30
0.0
 40
16.000000000000739
210
0.0
220
-0.0000000000000002
230
-1.0
 50
179.9999999999998863
 51
199.9999997341716949
  0
LINE
  5
330C
  8
0
  6
AUSGEZOGEN
 62
     1
 10
-54.6119662604028804
 20
50.7226286052436208
 30
-0.0000000000000113
 11
-57.9540446554565989
 21
59.9049136622540317
 31
-0.0000000000000133
210
0.0
220
1.0
230
-0.0000000000000002
  0
LINE
  5
330D
  8
0
  6
AUSGEZOGEN
 62
     1
 10
-58.4999999989746229
 20
61.4049136622540317
 30
-0.0000000000000136
 11
-60.0350819579638681
 21
65.6225167424734082
 31
-0.0000000000000146
210
0.0
220
1.0
230
-0.0000000000000002
  0
LINE
  5
330E
  8
0
  6
AUSGEZOGEN
 62
     1
 10
54.6119662604028733
 20
50.7226286052436279
 30
-0.0000000000000113
 11
57.9540446554565634
 21
59.9049136622540317
 31
-0.0000000000000133
210
0.0
220
1.0
230
-0.0000000000000002
  0
LINE
  5
330F
  8
0
  6
AUSGEZOGEN
 62
     1
 10
58.4999999989745874
 20
61.4049136622540388
 30
-0.0000000000000136
 11
60.0350819579638824
 21
65.6225167424735645
 31
-0.0000000000000146
210
0.0
220
1.0
230
-0.0000000000000002
  0
ARC
  5
3310
  8
0
  6
AUSGEZOGEN
 62
     1
 10
67.767662973621043
 20
45.9343466597208092
 30
0.0
 40
14.0
210
0.0
220
-0.0000000000000002
230
-1.0
 50
160.0000002658267988
 51
199.9999999680439942
  0
ARC
  5
3311
  8
0
  6
AUSGEZOGEN
 62
     1
 10
-67.7676629736210998
 20
45.9343466597209087
 30
0.0
 40
14.0000000000000409
210
0.0
220
-0.0000000000000002
230
-1.0
 50
340.0000000319557216
 51
19.9999997341727394
  0
LINE
  5
3312
  8
0
  6
AUSGEZOGEN
 62
     1
 10
54.6119662799477368
 20
41.1460646604988725
 30
-0.0000000000000091
 11
63.0350819356266001
 21
18.0037445549067314
 31
-0.000000000000004
210
0.0
220
1.0
230
-0.0000000000000002
  0
LINE
  5
3313
  8
0
  6
AUSGEZOGEN
 62
     1
 10
-54.6119662799477368
 20
41.1460646604988369
 30
-0.0000000000000091
 11
-63.0350819356266072
 21
18.0037445549065716
 31
-0.000000000000004
210
0.0
220
1.0
230
-0.0000000000000002
  0
ARC
  5
3314
  8
0
  6
AUSGEZOGEN
 62
     1
 10
48.0000000000001776
 20
12.53142227008132
 30
0.0
 40
15.9999999999998792
210
0.0
220
-0.0000000000000002
230
-1.0
 50
359.9999999999998863
 51
19.9999999680448504
  0
ARC
  5
3315
  8
0
  6
AUSGEZOGEN
 62
     1
 10
-48.0000000000002203
 20
12.5314222700814106
 30
0.0
 40
15.9999999999998401
210
0.0
220
-0.0000000000000002
230
-1.0
 50
160.0000000319548121
 51
179.999999999999801
  0
LINE
  5
3316
  8
0
  6
AUSGEZOGEN
 62
     1
 10
63.9999999999999929
 20
12.5314222700814604
 30
-0.0000000000000028
 11
64.0
 21
0.0000000000000497
 31
0.0
210
0.0
220
1.0
230
-0.0000000000000002
  0
LINE
  5
3317
  8
0
  6
AUSGEZOGEN
 62
     1
 10
-64.0
 20
12.5314222700813005
 30
-0.0000000000000028
 11
-63.9999999999999929
 21
-0.0000000000000568
 31
0.0
210
0.0
220
1.0
230
-0.0000000000000002
  0
LINE
  5
3318
  8
0
  6
AUSGEZOGEN
 62
     1
 10
60.9999999999998792
 20
140.0
 30
-0.0000000000000311
 11
60.9999999999998792
 21
132.0000000000001137
 31
-0.0000000000000293
210
0.0
220
1.0
230
-0.0000000000000002
  0
LINE
  5
3319
  8
0
  6
AUSGEZOGEN
 62
     1
 10
60.9999999999998792
 20
125.0000000000000995
 30
-0.0000000000000278
 11
60.9999999999998792
 21
71.0948389659280906
 31
-0.0000000000000158
210
0.0
220
1.0
230
-0.0000000000000002
  0
LINE
  5
331A
  8
0
  6
AUSGEZOGEN
 62
     1
 10
-61.0000000000001208
 20
140.0
 30
-0.0000000000000311
 11
-61.0000000000001208
 21
132.0000000000001137
 31
-0.0000000000000293
210
0.0
220
1.0
230
-0.0000000000000002
  0
LINE
  5
331B
  8
0
  6
AUSGEZOGEN
 62
     1
 10
-61.0000000000001208
 20
125.0000000000000995
 30
-0.0000000000000278
 11
-61.0000000000001208
 21
71.094838965928048
 31
-0.0000000000000158
210
0.0
220
1.0
230
-0.0000000000000002
  0
LINE
  5
331C
  8
0
  6
AUSGEZOGEN
 62
     1
 10
29.7386787763912217
 20
61.4049136622540388
 30
-0.0000000000000136
 11
21.0036206256735909
 21
61.4049136622540388
 31
-0.0000000000000136
210
0.0
220
1.0
230
-0.0000000000000002
  0
LINE
  5
331D
  8
0
  6
AUSGEZOGEN
 62
     1
 10
29.7386787763912217
 20
59.9049136622540388
 30
-0.0000000000000133
 11
21.0036206256735909
 21
59.9049136622540388
 31
-0.0000000000000133
210
0.0
220
1.0
230
-0.0000000000000002
  0
LINE
  5
331E
  8
0
  6
AUSGEZOGEN
 62
     1
 10
29.7386787763912288
 20
61.4049136622540388
 30
-0.0000000000000136
 11
30.6091198868360301
 21
61.4049136622540388
 31
-0.0000000000000136
210
0.0
220
1.0
230
-0.0000000000000002
  0
LINE
  5
331F
  8
0
  6
AUSGEZOGEN
 62
     1
 10
29.7386787763912288
 20
59.9049136622540388
 30
-0.0000000000000133
 11
30.6091198868360301
 21
59.9049136622540388
 31
-0.0000000000000133
210
0.0
220
1.0
230
-0.0000000000000002
  0
LINE
  5
3320
  8
0
  6
AUSGEZOGEN
 62
     1
 10
30.6091198868360195
 20
61.4049136622540317
 30
-0.0000000000000136
 11
36.0694650502506988
 21
61.4049136622540317
 31
-0.0000000000000136
210
0.0
220
1.0
230
-0.0000000000000002
  0
LINE
  5
3321
  8
0
  6
AUSGEZOGEN
 62
     1
 10
30.6091198868360195
 20
59.9049136622540317
 30
-0.0000000000000133
 11
36.0694650502506988
 21
59.9049136622540317
 31
-0.0000000000000133
210
0.0
220
1.0
230
-0.0000000000000002
  0
LINE
  5
3322
  8
0
  6
AUSGEZOGEN
 62
     1
 10
36.0694650502506917
 20
61.4049136622540388
 30
-0.0000000000000136
 11
36.566412369754012
 21
61.4049136622540388
 31
-0.0000000000000136
210
0.0
220
1.0
230
-0.0000000000000002
  0
LINE
  5
3323
  8
0
  6
AUSGEZOGEN
 62
     1
 10
36.0694650502506917
 20
59.9049136622540388
 30
-0.0000000000000133
 11
36.566412369754012
 21
59.9049136622540388
 31
-0.0000000000000133
210
0.0
220
1.0
230
-0.0000000000000002
  0
LINE
  5
3324
  8
0
  6
AUSGEZOGEN
 62
     1
 10
38.1000309368543526
 20
61.4049136622540317
 30
-0.0000000000000136
 11
36.566412369754012
 21
61.4049136622540317
 31
-0.0000000000000136
210
0.0
220
1.0
230
-0.0000000000000002
  0
LINE
  5
3325
  8
0
  6
AUSGEZOGEN
 62
     1
 10
38.1000309368543526
 20
59.9049136622540317
 30
-0.0000000000000133
 11
36.566412369754012
 21
59.9049136622540317
 31
-0.0000000000000133
210
0.0
220
1.0
230
-0.0000000000000002
  0
LINE
  5
3326
  8
0
  6
AUSGEZOGEN
 62
     1
 10
39.2441537424896865
 20
61.4049136622540317
 30
-0.0000000000000136
 11
38.1000309368543597
 21
61.4049136622540317
 31
-0.0000000000000136
210
0.0
220
1.0
230
-0.0000000000000002
  0
LINE
  5
3327
  8
0
  6
AUSGEZOGEN
 62
     1
 10
39.2441537424896865
 20
59.9049136622540317
 30
-0.0000000000000133
 11
38.1000309368543597
 21
59.9049136622540317
 31
-0.0000000000000133
210
0.0
220
1.0
230
-0.0000000000000002
  0
LINE
  5
3328
  8
0
  6
AUSGEZOGEN
 62
     1
 10
48.9270402934533308
 20
61.4049136622540317
 30
-0.0000000000000136
 11
39.2441537424896865
 21
61.4049136622540317
 31
-0.0000000000000136
210
0.0
220
1.0
230
-0.0000000000000002
  0
LINE
  5
3329
  8
0
  6
AUSGEZOGEN
 62
     1
 10
48.9270402934533308
 20
59.9049136622540317
 30
-0.0000000000000133
 11
39.2441537424896865
 21
59.9049136622540317
 31
-0.0000000000000133
210
0.0
220
1.0
230
-0.0000000000000002
  0
LINE
  5
332A
  8
0
  6
AUSGEZOGEN
 62
     1
 10
48.9270402934533308
 20
61.4049136622540317
 30
-0.0000000000000136
 11
49.7604882034382783
 21
61.4049136622540317
 31
-0.0000000000000136
210
0.0
220
1.0
230
-0.0000000000000002
  0
LINE
  5
332B
  8
0
  6
AUSGEZOGEN
 62
     1
 10
48.9270402934533308
 20
59.9049136622540317
 30
-0.0000000000000133
 11
49.7604882034382783
 21
59.9049136622540317
 31
-0.0000000000000133
210
0.0
220
1.0
230
-0.0000000000000002
  0
LINE
  5
332C
  8
0
  6
AUSGEZOGEN
 62
     1
 10
49.7604882034382712
 20
61.4049136622540317
 30
-0.0000000000000136
 11
54.0938426602833076
 21
61.4049136622540317
 31
-0.0000000000000136
210
0.0
220
1.0
230
-0.0000000000000002
  0
LINE
  5
332D
  8
0
  6
AUSGEZOGEN
 62
     1
 10
49.7604882034382712
 20
59.9049136622540317
 30
-0.0000000000000133
 11
54.0938426602833076
 21
59.9049136622540317
 31
-0.0000000000000133
210
0.0
220
1.0
230
-0.0000000000000002
  0
LINE
  5
332E
  8
0
  6
AUSGEZOGEN
 62
     1
 10
54.0938426602833715
 20
61.4049136622540317
 30
-0.0000000000000136
 11
54.3578720118441012
 21
61.4049136622540317
 31
-0.0000000000000136
210
0.0
220
1.0
230
-0.0000000000000002
  0
LINE
  5
332F
  8
0
  6
AUSGEZOGEN
 62
     1
 10
54.0938426602833715
 20
59.9049136622540317
 30
-0.0000000000000133
 11
54.3578720118441012
 21
59.9049136622540317
 31
-0.0000000000000133
210
0.0
220
1.0
230
-0.0000000000000002
  0
LINE
  5
3330
  8
0
  6
AUSGEZOGEN
 62
     1
 10
63.3260822118573969
 20
61.4049136622540317
 30
-0.0000000000000136
 11
54.3578720118441012
 21
61.4049136622540317
 31
-0.0000000000000136
210
0.0
220
1.0
230
-0.0000000000000002
  0
LINE
  5
3331
  8
0
  6
AUSGEZOGEN
 62
     1
 10
63.3260822118573969
 20
59.9049136622540317
 30
-0.0000000000000133
 11
54.3578720118441012
 21
59.9049136622540317
 31
-0.0000000000000133
210
0.0
220
1.0
230
-0.0000000000000002
  0
LINE
  5
3332
  8
0
  6
AUSGEZOGEN
 62
     1
 10
63.3260822118573969
 20
61.4049136622540317
 30
-0.0000000000000136
 11
64.0409532329801436
 21
61.4049136622540317
 31
-0.0000000000000136
210
0.0
220
1.0
230
-0.0000000000000002
  0
LINE
  5
3333
  8
0
  6
AUSGEZOGEN
 62
     1
 10
63.3260822118573969
 20
59.9049136622540317
 30
-0.0000000000000133
 11
64.0409532329801436
 21
59.9049136622540317
 31
-0.0000000000000133
210
0.0
220
1.0
230
-0.0000000000000002
  0
LINE
  5
3334
  8
0
  6
AUSGEZOGEN
 62
     1
 10
64.0409532329801436
 20
61.4049136622540317
 30
-0.0000000000000136
 11
66.823138056763753
 21
61.4049136622540317
 31
-0.0000000000000136
210
0.0
220
1.0
230
-0.0000000000000002
  0
LINE
  5
3335
  8
0
  6
AUSGEZOGEN
 62
     1
 10
64.0409532329801436
 20
59.9049136622540317
 30
-0.0000000000000133
 11
66.823138056763753
 21
59.9049136622540317
 31
-0.0000000000000133
210
0.0
220
1.0
230
-0.0000000000000002
  0
LINE
  5
3336
  8
0
  6
AUSGEZOGEN
 62
     1
 10
66.823138056763753
 20
61.4049136622540317
 30
-0.0000000000000136
 11
66.9139797158554188
 21
61.4049136622540317
 31
-0.0000000000000136
210
0.0
220
1.0
230
-0.0000000000000002
  0
LINE
  5
3337
  8
0
  6
AUSGEZOGEN
 62
     1
 10
66.823138056763753
 20
59.9049136622540317
 30
-0.0000000000000133
 11
66.9139797158554188
 21
59.9049136622540317
 31
-0.0000000000000133
210
0.0
220
1.0
230
-0.0000000000000002
  0
LINE
  5
3338
  8
0
  6
AUSGEZOGEN
 62
     1
 10
71.5263259846058759
 20
61.4049136622540317
 30
-0.0000000000000136
 11
66.9139797158554188
 21
61.4049136622540317
 31
-0.0000000000000136
210
0.0
220
1.0
230
-0.0000000000000002
  0
LINE
  5
3339
  8
0
  6
AUSGEZOGEN
 62
     1
 10
71.5263259846058759
 20
59.9049136622540317
 30
-0.0000000000000133
 11
66.9139797158554188
 21
59.9049136622540317
 31
-0.0000000000000133
210
0.0
220
1.0
230
-0.0000000000000002
  0
LINE
  5
333A
  8
0
  6
AUSGEZOGEN
 62
     1
 10
71.5263259846058617
 20
61.4049136622540317
 30
-0.0000000000000136
 11
72.0526435605196411
 21
61.4049136622540317
 31
-0.0000000000000136
210
0.0
220
1.0
230
-0.0000000000000002
  0
LINE
  5
333B
  8
0
  6
AUSGEZOGEN
 62
     1
 10
71.5263259846058617
 20
59.9049136622540317
 30
-0.0000000000000133
 11
72.0526435605196411
 21
59.9049136622540317
 31
-0.0000000000000133
210
0.0
220
1.0
230
-0.0000000000000002
  0
LINE
  5
333C
  8
0
  6
AUSGEZOGEN
 62
     1
 10
72.0526435605196838
 20
61.4049136622540175
 30
-0.0000000000000136
 11
73.0113191160683641
 21
61.4049136622540175
 31
-0.0000000000000136
210
0.0
220
1.0
230
-0.0000000000000002
  0
LINE
  5
333D
  8
0
  6
AUSGEZOGEN
 62
     1
 10
72.0526435605196838
 20
59.9049136622540175
 30
-0.0000000000000133
 11
73.0113191160683641
 21
59.9049136622540175
 31
-0.0000000000000133
210
0.0
220
1.0
230
-0.0000000000000002
  0
LINE
  5
333E
  8
0
  6
AUSGEZOGEN
 62
     1
 10
73.0113191160683641
 20
61.4049136622540317
 30
-0.0000000000000136
 11
73.0179678355776218
 21
61.4049136622540317
 31
-0.0000000000000136
210
0.0
220
1.0
230
-0.0000000000000002
  0
LINE
  5
333F
  8
0
  6
AUSGEZOGEN
 62
     1
 10
73.0113191160683641
 20
59.9049136622540317
 30
-0.0000000000000133
 11
73.0179678355776218
 21
59.9049136622540317
 31
-0.0000000000000133
210
0.0
220
1.0
230
-0.0000000000000002
  0
LINE
  5
3340
  8
0
  6
AUSGEZOGEN
 62
     1
 10
-73.0179678355775081
 20
61.4049136622540317
 30
-0.0000000000000136
 11
-73.0113191160682504
 21
61.4049136622540317
 31
-0.0000000000000136
210
0.0
220
1.0
230
-0.0000000000000002
  0
LINE
  5
3341
  8
0
  6
AUSGEZOGEN
 62
     1
 10
-73.0179678355775081
 20
59.9049136622540317
 30
-0.0000000000000133
 11
-73.0113191160682504
 21
59.9049136622540317
 31
-0.0000000000000133
210
0.0
220
1.0
230
-0.0000000000000002
  0
LINE
  5
3342
  8
0
  6
AUSGEZOGEN
 62
     1
 10
-73.0113191160681936
 20
61.4049136622540175
 30
-0.0000000000000136
 11
-72.0526435605195701
 21
61.4049136622540175
 31
-0.0000000000000136
210
0.0
220
1.0
230
-0.0000000000000002
  0
LINE
  5
3343
  8
0
  6
AUSGEZOGEN
 62
     1
 10
-73.0113191160681936
 20
59.9049136622540175
 30
-0.0000000000000133
 11
-72.0526435605195701
 21
59.9049136622540175
 31
-0.0000000000000133
210
0.0
220
1.0
230
-0.0000000000000002
  0
LINE
  5
3344
  8
0
  6
AUSGEZOGEN
 62
     1
 10
-72.0526435605195701
 20
61.4049136622540317
 30
-0.0000000000000136
 11
-71.5263259846057622
 21
61.4049136622540317
 31
-0.0000000000000136
210
0.0
220
1.0
230
-0.0000000000000002
  0
LINE
  5
3345
  8
0
  6
AUSGEZOGEN
 62
     1
 10
-72.0526435605195701
 20
59.9049136622540317
 30
-0.0000000000000133
 11
-71.5263259846057622
 21
59.9049136622540317
 31
-0.0000000000000133
210
0.0
220
1.0
230
-0.0000000000000002
  0
LINE
  5
3346
  8
0
  6
AUSGEZOGEN
 62
     1
 10
-66.9139797158553051
 20
61.4049136622540317
 30
-0.0000000000000136
 11
-71.5263259846057622
 21
61.4049136622540317
 31
-0.0000000000000136
210
0.0
220
1.0
230
-0.0000000000000002
  0
LINE
  5
3347
  8
0
  6
AUSGEZOGEN
 62
     1
 10
-66.9139797158553051
 20
59.9049136622540317
 30
-0.0000000000000133
 11
-71.5263259846057622
 21
59.9049136622540317
 31
-0.0000000000000133
210
0.0
220
1.0
230
-0.0000000000000002
  0
LINE
  5
3348
  8
0
  6
AUSGEZOGEN
 62
     1
 10
-66.9139797158553051
 20
61.4049136622540317
 30
-0.0000000000000136
 11
-66.8231380567636393
 21
61.4049136622540317
 31
-0.0000000000000136
210
0.0
220
1.0
230
-0.0000000000000002
  0
LINE
  5
3349
  8
0
  6
AUSGEZOGEN
 62
     1
 10
-66.9139797158553051
 20
59.9049136622540317
 30
-0.0000000000000133
 11
-66.8231380567636393
 21
59.9049136622540317
 31
-0.0000000000000133
210
0.0
220
1.0
230
-0.0000000000000002
  0
LINE
  5
334A
  8
0
  6
AUSGEZOGEN
 62
     1
 10
-66.8231380567636393
 20
61.4049136622540317
 30
-0.0000000000000136
 11
-64.04095323298003
 21
61.4049136622540317
 31
-0.0000000000000136
210
0.0
220
1.0
230
-0.0000000000000002
  0
LINE
  5
334B
  8
0
  6
AUSGEZOGEN
 62
     1
 10
-66.8231380567636393
 20
59.9049136622540317
 30
-0.0000000000000133
 11
-64.04095323298003
 21
59.9049136622540317
 31
-0.0000000000000133
210
0.0
220
1.0
230
-0.0000000000000002
  0
LINE
  5
334C
  8
0
  6
AUSGEZOGEN
 62
     1
 10
-64.0409532329799447
 20
61.4049136622540317
 30
-0.0000000000000136
 11
-63.3260822118573401
 21
61.4049136622540317
 31
-0.0000000000000136
210
0.0
220
1.0
230
-0.0000000000000002
  0
LINE
  5
334D
  8
0
  6
AUSGEZOGEN
 62
     1
 10
-64.0409532329799447
 20
59.9049136622540317
 30
-0.0000000000000133
 11
-63.3260822118573401
 21
59.9049136622540317
 31
-0.0000000000000133
210
0.0
220
1.0
230
-0.0000000000000002
  0
LINE
  5
334E
  8
0
  6
AUSGEZOGEN
 62
     1
 10
-54.3578720118440515
 20
61.4049136622540317
 30
-0.0000000000000136
 11
-63.3260822118573401
 21
61.4049136622540317
 31
-0.0000000000000136
210
0.0
220
1.0
230
-0.0000000000000002
  0
LINE
  5
334F
  8
0
  6
AUSGEZOGEN
 62
     1
 10
-54.3578720118440515
 20
59.9049136622540317
 30
-0.0000000000000133
 11
-63.3260822118573401
 21
59.9049136622540317
 31
-0.0000000000000133
210
0.0
220
1.0
230
-0.0000000000000002
  0
LINE
  5
3350
  8
0
  6
AUSGEZOGEN
 62
     1
 10
-54.3578720118440586
 20
61.4049136622540317
 30
-0.0000000000000136
 11
-54.0938426602832507
 21
61.4049136622540317
 31
-0.0000000000000136
210
0.0
220
1.0
230
-0.0000000000000002
  0
LINE
  5
3351
  8
0
  6
AUSGEZOGEN
 62
     1
 10
-54.3578720118440586
 20
59.9049136622540317
 30
-0.0000000000000133
 11
-54.0938426602832507
 21
59.9049136622540317
 31
-0.0000000000000133
210
0.0
220
1.0
230
-0.0000000000000002
  0
LINE
  5
3352
  8
0
  6
AUSGEZOGEN
 62
     1
 10
-54.0938426602832578
 20
61.4049136622540317
 30
-0.0000000000000136
 11
-49.7604882034382285
 21
61.4049136622540317
 31
-0.0000000000000136
210
0.0
220
1.0
230
-0.0000000000000002
  0
LINE
  5
3353
  8
0
  6
AUSGEZOGEN
 62
     1
 10
-54.0938426602832578
 20
59.9049136622540317
 30
-0.0000000000000133
 11
-49.7604882034382285
 21
59.9049136622540317
 31
-0.0000000000000133
210
0.0
220
1.0
230
-0.0000000000000002
  0
LINE
  5
3354
  8
0
  6
AUSGEZOGEN
 62
     1
 10
-49.7604882034382285
 20
61.4049136622540317
 30
-0.0000000000000136
 11
-48.9270402934532811
 21
61.4049136622540317
 31
-0.0000000000000136
210
0.0
220
1.0
230
-0.0000000000000002
  0
LINE
  5
3355
  8
0
  6
AUSGEZOGEN
 62
     1
 10
-49.7604882034382285
 20
59.9049136622540317
 30
-0.0000000000000133
 11
-48.9270402934532811
 21
59.9049136622540317
 31
-0.0000000000000133
210
0.0
220
1.0
230
-0.0000000000000002
  0
LINE
  5
3356
  8
0
  6
AUSGEZOGEN
 62
     1
 10
-39.2441537424896865
 20
61.4049136622540317
 30
-0.0000000000000136
 11
-48.9270402934532811
 21
61.4049136622540317
 31
-0.0000000000000136
210
0.0
220
1.0
230
-0.0000000000000002
  0
LINE
  5
3357
  8
0
  6
AUSGEZOGEN
 62
     1
 10
-39.2441537424896865
 20
59.9049136622540317
 30
-0.0000000000000133
 11
-48.9270402934532811
 21
59.9049136622540317
 31
-0.0000000000000133
210
0.0
220
1.0
230
-0.0000000000000002
  0
LINE
  5
3358
  8
0
  6
AUSGEZOGEN
 62
     1
 10
-38.1000309368543526
 20
61.4049136622540317
 30
-0.0000000000000136
 11
-39.2441537424896794
 21
61.4049136622540317
 31
-0.0000000000000136
210
0.0
220
1.0
230
-0.0000000000000002
  0
LINE
  5
3359
  8
0
  6
AUSGEZOGEN
 62
     1
 10
-38.1000309368543526
 20
59.9049136622540317
 30
-0.0000000000000133
 11
-39.2441537424896794
 21
59.9049136622540317
 31
-0.0000000000000133
210
0.0
220
1.0
230
-0.0000000000000002
  0
LINE
  5
335A
  8
0
  6
AUSGEZOGEN
 62
     1
 10
-36.5664123697538912
 20
61.4049136622540388
 30
-0.0000000000000136
 11
-38.1000309368543526
 21
61.4049136622540388
 31
-0.0000000000000136
210
0.0
220
1.0
230
-0.0000000000000002
  0
LINE
  5
335B
  8
0
  6
AUSGEZOGEN
 62
     1
 10
-36.5664123697538912
 20
59.9049136622540388
 30
-0.0000000000000133
 11
-38.1000309368543526
 21
59.9049136622540388
 31
-0.0000000000000133
210
0.0
220
1.0
230
-0.0000000000000002
  0
LINE
  5
335C
  8
0
  6
AUSGEZOGEN
 62
     1
 10
-36.5664123697538983
 20
61.4049136622540388
 30
-0.0000000000000136
 11
-36.0694650502506988
 21
61.4049136622540388
 31
-0.0000000000000136
210
0.0
220
1.0
230
-0.0000000000000002
  0
LINE
  5
335D
  8
0
  6
AUSGEZOGEN
 62
     1
 10
-36.5664123697538983
 20
59.9049136622540388
 30
-0.0000000000000133
 11
-36.0694650502506988
 21
59.9049136622540388
 31
-0.0000000000000133
210
0.0
220
1.0
230
-0.0000000000000002
  0
LINE
  5
335E
  8
0
  6
AUSGEZOGEN
 62
     1
 10
-36.0694650502506988
 20
61.4049136622540317
 30
-0.0000000000000136
 11
-30.6091198868359093
 21
61.4049136622540317
 31
-0.0000000000000136
210
0.0
220
1.0
230
-0.0000000000000002
  0
LINE
  5
335F
  8
0
  6
AUSGEZOGEN
 62
     1
 10
-36.0694650502506988
 20
59.9049136622540317
 30
-0.0000000000000133
 11
-30.6091198868359093
 21
59.9049136622540317
 31
-0.0000000000000133
210
0.0
220
1.0
230
-0.0000000000000002
  0
LINE
  5
3360
  8
0
  6
AUSGEZOGEN
 62
     1
 10
-30.6091198868359093
 20
61.4049136622540388
 30
-0.0000000000000136
 11
-29.7386787763911116
 21
61.4049136622540388
 31
-0.0000000000000136
210
0.0
220
1.0
230
-0.0000000000000002
  0
LINE
  5
3361
  8
0
  6
AUSGEZOGEN
 62
     1
 10
-30.6091198868359093
 20
59.9049136622540388
 30
-0.0000000000000133
 11
-29.7386787763911116
 21
59.9049136622540388
 31
-0.0000000000000133
210
0.0
220
1.0
230
-0.0000000000000002
  0
LINE
  5
3362
  8
0
  6
AUSGEZOGEN
 62
     1
 10
-21.0036206256735909
 20
61.4049136622540388
 30
-0.0000000000000136
 11
-29.7386787763911116
 21
61.4049136622540388
 31
-0.0000000000000136
210
0.0
220
1.0
230
-0.0000000000000002
  0
LINE
  5
3363
  8
0
  6
AUSGEZOGEN
 62
     1
 10
-21.0036206256735909
 20
59.9049136622540388
 30
-0.0000000000000133
 11
-29.7386787763911116
 21
59.9049136622540388
 31
-0.0000000000000133
210
0.0
220
1.0
230
-0.0000000000000002
  0
LINE
  5
3364
  8
0
  6
AUSGEZOGEN
 62
     1
 10
-19.6586236017456599
 20
61.4049136622540388
 30
-0.0000000000000136
 11
-21.0036206256736016
 21
61.4049136622540388
 31
-0.0000000000000136
210
0.0
220
1.0
230
-0.0000000000000002
  0
LINE
  5
3365
  8
0
  6
AUSGEZOGEN
 62
     1
 10
-19.6586236017456599
 20
59.9049136622540388
 30
-0.0000000000000133
 11
-21.0036206256736016
 21
59.9049136622540388
 31
-0.0000000000000133
210
0.0
220
1.0
230
-0.0000000000000002
  0
LINE
  5
3366
  8
0
  6
AUSGEZOGEN
 62
     1
 10
-15.2078891711411703
 20
61.4049136622540388
 30
-0.0000000000000136
 11
-19.6586236017456599
 21
61.4049136622540388
 31
-0.0000000000000136
210
0.0
220
1.0
230
-0.0000000000000002
  0
LINE
  5
3367
  8
0
  6
AUSGEZOGEN
 62
     1
 10
-15.2078891711411703
 20
59.9049136622540388
 30
-0.0000000000000133
 11
-19.6586236017456599
 21
59.9049136622540388
 31
-0.0000000000000133
210
0.0
220
1.0
230
-0.0000000000000002
  0
LINE
  5
3368
  8
0
  6
AUSGEZOGEN
 62
     1
 10
-15.2078891711411597
 20
61.4049136622540388
 30
-0.0000000000000136
 11
-14.5143568903590694
 21
61.4049136622540388
 31
-0.0000000000000136
210
0.0
220
1.0
230
-0.0000000000000002
  0
LINE
  5
3369
  8
0
  6
AUSGEZOGEN
 62
     1
 10
-15.2078891711411597
 20
59.9049136622540388
 30
-0.0000000000000133
 11
-14.5143568903590694
 21
59.9049136622540388
 31
-0.0000000000000133
210
0.0
220
1.0
230
-0.0000000000000002
  0
LINE
  5
336A
  8
0
  6
AUSGEZOGEN
 62
     1
 10
-14.5143568903590694
 20
61.4049136622540317
 30
-0.0000000000000136
 11
-8.4615176494316415
 21
61.4049136622540317
 31
-0.0000000000000136
210
0.0
220
1.0
230
-0.0000000000000002
  0
LINE
  5
336B
  8
0
  6
AUSGEZOGEN
 62
     1
 10
-14.5143568903590694
 20
59.9049136622540317
 30
-0.0000000000000133
 11
-8.4615176494316415
 21
59.9049136622540317
 31
-0.0000000000000133
210
0.0
220
1.0
230
-0.0000000000000002
  0
LINE
  5
336C
  8
0
  6
AUSGEZOGEN
 62
     1
 10
-8.4615176494316398
 20
61.4049136622540388
 30
-0.0000000000000136
 11
-7.639288179137167
 21
61.4049136622540388
 31
-0.0000000000000136
210
0.0
220
1.0
230
-0.0000000000000002
  0
LINE
  5
336D
  8
0
  6
AUSGEZOGEN
 62
     1
 10
-8.4615176494316398
 20
59.9049136622540388
 30
-0.0000000000000133
 11
-7.639288179137167
 21
59.9049136622540388
 31
-0.0000000000000133
210
0.0
220
1.0
230
-0.0000000000000002
  0
LINE
  5
336E
  8
0
  6
AUSGEZOGEN
 62
     1
 10
-0.7071067811865533
 20
61.4049136622540388
 30
-0.0000000000000136
 11
-7.639288179137167
 21
61.4049136622540388
 31
-0.0000000000000136
210
0.0
220
1.0
230
-0.0000000000000002
  0
LINE
  5
336F
  8
0
  6
AUSGEZOGEN
 62
     1
 10
-0.7071067811865533
 20
59.9049136622540388
 30
-0.0000000000000133
 11
-7.639288179137167
 21
59.9049136622540388
 31
-0.0000000000000133
210
0.0
220
1.0
230
-0.0000000000000002
  0
LINE
  5
3370
  8
0
  6
AUSGEZOGEN
 62
     1
 10
0.7071067811865533
 20
61.4049136622540388
 30
-0.0000000000000136
 11
-0.7071067811865533
 21
61.4049136622540388
 31
-0.0000000000000136
210
0.0
220
1.0
230
-0.0000000000000002
  0
LINE
  5
3371
  8
0
  6
AUSGEZOGEN
 62
     1
 10
0.7071067811865533
 20
59.9049136622540388
 30
-0.0000000000000133
 11
-0.7071067811865533
 21
59.9049136622540388
 31
-0.0000000000000133
210
0.0
220
1.0
230
-0.0000000000000002
  0
LINE
  5
3372
  8
0
  6
AUSGEZOGEN
 62
     1
 10
7.6392881791372238
 20
61.4049136622540388
 30
-0.0000000000000136
 11
0.7071067811865533
 21
61.4049136622540388
 31
-0.0000000000000136
210
0.0
220
1.0
230
-0.0000000000000002
  0
LINE
  5
3373
  8
0
  6
AUSGEZOGEN
 62
     1
 10
7.6392881791372238
 20
59.9049136622540388
 30
-0.0000000000000133
 11
0.7071067811865533
 21
59.9049136622540388
 31
-0.0000000000000133
210
0.0
220
1.0
230
-0.0000000000000002
  0
LINE
  5
3374
  8
0
  6
AUSGEZOGEN
 62
     1
 10
7.6392881791372176
 20
61.4049136622540388
 30
-0.0000000000000136
 11
8.4615176494316984
 21
61.4049136622540388
 31
-0.0000000000000136
210
0.0
220
1.0
230
-0.0000000000000002
  0
LINE
  5
3375
  8
0
  6
AUSGEZOGEN
 62
     1
 10
7.6392881791372176
 20
59.9049136622540388
 30
-0.0000000000000133
 11
8.4615176494316984
 21
59.9049136622540388
 31
-0.0000000000000133
210
0.0
220
1.0
230
-0.0000000000000002
  0
LINE
  5
3376
  8
0
  6
AUSGEZOGEN
 62
     1
 10
8.4615176494316984
 20
61.4049136622540317
 30
-0.0000000000000136
 11
14.5143568903591191
 21
61.4049136622540317
 31
-0.0000000000000136
210
0.0
220
1.0
230
-0.0000000000000002
  0
LINE
  5
3377
  8
0
  6
AUSGEZOGEN
 62
     1
 10
8.4615176494316984
 20
59.9049136622540317
 30
-0.0000000000000133
 11
14.5143568903591191
 21
59.9049136622540317
 31
-0.0000000000000133
210
0.0
220
1.0
230
-0.0000000000000002
  0
LINE
  5
3378
  8
0
  6
AUSGEZOGEN
 62
     1
 10
14.5143568903591191
 20
61.4049136622540388
 30
-0.0000000000000136
 11
15.2078891711412894
 21
61.4049136622540388
 31
-0.0000000000000136
210
0.0
220
1.0
230
-0.0000000000000002
  0
LINE
  5
3379
  8
0
  6
AUSGEZOGEN
 62
     1
 10
14.5143568903591191
 20
59.9049136622540388
 30
-0.0000000000000133
 11
15.2078891711412894
 21
59.9049136622540388
 31
-0.0000000000000133
210
0.0
220
1.0
230
-0.0000000000000002
  0
LINE
  5
337A
  8
0
  6
AUSGEZOGEN
 62
     1
 10
19.6586236017456599
 20
61.4049136622540388
 30
-0.0000000000000136
 11
15.2078891711412894
 21
61.4049136622540388
 31
-0.0000000000000136
210
0.0
220
1.0
230
-0.0000000000000002
  0
LINE
  5
337B
  8
0
  6
AUSGEZOGEN
 62
     1
 10
19.6586236017456599
 20
59.9049136622540388
 30
-0.0000000000000133
 11
15.2078891711412894
 21
59.9049136622540388
 31
-0.0000000000000133
210
0.0
220
1.0
230
-0.0000000000000002
  0
LINE
  5
337C
  8
0
  6
AUSGEZOGEN
 62
     1
 10
21.0036206256735909
 20
61.4049136622540388
 30
-0.0000000000000136
 11
19.6586236017457807
 21
61.4049136622540388
 31
-0.0000000000000136
210
0.0
220
1.0
230
-0.0000000000000002
  0
LINE
  5
337D
  8
0
  6
AUSGEZOGEN
 62
     1
 10
21.0036206256735909
 20
59.9049136622540388
 30
-0.0000000000000133
 11
19.6586236017457807
 21
59.9049136622540388
 31
-0.0000000000000133
210
0.0
220
1.0
230
-0.0000000000000002
  0
LINE
  5
337E
  8
0
  6
AUSGEZOGEN
 62
     1
 10
54.357872011844087
 20
61.4049136622540317
 30
-0.0000000000000136
 11
54.357872011844087
 21
59.9049136622540317
 31
-0.0000000000000133
210
0.0
220
1.0
230
-0.0000000000000002
  0
LINE
  5
337F
  8
0
  6
AUSGEZOGEN
 62
     1
 10
66.913979715855433
 20
61.4049136622540317
 30
-0.0000000000000136
 11
66.913979715855433
 21
59.9049136622540317
 31
-0.0000000000000133
210
0.0
220
1.0
230
-0.0000000000000002
  0
LINE
  5
3380
  8
0
  6
AUSGEZOGEN
 62
     1
 10
73.0179678355776218
 20
61.4049136622540317
 30
-0.0000000000000136
 11
73.0179678355776218
 21
59.9049136622540317
 31
-0.0000000000000133
210
0.0
220
1.0
230
-0.0000000000000002
  0
LINE
  5
3381
  8
0
  6
AUSGEZOGEN
 62
     1
 10
-73.0179678355775081
 20
61.4049136622540317
 30
-0.0000000000000136
 11
-73.0179678355775081
 21
59.9049136622540317
 31
-0.0000000000000133
210
0.0
220
1.0
230
-0.0000000000000002
  0
LINE
  5
3382
  8
0
  6
AUSGEZOGEN
 62
     1
 10
-66.9139797158553193
 20
61.4049136622540317
 30
-0.0000000000000136
 11
-66.9139797158553193
 21
59.9049136622540317
 31
-0.0000000000000133
210
0.0
220
1.0
230
-0.0000000000000002
  0
LINE
  5
3383
  8
0
  6
AUSGEZOGEN
 62
     1
 10
-54.3578720118440586
 20
61.4049136622540317
 30
-0.0000000000000136
 11
-54.3578720118440586
 21
59.9049136622540317
 31
-0.0000000000000133
210
0.0
220
1.0
230
-0.0000000000000002
  0
LINE
  5
3384
  8
0
  6
VERDECKT
 62
     3
 10
-15.2315462117283005
 20
132.0
 30
-0.0000000000000293
 11
-15.2315462117283005
 21
125.0
 31
-0.0000000000000278
210
0.0
220
1.0
230
-0.0000000000000002
  0
LINE
  5
3385
  8
0
  6
VERDECKT
 62
     3
 10
15.2315462117280696
 20
125.0
 30
-0.0000000000000278
 11
15.2315462117280696
 21
132.0
 31
-0.0000000000000293
210
0.0
220
1.0
230
-0.0000000000000002
  0
LINE
  5
3386
  8
0
  6
VERDECKT
 62
     3
 10
56.9999999999998934
 20
132.0
 30
-0.0000000000000293
 11
58.9999999999998792
 21
132.0
 31
-0.0000000000000293
210
0.0
220
1.0
230
-0.0000000000000002
  0
LINE
  5
3387
  8
0
  6
VERDECKT
 62
     3
 10
56.9999999999998792
 20
132.0
 30
-0.0000000000000293
 11
56.9999999999998792
 21
125.0
 31
-0.0000000000000278
210
0.0
220
1.0
230
-0.0000000000000002
  0
LINE
  5
3388
  8
0
  6
VERDECKT
 62
     3
 10
58.9999999999998792
 20
125.0
 30
-0.0000000000000278
 11
56.9999999999998792
 21
125.0
 31
-0.0000000000000278
210
0.0
220
1.0
230
-0.0000000000000002
  0
LINE
  5
3389
  8
0
  6
VERDECKT
 62
     3
 10
-59.0000000000001208
 20
132.0
 30
-0.0000000000000293
 11
-57.0000000000001208
 21
132.0
 31
-0.0000000000000293
210
0.0
220
1.0
230
-0.0000000000000002
  0
LINE
  5
338A
  8
0
  6
VERDECKT
 62
     3
 10
-57.0000000000001066
 20
125.0
 30
-0.0000000000000278
 11
-59.0000000000001066
 21
125.0
 31
-0.0000000000000278
210
0.0
220
1.0
230
-0.0000000000000002
  0
LINE
  5
338B
  8
0
  6
VERDECKT
 62
     3
 10
-57.0000000000001066
 20
125.0
 30
-0.0000000000000278
 11
-57.0000000000001066
 21
132.0
 31
-0.0000000000000293
210
0.0
220
1.0
230
-0.0000000000000002
  0
LINE
  5
338C
  8
0
  6
VERDECKT
 62
     3
 10
61.9999999999999929
 20
12.5314222700815705
 30
-0.0000000000000028
 11
62.0000000000000071
 21
0.000000000000048
 31
0.0
210
0.0
220
1.0
230
-0.0000000000000002
  0
LINE
  5
338D
  8
0
  6
VERDECKT
 62
     3
 10
-62.0000000000000071
 20
12.5314222700815208
 30
-0.0000000000000028
 11
-61.9999999999999929
 21
-0.0000000000000568
 31
0.0
210
0.0
220
1.0
230
-0.0000000000000002
  0
ARC
  5
338E
  8
0
  6
VERDECKT
 62
     3
 10
47.9999999999979607
 20
12.5314222700811406
 30
0.0
 40
14.0000000000020197
210
0.0
220
-0.0000000000000002
230
-1.0
 50
0.0000000000015776
 51
19.9999999312692012
  0
ARC
  5
338F
  8
0
  6
VERDECKT
 62
     3
 10
-47.9999999999978968
 20
12.5314222700811602
 30
0.0
 40
14.0000000000020997
210
0.0
220
-0.0000000000000002
230
-1.0
 50
160.000000068730202
 51
179.9999999999982947
  0
LINE
  5
3390
  8
0
  6
VERDECKT
 62
     3
 10
52.7325810414072791
 20
40.462024411734042
 30
-0.000000000000009
 11
61.1556966967464675
 21
17.3197042608600711
 31
-0.0000000000000038
210
0.0
220
1.0
230
-0.0000000000000002
  0
LINE
  5
3391
  8
0
  6
VERDECKT
 62
     3
 10
-52.7325810414073004
 20
40.4620244117339709
 30
-0.000000000000009
 11
-61.1556966967464817
 21
17.3197042608599006
 31
-0.0000000000000038
210
0.0
220
1.0
230
-0.0000000000000002
  0
ARC
  5
3392
  8
0
  6
VERDECKT
 62
     3
 10
67.767662980545353
 20
45.9343466869093575
 30
0.0
 40
15.9999999999992806
210
0.0
220
-0.0000000000000002
230
-1.0
 50
160.0000002955522973
 51
199.9999999312719012
  0
ARC
  5
3393
  8
0
  6
VERDECKT
 62
     3
 10
-67.7676629805454098
 20
45.9343466869094499
 30
0.0
 40
15.9999999999993392
210
0.0
220
-0.0000000000000002
230
-1.0
 50
340.0000000687281272
 51
19.999999704447351
  0
LINE
  5
3394
  8
0
  6
VERDECKT
 62
     3
 10
-52.7325810197432716
 20
51.4066689025634176
 30
-0.0000000000000114
 11
-58.1556967157026108
 21
66.3065570594452964
 31
-0.0000000000000147
210
0.0
220
1.0
230
-0.0000000000000002
  0
LINE
  5
3395
  8
0
  6
VERDECKT
 62
     3
 10
52.7325810197432716
 20
51.4066689025634602
 30
-0.0000000000000114
 11
58.1556967157025824
 21
66.3065570594453106
 31
-0.0000000000000147
210
0.0
220
1.0
230
-0.0000000000000002
  0
ARC
  5
3396
  8
0
  6
VERDECKT
 62
     3
 10
44.9999999999993321
 20
71.0948389981424924
 30
0.0
 40
14.0000000000007194
210
0.0
220
-0.0000000000000002
230
-1.0
 50
340.0000002955546847
 51
359.9999999999998863
  0
ARC
  5
3397
  8
0
  6
VERDECKT
 62
     3
 10
-44.9999999999988987
 20
71.0948389981426203
 30
0.0
 40
14.0000000000011493
210
0.0
220
-0.0000000000000002
230
-1.0
 50
180.0
 51
199.9999997044450026
  0
LINE
  5
3398
  8
0
  6
VERDECKT
 62
     3
 10
-57.9540446554565989
 20
59.9049136622540317
 30
-0.0000000000000133
 11
-58.4999999989746229
 21
61.4049136622540317
 31
-0.0000000000000136
210
0.0
220
1.0
230
-0.0000000000000002
  0
LINE
  5
3399
  8
0
  6
VERDECKT
 62
     3
 10
57.9540446554565634
 20
59.9049136622540317
 30
-0.0000000000000133
 11
58.4999999989745874
 21
61.4049136622540388
 31
-0.0000000000000136
210
0.0
220
1.0
230
-0.0000000000000002
  0
LINE
  5
339A
  8
0
  6
VERDECKT
 62
     3
 10
58.9999999999998792
 20
140.0
 30
-0.0000000000000311
 11
58.9999999999998792
 21
132.0000000000001137
 31
-0.0000000000000293
210
0.0
220
1.0
230
-0.0000000000000002
  0
LINE
  5
339B
  8
0
  6
VERDECKT
 62
     3
 10
58.9999999999998792
 20
125.0000000000000995
 30
-0.0000000000000278
 11
58.9999999999998792
 21
71.0948389981426203
 31
-0.0000000000000158
210
0.0
220
1.0
230
-0.0000000000000002
  0
LINE
  5
339C
  8
0
  6
VERDECKT
 62
     3
 10
-59.0000000000001066
 20
140.0
 30
-0.0000000000000311
 11
-59.0000000000001066
 21
132.0000000000001137
 31
-0.0000000000000293
210
0.0
220
1.0
230
-0.0000000000000002
  0
LINE
  5
339D
  8
0
  6
VERDECKT
 62
     3
 10
-59.0000000000001066
 20
125.0000000000000995
 30
-0.0000000000000278
 11
-59.0000000000001066
 21
71.094838998142464
 31
-0.0000000000000158
210
0.0
220
1.0
230
-0.0000000000000002
  0
LINE
  5
339E
  8
0
  6
VERDECKT
 62
     3
 10
24.6914264549234304
 20
132.0
 30
-0.0000000000000293
 11
17.6914264549234304
 21
127.0
 31
-0.0000000000000282
210
0.0
220
1.0
230
-0.0000000000000002
  0
LINE
  5
339F
  8
0
  6
VERDECKT
 62
     3
 10
20.2895026662765794
 20
127.0
 30
-0.0000000000000282
 11
27.2895026662765794
 21
132.0
 31
-0.0000000000000293
210
0.0
220
1.0
230
-0.0000000000000002
  0
LINE
  5
33A0
  8
0
  6
VERDECKT
 62
     3
 10
20.2895026662765794
 20
127.0
 30
-0.0000000000000282
 11
17.6914264549233202
 21
127.0
 31
-0.0000000000000282
210
0.0
220
1.0
230
-0.0000000000000002
  0
LINE
  5
33A1
  8
0
  6
VERDECKT
 62
     3
 10
17.6914264549233202
 20
127.0
 30
-0.0000000000000282
 11
14.1914264549233096
 21
127.0000000000000995
 31
-0.0000000000000282
210
0.0
220
1.0
230
-0.0000000000000002
  0
LINE
  5
33A2
  8
0
  6
VERDECKT
 62
     3
 10
14.1914264549234304
 20
127.0000000000000995
 30
-0.0000000000000282
 11
14.1914264549234304
 21
119.8000000000001961
 31
-0.0000000000000266
210
0.0
220
1.0
230
-0.0000000000000002
  0
LINE
  5
33A3
  8
0
  6
VERDECKT
 62
     3
 10
16.7895026662765687
 20
119.8000000000000966
 30
-0.0000000000000266
 11
16.7895026662765687
 21
127.0
 31
-0.0000000000000282
210
0.0
220
1.0
230
-0.0000000000000002
  0
LINE
  5
33A4
  8
0
  6
VERDECKT
 62
     3
 10
14.1914264549233096
 20
119.8000000000001961
 30
-0.0000000000000266
 11
17.6914264549234304
 21
119.8000000000001961
 31
-0.0000000000000266
210
0.0
220
1.0
230
-0.0000000000000002
  0
LINE
  5
33A5
  8
0
  6
VERDECKT
 62
     3
 10
20.2895026662766895
 20
119.8000000000001961
 30
-0.0000000000000266
 11
17.6914264549234304
 21
119.8000000000001961
 31
-0.0000000000000266
210
0.0
220
1.0
230
-0.0000000000000002
  0
LINE
  5
33A6
  8
0
  6
VERDECKT
 62
     3
 10
17.6914264549231994
 20
119.8000000000002956
 30
-0.0000000000000266
 11
24.6914264549232101
 21
114.8000000000002956
 31
-0.0000000000000255
210
0.0
220
1.0
230
-0.0000000000000002
  0
LINE
  5
33A7
  8
0
  6
VERDECKT
 62
     3
 10
27.2895026662765794
 20
114.8000000000000966
 30
-0.0000000000000255
 11
20.2895026662765794
 21
119.8000000000000966
 31
-0.0000000000000266
210
0.0
220
1.0
230
-0.0000000000000002
  0
LINE
  5
33A8
  8
0
  6
VERDECKT
 62
     3
 10
24.6914264549232101
 20
114.8000000000001961
 30
-0.0000000000000255
 11
28.1914264549231994
 21
114.8000000000000966
 31
-0.0000000000000255
210
0.0
220
1.0
230
-0.0000000000000002
  0
LINE
  5
33A9
  8
0
  6
VERDECKT
 62
     3
 10
30.7895026662764586
 20
114.8000000000000966
 30
-0.0000000000000255
 11
28.1914264549231994
 21
114.8000000000000966
 31
-0.0000000000000255
210
0.0
220
1.0
230
-0.0000000000000002
  0
LINE
  5
33AA
  8
0
  6
VERDECKT
 62
     3
 10
28.1914264549231994
 20
114.7999999999999972
 30
-0.0000000000000255
 11
28.1914264549231994
 21
117.2999999999999972
 31
-0.000000000000026
210
0.0
220
1.0
230
-0.0000000000000002
  0
LINE
  5
33AB
  8
0
  6
VERDECKT
 62
     3
 10
30.7895026662764586
 20
117.3000000000000966
 30
-0.000000000000026
 11
30.7895026662764586
 21
114.8000000000000966
 31
-0.0000000000000255
210
0.0
220
1.0
230
-0.0000000000000002
  0
LINE
  5
33AC
  8
0
  6
VERDECKT
 62
     3
 10
30.7895026662764586
 20
117.3000000000000966
 30
-0.000000000000026
 11
28.1914264549231994
 21
117.3000000000000966
 31
-0.000000000000026
210
0.0
220
1.0
230
-0.0000000000000002
  0
LINE
  5
33AD
  8
0
  6
VERDECKT
 62
     3
 10
28.1914264549231994
 20
117.3000000000000966
 30
-0.000000000000026
 11
27.1914264549232101
 21
118.4547005383793987
 31
-0.0000000000000263
210
0.0
220
1.0
230
-0.0000000000000002
  0
LINE
  5
33AE
  8
0
  6
VERDECKT
 62
     3
 10
29.7895026662765794
 20
118.4547005383793987
 30
-0.0000000000000263
 11
30.7895026662765794
 21
117.3000000000000966
 31
-0.000000000000026
210
0.0
220
1.0
230
-0.0000000000000002
  0
LINE
  5
33AF
  8
0
  6
VERDECKT
 62
     3
 10
29.7895026662765794
 20
118.4547005383793987
 30
-0.0000000000000263
 11
27.1914264549233202
 21
118.4547005383793987
 31
-0.0000000000000263
210
0.0
220
1.0
230
-0.0000000000000002
  0
LINE
  5
33B0
  8
0
  6
VERDECKT
 62
     3
 10
27.1914264549232101
 20
118.4547005383793987
 30
-0.0000000000000263
 11
27.1914264549232101
 21
128.3452994616208116
 31
-0.0000000000000285
210
0.0
220
1.0
230
-0.0000000000000002
  0
LINE
  5
33B1
  8
0
  6
VERDECKT
 62
     3
 10
29.7895026662765794
 20
128.3452994616206979
 30
-0.0000000000000285
 11
29.7895026662765794
 21
118.4547005383792992
 31
-0.0000000000000263
210
0.0
220
1.0
230
-0.0000000000000002
  0
LINE
  5
33B2
  8
0
  6
VERDECKT
 62
     3
 10
29.7895026662765794
 20
128.3452994616206979
 30
-0.0000000000000285
 11
27.1914264549233202
 21
128.3452994616206979
 31
-0.0000000000000285
210
0.0
220
1.0
230
-0.0000000000000002
  0
LINE
  5
33B3
  8
0
  6
VERDECKT
 62
     3
 10
27.1914264549232101
 20
128.3452994616208116
 30
-0.0000000000000285
 11
28.1914264549231994
 21
129.5000000000001137
 31
-0.0000000000000288
210
0.0
220
1.0
230
-0.0000000000000002
  0
LINE
  5
33B4
  8
0
  6
VERDECKT
 62
     3
 10
30.7895026662765794
 20
129.5
 30
-0.0000000000000288
 11
29.7895026662765794
 21
128.3452994616206979
 31
-0.0000000000000285
210
0.0
220
1.0
230
-0.0000000000000002
  0
LINE
  5
33B5
  8
0
  6
VERDECKT
 62
     3
 10
30.7895026662765794
 20
129.5
 30
-0.0000000000000288
 11
28.1914264549233202
 21
129.5
 31
-0.0000000000000288
210
0.0
220
1.0
230
-0.0000000000000002
  0
LINE
  5
33B6
  8
0
  6
VERDECKT
 62
     3
 10
28.1914264549231994
 20
129.5000000000001137
 30
-0.0000000000000288
 11
28.1914264549231994
 21
132.0000000000001137
 31
-0.0000000000000293
210
0.0
220
1.0
230
-0.0000000000000002
  0
LINE
  5
33B7
  8
0
  6
VERDECKT
 62
     3
 10
30.7895026662765794
 20
132.0
 30
-0.0000000000000293
 11
30.7895026662765794
 21
129.5
 31
-0.0000000000000288
210
0.0
220
1.0
230
-0.0000000000000002
  0
LINE
  5
33B8
  8
0
  6
VERDECKT
 62
     3
 10
30.7895026662765794
 20
132.0
 30
-0.0000000000000293
 11
28.1914264549233202
 21
132.0
 31
-0.0000000000000293
210
0.0
220
1.0
230
-0.0000000000000002
  0
LINE
  5
33B9
  8
0
  6
VERDECKT
 62
     3
 10
28.1914264549231994
 20
132.0000000000001137
 30
-0.0000000000000293
 11
24.6914264549232101
 21
132.0
 31
-0.0000000000000293
210
0.0
220
1.0
230
-0.0000000000000002
  0
LINE
  5
33BA
  8
0
  6
VERDECKT
 62
     3
 10
-57.8686291501016967
 20
79.9999999999999574
 30
-0.0000000000000178
 11
57.8686291501014622
 21
79.9999999999999574
 31
-0.0000000000000178
210
0.0
220
1.0
230
-0.0000000000000002
  0
LINE
  5
33BB
  8
0
  6
VERDECKT
 62
     3
 10
-59.0000000000001066
 20
78.8686291501013699
 30
-0.0000000000000175
 11
58.9999999999998792
 21
78.868629150101583
 31
-0.0000000000000175
210
0.0
220
1.0
230
-0.0000000000000002
  0
LINE
  5
33BC
  8
0
  6
VERDECKT
 62
     3
 10
-35.8875793553185076
 20
1.9999999999998861
 30
-0.0000000000000004
 11
35.8875793553185076
 21
1.9999999999999429
 31
-0.0000000000000004
210
0.0
220
1.0
230
-0.0000000000000002
  0
LINE
  5
33BD
  8
0
  6
VERDECKT
 62
     3
 10
-34.28146761524917
 20
1.999999999999861
 30
-0.0000000000000004
 11
-34.8999999999997783
 21
9.0698575086504452
 31
-0.000000000000002
210
0.0
220
1.0
230
-0.0000000000000002
  0
LINE
  5
33BE
  8
0
  6
VERDECKT
 62
     3
 10
34.28146761524917
 20
1.9999999999999161
 30
-0.0000000000000004
 11
34.8999999999997712
 21
9.0698575086505056
 31
-0.000000000000002
210
0.0
220
1.0
230
-0.0000000000000002
  0
LINE
  5
33BF
  8
0
  6
VERDECKT
 62
     3
 10
34.8999999999998494
 20
51.3980664016244617
 30
-0.0000000000000114
 11
34.8999999999998778
 21
9.0698575086505002
 31
-0.000000000000002
210
0.0
220
1.0
230
-0.0000000000000002
  0
LINE
  5
33C0
  8
0
  6
VERDECKT
 62
     3
 10
-34.8999999999998778
 20
51.3980664016243693
 30
-0.0000000000000114
 11
-34.8999999999998494
 21
9.0698575086504452
 31
-0.000000000000002
210
0.0
220
1.0
230
-0.0000000000000002
  0
ARC
  5
33C1
  8
0
  6
VERDECKT
 62
     3
 10
48.5000000000001421
 20
51.3980664016241207
 30
0.0
 40
13.6000000000002004
210
0.0
220
-0.0000000000000002
230
-1.0
 50
134.9999999999994031
 51
179.9999999999988916
  0
ARC
  5
33C2
  8
0
  6
VERDECKT
 62
     3
 10
-48.5000000000001918
 20
51.3980664016241917
 30
0.0
 40
13.6000000000002608
210
0.0
220
-0.0000000000000002
230
-1.0
 50
0.000000000001145
 51
45.0000000000000782
  0
LINE
  5
33C3
  8
0
  6
VERDECKT
 62
     3
 10
-38.8833477758630792
 20
61.014718625761347
 30
-0.0000000000000135
 11
-57.8686291501016612
 21
79.9999999999998295
 31
-0.0000000000000178
210
0.0
220
1.0
230
-0.0000000000000002
  0
LINE
  5
33C4
  8
0
  6
VERDECKT
 62
     3
 10
38.8833477758630508
 20
61.0147186257613612
 30
-0.0000000000000135
 11
57.8686291501015688
 21
79.9999999999998437
 31
-0.0000000000000178
210
0.0
220
1.0
230
-0.0000000000000002
  0
LINE
  5
33C5
  8
0
  6
VERDECKT
 62
     3
 10
57.8686291501013983
 20
79.9999999999998863
 30
-0.0000000000000178
 11
58.9999999999998792
 21
78.8686291501015262
 31
-0.0000000000000175
210
0.0
220
1.0
230
-0.0000000000000002
  0
LINE
  5
33C6
  8
0
  6
VERDECKT
 62
     3
 10
-57.8686291501016186
 20
79.9999999999998295
 30
-0.0000000000000178
 11
-59.0000000000000924
 21
78.8686291501014551
 31
-0.0000000000000175
210
0.0
220
1.0
230
-0.0000000000000002
  0
LINE
  5
33C7
  8
0
  6
VERDECKT
 62
     3
 10
-40.014718625761347
 20
59.8833477758627382
 30
-0.0000000000000133
 11
-59.0000000000001066
 21
78.8686291501014836
 31
-0.0000000000000175
210
0.0
220
1.0
230
-0.0000000000000002
  0
LINE
  5
33C8
  8
0
  6
VERDECKT
 62
     3
 10
40.0147186257613399
 20
59.8833477758627808
 30
-0.0000000000000133
 11
59.0000000000000213
 21
78.868629150101512
 31
-0.0000000000000175
210
0.0
220
1.0
230
-0.0000000000000002
  0
ARC
  5
33C9
  8
0
  6
VERDECKT
 62
     3
 10
48.4999999999998721
 20
51.3980664016242912
 30
0.0
 40
11.9999999999999094
210
0.0
220
-0.0000000000000002
230
-1.0
 50
135.000000000000199
 51
180.0000000000001137
  0
ARC
  5
33CA
  8
0
  6
VERDECKT
 62
     3
 10
-48.4999999999999005
 20
51.3980664016243622
 30
0.0
 40
11.9999999999999396
210
0.0
220
-0.0000000000000002
230
-1.0
 50
359.9999999999997726
 51
44.9999999999995524
  0
LINE
  5
33CB
  8
0
  6
VERDECKT
 62
     3
 10
36.4999999999998721
 20
51.398066401624348
 30
-0.0000000000000114
 11
36.4999999999999005
 21
8.9999999999973301
 31
-0.000000000000002
210
0.0
220
1.0
230
-0.0000000000000002
  0
LINE
  5
33CC
  8
0
  6
VERDECKT
 62
     3
 10
-36.4999999999999005
 20
51.3980664016242628
 30
-0.0000000000000114
 11
-36.4999999999998721
 21
8.9999999999972733
 31
-0.000000000000002
210
0.0
220
1.0
230
-0.0000000000000002
  0
LINE
  5
33CD
  8
0
  6
VERDECKT
 62
     3
 10
-35.8875793553185076
 20
1.999999999999887
 30
-0.0000000000000004
 11
-36.4999999999997726
 21
8.9999999999972733
 31
-0.000000000000002
210
0.0
220
1.0
230
-0.0000000000000002
  0
LINE
  5
33CE
  8
0
  6
VERDECKT
 62
     3
 10
35.8875793553185218
 20
1.9999999999999429
 30
-0.0000000000000004
 11
36.4999999999997726
 21
8.9999999999973301
 31
-0.000000000000002
210
0.0
220
1.0
230
-0.0000000000000002
  0
LINE
  5
33CF
  8
0
  6
VERDECKT
 62
     3
 10
58.5000000000000497
 20
61.4049136622540175
 30
-0.0000000000000136
 11
58.5000000000000497
 21
59.9049136622540175
 31
-0.0000000000000133
210
0.0
220
1.0
230
-0.0000000000000002
  0
LINE
  5
33D0
  8
0
  6
VERDECKT
 62
     3
 10
-58.4999999999999432
 20
61.4049136622540175
 30
-0.0000000000000136
 11
-58.4999999999999432
 21
59.9049136622540175
 31
-0.0000000000000133
210
0.0
220
1.0
230
-0.0000000000000002
  0
LINE
  5
33D1
  8
0
  6
VERDECKT
 62
     3
 10
52.7996301259340015
 20
61.4049136622540317
 30
-0.0000000000000136
 11
52.7996301259340015
 21
59.9049136622540317
 31
-0.0000000000000133
210
0.0
220
1.0
230
-0.0000000000000002
  0
LINE
  5
33D2
  8
0
  6
VERDECKT
 62
     3
 10
62.2452583336277883
 20
61.4049136622540317
 30
-0.0000000000000136
 11
62.2452583336277883
 21
59.9049136622540317
 31
-0.0000000000000133
210
0.0
220
1.0
230
-0.0000000000000002
  0
LINE
  5
33D3
  8
0
  6
VERDECKT
 62
     3
 10
65.5000000000000426
 20
61.4049136622540175
 30
-0.0000000000000136
 11
65.5000000000000426
 21
59.9049136622540175
 31
-0.0000000000000133
210
0.0
220
1.0
230
-0.0000000000000002
  0
LINE
  5
33D4
  8
0
  6
VERDECKT
 62
     3
 10
-65.4999999999999289
 20
61.4049136622540175
 30
-0.0000000000000136
 11
-65.4999999999999289
 21
59.9049136622540175
 31
-0.0000000000000133
210
0.0
220
1.0
230
-0.0000000000000002
  0
LINE
  5
33D5
  8
0
  6
VERDECKT
 62
     3
 10
-62.2452583336277172
 20
61.4049136622540317
 30
-0.0000000000000136
 11
-62.2452583336277172
 21
59.9049136622540317
 31
-0.0000000000000133
210
0.0
220
1.0
230
-0.0000000000000002
  0
LINE
  5
33D6
  8
0
  6
VERDECKT
 62
     3
 10
-52.7996301259340228
 20
61.4049136622540317
 30
-0.0000000000000136
 11
-52.7996301259340228
 21
59.9049136622540317
 31
-0.0000000000000133
210
0.0
220
1.0
230
-0.0000000000000002
  0
ENDBLK
  5
33D8
  8
0
  0
BLOCK
  8
0
  2
A$C14136F0F
 70
     0
 10
0.0
 20
0.0
 30
0.0
  3
A$C14136F0F
  1

  0
LINE
  5
33DC
  8
0
  6
AUSGEZOGEN
 62
     1
 10
-15.2315462117279292
 20
-56.9999999999997797
 30
0.0
 11
15.2315462117276397
 21
-56.9999999999997797
 31
0.0000000000000068
  0
CIRCLE
  5
33DD
  8
0
  6
AUSGEZOGEN
 62
     1
 10
-0.0000000000000826
 20
0.0000000000000397
 30
0.0
 40
59.0
  0
LINE
  5
33DE
  8
0
  6
AUSGEZOGEN
 62
     1
 10
56.9999999999999218
 20
-15.2315462117275207
 30
0.0
 11
56.9999999999999218
 21
15.23154621172805
 31
0.0
  0
LINE
  5
33DF
  8
0
  6
AUSGEZOGEN
 62
     1
 10
-57.0000000000000924
 20
15.2315462117278795
 30
0.0
 11
-57.0000000000000924
 21
-15.2315462117276894
 31
0.0
  0
LINE
  5
33E0
  8
0
  6
AUSGEZOGEN
 62
     1
 10
15.2315462117275295
 20
57.0000000000001634
 30
0.0
 11
-15.2315462117280394
 21
57.0000000000001634
 31
-0.0000000000000068
  0
CIRCLE
  5
33E1
  8
0
  6
AUSGEZOGEN
 62
     1
 10
-0.0000000000000826
 20
0.0000000000000397
 30
0.0
 40
61.0
  0
LINE
  5
33E2
  8
0
  6
AUSGEZOGEN
 62
     1
 10
24.6914264549234588
 20
-45.7668051312775432
 30
0.0
 11
17.6914264549234588
 21
-33.6424494782954895
 31
-0.0000000000000018
  0
LINE
  5
33E3
  8
0
  6
AUSGEZOGEN
 62
     1
 10
27.2895026662766114
 20
-44.2668051312774793
 30
0.0
 11
24.6914264549233486
 21
-45.7668051312774722
 31
-0.0000000000000006
  0
LINE
  5
33E4
  8
0
  6
AUSGEZOGEN
 62
     1
 10
20.2895026662766007
 20
-32.1424494782954966
 30
0.0
 11
27.2895026662766114
 21
-44.2668051312775432
 31
0.0000000000000018
  0
LINE
  5
33E5
  8
0
  6
AUSGEZOGEN
 62
     1
 10
20.2895026662766007
 20
-32.1424494782954966
 30
0.0
 11
17.6914264549233415
 21
-33.6424494782954966
 31
-0.0000000000000006
  0
LINE
  5
33E6
  8
0
  6
AUSGEZOGEN
 62
     1
 10
17.6914264549233415
 20
-33.6424494782953971
 30
0.0
 11
14.1914264549233398
 21
-27.5802716518043312
 31
-0.0000000000000008
  0
LINE
  5
33E7
  8
0
  6
AUSGEZOGEN
 62
     1
 10
16.7895026662766007
 20
-26.0802716518043312
 30
0.0
 11
20.2895026662766007
 21
-32.1424494782953971
 31
0.0000000000000008
  0
LINE
  5
33E8
  8
0
  6
AUSGEZOGEN
 62
     1
 10
16.7895026662766007
 20
-26.0802716518043312
 30
0.0
 11
14.1914264549233398
 21
-27.5802716518043312
 31
-0.0000000000000006
  0
LINE
  5
33E9
  8
0
  6
AUSGEZOGEN
 62
     1
 10
30.7895026662766114
 20
-50.3289829577684174
 30
0.0
 11
28.1914264549233415
 21
-51.8289829577684102
 31
-0.0000000000000006
  0
LINE
  5
33EA
  8
0
  6
AUSGEZOGEN
 62
     1
 10
28.1914264549232314
 20
-51.8289829577684387
 30
0.0
 11
24.6914264549232314
 21
-45.7668051312773585
 31
-0.0000000000000008
  0
LINE
  5
33EB
  8
0
  6
AUSGEZOGEN
 62
     1
 10
27.2895026662766114
 20
-44.2668051312774793
 30
0.0
 11
30.7895026662766114
 21
-50.3289829577685524
 31
0.0000000000000008
  0
LINE
  5
33EC
  8
0
  6
AUSGEZOGEN
 62
     1
 10
24.6914264549234588
 20
45.7668051312776782
 30
0.0
 11
17.6914264549234588
 21
33.6424494782956316
 31
-0.0000000000000018
  0
LINE
  5
33ED
  8
0
  6
AUSGEZOGEN
 62
     1
 10
20.2895026662766007
 20
32.1424494782956316
 30
0.0
 11
17.6914264549233415
 21
33.6424494782956316
 31
-0.0000000000000006
  0
LINE
  5
33EE
  8
0
  6
AUSGEZOGEN
 62
     1
 10
20.2895026662766007
 20
32.1424494782956316
 30
0.0
 11
27.2895026662766114
 21
44.2668051312776711
 31
0.0000000000000018
  0
LINE
  5
33EF
  8
0
  6
AUSGEZOGEN
 62
     1
 10
27.2895026662766114
 20
44.2668051312775077
 30
0.0
 11
24.6914264549233486
 21
45.7668051312775006
 31
-0.0000000000000006
  0
LINE
  5
33F0
  8
0
  6
AUSGEZOGEN
 62
     1
 10
17.6914264549233415
 20
33.6424494782954184
 30
0.0
 11
14.1914264549233398
 21
27.5802716518043489
 31
-0.0000000000000008
  0
LINE
  5
33F1
  8
0
  6
AUSGEZOGEN
 62
     1
 10
16.7895026662766007
 20
26.0802716518043489
 30
0.0
 11
14.1914264549233398
 21
27.5802716518043489
 31
-0.0000000000000006
  0
LINE
  5
33F2
  8
0
  6
AUSGEZOGEN
 62
     1
 10
16.7895026662766007
 20
26.0802716518043489
 30
0.0
 11
20.2895026662766007
 21
32.1424494782954184
 31
0.0000000000000008
  0
LINE
  5
33F3
  8
0
  6
AUSGEZOGEN
 62
     1
 10
30.7895026662766114
 20
50.3289829577685595
 30
0.0
 11
28.1914264549233415
 21
51.8289829577685595
 31
-0.0000000000000006
  0
LINE
  5
33F4
  8
0
  6
AUSGEZOGEN
 62
     1
 10
28.1914264549232314
 20
51.8289829577685808
 30
0.0
 11
24.6914264549232314
 21
45.7668051312775006
 31
-0.0000000000000008
  0
LINE
  5
33F5
  8
0
  6
AUSGEZOGEN
 62
     1
 10
27.2895026662766114
 20
44.2668051312775077
 30
0.0
 11
30.7895026662766114
 21
50.3289829577685808
 31
0.0000000000000008
  0
ARC
  5
33F6
  8
0
  6
AUSGEZOGEN
 62
     1
 10
0.0000000000000004
 20
0.000000000000036
 30
0.0
 40
34.2814676152491984
 50
62.507801521420518
 51
180.0
  0
ARC
  5
33F7
  8
0
  6
AUSGEZOGEN
 62
     1
 10
0.0000000000000004
 20
0.0000000000000111
 30
0.0
 40
34.2814676152491913
 50
302.5078015214202765
 51
57.4921984785796667
  0
ARC
  5
33F8
  8
0
  6
AUSGEZOGEN
 62
     1
 10
0.0000000000000004
 20
0.0000000000000076
 30
0.0
 40
34.2814676152491913
 50
180.0
 51
297.4921984785793825
  0
ARC
  5
33F9
  8
0
  6
AUSGEZOGEN
 62
     1
 10
0.0000000000001251
 20
-0.0000000000000072
 30
0.0
 40
34.9000000000000412
 50
62.4633281249755825
 51
180.0
  0
ARC
  5
33FA
  8
0
  6
AUSGEZOGEN
 62
     1
 10
0.0000000000000114
 20
0.0000000000000159
 30
0.0
 40
34.8999999999999275
 50
302.4633281249751917
 51
57.5366718750248225
  0
ARC
  5
33FB
  8
0
  6
AUSGEZOGEN
 62
     1
 10
0.0000000000001251
 20
0.0000000000000426
 30
0.0
 40
34.8999999999998991
 50
180.0
 51
297.5366718750245241
  0
ARC
  5
33FC
  8
0
  6
AUSGEZOGEN
 62
     1
 10
0.0000000000000178
 20
-0.0000000000000871
 30
0.0
 40
57.8686291501017109
 50
99.9398075794208154
 51
170.060192420578403
  0
ARC
  5
33FD
  8
0
  6
AUSGEZOGEN
 62
     1
 10
-0.000000000000437
 20
-0.0000000000011174
 30
0.0
 40
57.8686291501027483
 50
61.4853176498724565
 51
80.0601924205792557
  0
ARC
  5
33FE
  8
0
  6
AUSGEZOGEN
 62
     1
 10
-0.0000000000002096
 20
-0.0000000000000836
 30
0.0
 40
57.8686291501017109
 50
9.9398075794215117
 51
58.5146823501278135
  0
ARC
  5
33FF
  8
0
  6
AUSGEZOGEN
 62
     1
 10
0.0000000000002451
 20
-0.0000000000002221
 30
0.0
 40
57.8686291501011993
 50
301.4853176498721155
 51
350.0601924205786872
  0
ARC
  5
3400
  8
0
  6
AUSGEZOGEN
 62
     1
 10
0.0000000000003588
 20
-0.0000000000015224
 30
0.0
 40
57.8686291501000127
 50
279.9398075794223928
 51
298.5146823501281119
  0
ARC
  5
3401
  8
0
  6
AUSGEZOGEN
 62
     1
 10
-0.0000000000000959
 20
0.0000000000000408
 30
0.0
 40
57.8686291501015972
 50
189.9398075794215117
 51
260.0601924205773798
  0
LINE
  5
3402
  8
0
  6
AUSGEZOGEN
 62
     1
 10
29.7386787763912395
 20
-66.8049862400437036
 30
0.0000000000000071
 11
21.0036206256736087
 21
-62.3542518094393401
 31
0.0000000000000052
  0
ARC
  5
3403
  8
0
  6
AUSGEZOGEN
 62
     1
 10
30.1926692761308111
 20
-65.9139797158551346
 30
0.0000000000000071
 40
1.000000000000181
 50
243.0000000000040927
 51
294.6107016166262156
  0
ARC
  5
3404
  8
0
  6
AUSGEZOGEN
 62
     1
 10
-0.0000000000334671
 20
0.0000000000666489
 30
0.0
 40
73.5000000000745501
 50
294.6107016166346853
 51
299.3892983833645758
  0
ARC
  5
3405
  8
0
  6
AUSGEZOGEN
 62
     1
 10
35.5787240291587779
 20
-63.1696477468170201
 30
0.0000000000000071
 40
1.0000000000001159
 50
299.3892983833682138
 51
350.9999999999957936
  0
LINE
  5
3406
  8
0
  6
AUSGEZOGEN
 62
     1
 10
38.1000309368543668
 20
-53.6431956608938094
 30
0.0000000000000071
 11
36.5664123697540191
 21
-63.3260822118573401
 31
0.0000000000000068
  0
ARC
  5
3407
  8
0
  6
AUSGEZOGEN
 62
     1
 10
39.0877192774494873
 20
-53.799630125934037
 30
0.0000000000000071
 40
0.9999999999999861
 50
81.0000000000012932
 51
170.9999999999996874
  0
LINE
  5
3408
  8
0
  6
AUSGEZOGEN
 62
     1
 10
48.9270402934533521
 20
-54.3455603524392075
 30
0.0000000000000142
 11
39.2441537424897007
 21
-52.8119417853389095
 31
0.0000000000000121
  0
ARC
  5
3409
  8
0
  6
AUSGEZOGEN
 62
     1
 10
49.0834747584936011
 20
-53.3578720118442504
 30
0.0000000000000142
 40
0.9999999999998268
 50
260.9999999999964757
 51
312.6107016166380959
  0
ARC
  5
340A
  8
0
  6
AUSGEZOGEN
 62
     1
 10
-0.0000000000182899
 20
0.000000000018332
 30
0.0
 40
73.5000000000259064
 50
312.6107016166333779
 51
317.3892983833665085
  0
ARC
  5
340B
  8
0
  6
AUSGEZOGEN
 62
     1
 10
53.3578720118437815
 20
-49.0834747584934519
 30
0.0000000000000142
 40
1.000000000000318
 50
317.3892983833791277
 51
8.9999999999940457
  0
LINE
  5
340C
  8
0
  6
AUSGEZOGEN
 62
     1
 10
52.8119417853389024
 20
-39.244153742489722
 30
0.0000000000000142
 11
54.3455603524392501
 21
-48.9270402934532811
 31
0.0000000000000146
  0
ARC
  5
340D
  8
0
  6
AUSGEZOGEN
 62
     1
 10
53.7996301259340868
 20
-39.0877192774495086
 30
0.0000000000000142
 40
1.0000000000000231
 50
99.0000000000016342
 51
188.9999999999980957
  0
LINE
  5
340E
  8
0
  6
AUSGEZOGEN
 62
     1
 10
63.3260822118574112
 20
-36.5664123697539765
 30
0.0000000000000142
 11
53.6431956608938165
 21
-38.1000309368543526
 31
0.0000000000000121
  0
ARC
  5
340F
  8
0
  6
AUSGEZOGEN
 62
     1
 10
63.1696477468172617
 20
-35.5787240291589626
 30
0.0000000000000142
 40
0.9999999999998603
 50
278.9999999999968168
 51
330.6107016166353105
  0
ARC
  5
3410
  8
0
  6
AUSGEZOGEN
 62
     1
 10
-0.0000000000360819
 20
0.0000000000181046
 30
0.0
 40
73.5000000000404015
 50
330.6107016166341168
 51
335.3892983833662811
  0
ARC
  5
3411
  8
0
  6
AUSGEZOGEN
 62
     1
 10
65.9139797158557741
 20
-30.1926692761307187
 30
0.0000000000000142
 40
0.9999999999996724
 50
335.3892983833587209
 51
27.0000000000077307
  0
LINE
  5
3412
  8
0
  6
AUSGEZOGEN
 62
     1
 10
62.3542518094394111
 20
-21.0036206256735589
 30
0.0000000000000142
 11
66.8049862400437746
 21
-29.7386787763912004
 31
0.0000000000000152
  0
ARC
  5
3413
  8
0
  6
AUSGEZOGEN
 62
     1
 10
63.2452583336278806
 20
-20.5496301259340406
 30
0.0000000000000142
 40
1.0000000000000531
 50
117.0000000000038938
 51
206.9999999999959073
  0
LINE
  5
3414
  8
0
  6
AUSGEZOGEN
 62
     1
 10
71.5263259846058901
 20
-15.2078891711412307
 30
0.0000000000000142
 11
62.7912678338882486
 21
-19.6586236017456599
 31
0.0000000000000123
  0
ARC
  5
3415
  8
0
  6
AUSGEZOGEN
 62
     1
 10
71.0723354848664286
 20
-14.3168826469528803
 30
0.0000000000000142
 40
0.9999999999999012
 50
296.9999999999967031
 51
348.6107016166313883
  0
ARC
  5
3416
  8
0
  6
AUSGEZOGEN
 62
     1
 10
-0.0000000000604678
 20
0.0000000000092939
 30
0.0
 40
73.5000000000612346
 50
348.6107016166347989
 51
353.3892983833657127
  0
ARC
  5
3417
  8
0
  6
AUSGEZOGEN
 62
     1
 10
72.0179678355774087
 20
-8.3463949603238348
 30
0.0000000000000142
 40
1.0000000000002289
 50
353.3892983833752055
 51
44.9999999999942517
  0
LINE
  5
3418
  8
0
  6
AUSGEZOGEN
 62
     1
 10
65.7928932188135036
 20
-0.7071067811865817
 30
0.0000000000000142
 11
72.7250746167641751
 21
-7.6392881791371963
 31
0.0000000000000158
  0
ARC
  5
3419
  8
0
  6
AUSGEZOGEN
 62
     1
 10
66.5000000000000711
 20
-0.0000000000000284
 30
0.0000000000000142
 40
1.0000000000000071
 50
135.0
 51
225.0
  0
LINE
  5
341A
  8
0
  6
AUSGEZOGEN
 62
     1
 10
72.7250746167641324
 20
7.6392881791372238
 30
0.0000000000000142
 11
65.7928932188135036
 21
0.7071067811865249
 31
0.0000000000000127
  0
ARC
  5
341B
  8
0
  6
AUSGEZOGEN
 62
     1
 10
72.0179678355778066
 20
8.3463949603237211
 30
0.0000000000000142
 40
0.9999999999997989
 50
314.9999999999931219
 51
6.6107016166375896
  0
ARC
  5
341C
  8
0
  6
AUSGEZOGEN
 62
     1
 10
0.0000000000043906
 20
0.0000000000008811
 30
0.0
 40
73.4999999999955946
 50
6.6107016166322978
 51
11.3892983833674002
  0
ARC
  5
341D
  8
0
  6
AUSGEZOGEN
 62
     1
 10
71.0723354848663718
 20
14.3168826469528998
 30
0.0000000000000142
 40
0.9999999999999761
 50
11.3892983833663806
 51
63.0000000000011369
  0
LINE
  5
341E
  8
0
  6
AUSGEZOGEN
 62
     1
 10
62.7912678338882486
 20
19.6586236017456599
 30
0.0000000000000142
 11
71.5263259846058901
 21
15.2078891711412592
 31
0.0000000000000162
  0
ARC
  5
341F
  8
0
  6
AUSGEZOGEN
 62
     1
 10
63.2452583336277669
 20
20.5496301259340193
 30
0.0000000000000142
 40
0.9999999999999761
 50
153.0000000000011084
 51
243.0000000000011937
  0
LINE
  5
3420
  8
0
  6
AUSGEZOGEN
 62
     1
 10
66.804986240043732
 20
29.7386787763912217
 30
0.0000000000000142
 11
62.3542518094394111
 21
21.0036206256735412
 31
0.0000000000000132
  0
ARC
  5
3421
  8
0
  6
AUSGEZOGEN
 62
     1
 10
65.913979715855433
 20
30.1926692761307187
 30
0.0000000000000142
 40
0.9999999999999591
 50
333.0000000000026148
 51
24.6107016166374102
  0
ARC
  5
3422
  8
0
  6
AUSGEZOGEN
 62
     1
 10
-0.0000000000222121
 20
-0.0000000000113687
 30
0.0
 40
73.5000000000250111
 50
24.6107016166334205
 51
29.3892983833666293
  0
ARC
  5
3423
  8
0
  6
AUSGEZOGEN
 62
     1
 10
63.1696477468170414
 20
35.5787240291586784
 30
0.0000000000000142
 40
1.0000000000002001
 50
29.3892983833739407
 51
80.9999999999966462
  0
LINE
  5
3424
  8
0
  6
AUSGEZOGEN
 62
     1
 10
53.6431956608938165
 20
38.1000309368543526
 30
0.0000000000000142
 11
63.3260822118573472
 21
36.566412369754012
 31
0.0000000000000164
  0
ARC
  5
3425
  8
0
  6
AUSGEZOGEN
 62
     1
 10
53.7996301259341365
 20
39.087719277449537
 30
0.0000000000000142
 40
1.000000000000093
 50
171.0000000000038938
 51
260.9999999999956799
  0
LINE
  5
3426
  8
0
  6
AUSGEZOGEN
 62
     1
 10
54.3455603524392501
 20
48.9270402934532811
 30
0.0000000000000142
 11
52.8119417853389024
 21
39.244153742489722
 31
0.0000000000000139
  0
ARC
  5
3427
  8
0
  6
AUSGEZOGEN
 62
     1
 10
53.3578720118441225
 20
49.0834747584934803
 30
0.0000000000000142
 40
0.9999999999999909
 50
351.0000000000013074
 51
42.6107016166338965
  0
ARC
  5
3428
  8
0
  6
AUSGEZOGEN
 62
     1
 10
0.0000000000126897
 20
0.0000000000126761
 30
0.0
 40
73.4999999999820943
 50
42.6107016166319994
 51
47.3892983833680006
  0
ARC
  5
3429
  8
0
  6
AUSGEZOGEN
 62
     1
 10
49.0834747584936011
 20
53.3578720118443925
 30
0.0000000000000142
 40
0.9999999999997141
 50
47.389298383359872
 51
99.0000000000044338
  0
LINE
  5
342A
  8
0
  6
AUSGEZOGEN
 62
     1
 10
39.2441537424897007
 20
52.8119417853388882
 30
0.0000000000000071
 11
48.9270402934533521
 21
54.3455603524392288
 31
0.0000000000000093
  0
ARC
  5
342B
  8
0
  6
AUSGEZOGEN
 62
     1
 10
39.0877192774494375
 20
53.7996301259340086
 30
0.0000000000000071
 40
0.9999999999999299
 50
188.9999999999992042
 51
279.0000000000023874
  0
LINE
  5
342C
  8
0
  6
AUSGEZOGEN
 62
     1
 10
36.5664123697540191
 20
63.3260822118573969
 30
0.0000000000000071
 11
38.1000309368543668
 21
53.6431956608938094
 31
0.0000000000000074
  0
ARC
  5
342D
  8
0
  6
AUSGEZOGEN
 62
     1
 10
35.5787240291590123
 20
63.1696477468171906
 30
0.0000000000000071
 40
0.999999999999896
 50
8.9999999999997442
 51
60.6107016166383303
  0
ARC
  5
342E
  8
0
  6
AUSGEZOGEN
 62
     1
 10
-0.0000000000002137
 20
-0.0000000000006537
 30
0.0
 40
73.5000000000007248
 50
60.6107016166326815
 51
65.3892983833674464
  0
ARC
  5
342F
  8
0
  6
AUSGEZOGEN
 62
     1
 10
30.1926692761308111
 20
65.9139797158552483
 30
0.0000000000000071
 40
1.000000000000129
 50
65.3892983833724344
 51
117.0000000000017053
  0
LINE
  5
3430
  8
0
  6
AUSGEZOGEN
 62
     1
 10
21.0036206256736087
 20
62.3542518094393401
 30
0.0000000000000071
 11
29.7386787763911791
 21
66.8049862400437036
 31
0.000000000000009
  0
ARC
  5
3431
  8
0
  6
AUSGEZOGEN
 62
     1
 10
20.5496301259340299
 20
63.245258333627703
 30
0.0000000000000071
 40
0.9999999999999893
 50
207.0000000000003126
 51
297.000000000001819
  0
LINE
  5
3432
  8
0
  6
AUSGEZOGEN
 62
     1
 10
15.2078891711413
 20
71.5263259846057906
 30
0.0
 11
19.6586236017456706
 21
62.7912678338881491
 31
0.000000000000001
  0
ARC
  5
3433
  8
0
  6
AUSGEZOGEN
 62
     1
 10
14.3168826469528891
 20
71.0723354848661018
 30
0.0
 40
1.000000000000163
 50
27.0000000000060503
 51
78.6107016166310757
  0
ARC
  5
3434
  8
0
  6
AUSGEZOGEN
 62
     1
 10
-0.000000000001578
 20
-0.0000000000078444
 30
0.0
 40
73.5000000000080007
 50
78.6107016166325252
 51
83.3892983833668637
  0
ARC
  5
3435
  8
0
  6
AUSGEZOGEN
 62
     1
 10
8.3463949603238472
 20
72.0179678355774513
 30
0.0
 40
1.0000000000001279
 50
83.3892983833711838
 51
134.9999999999976978
  0
LINE
  5
3436
  8
0
  6
AUSGEZOGEN
 62
     1
 10
0.7071067811866238
 20
65.7928932188134468
 30
0.0
 11
7.639288179137238
 21
72.725074616764104
 31
0.0000000000000015
  0
ARC
  5
3437
  8
0
  6
AUSGEZOGEN
 62
     1
 10
0.0000000000000705
 20
66.4999999999999716
 30
0.0
 40
0.9999999999999879
 50
224.9999999999988063
 51
315.0
  0
LINE
  5
3438
  8
0
  6
AUSGEZOGEN
 62
     1
 10
-7.6392881791371536
 20
72.725074616764104
 30
0.0
 11
-0.7071067811864831
 21
65.7928932188134468
 31
0.0000000000000015
  0
ARC
  5
3439
  8
0
  6
AUSGEZOGEN
 62
     1
 10
-8.3463949603237069
 20
72.0179678355775934
 30
0.0
 40
0.99999999999999
 50
44.9999999999988489
 51
96.6107016166330368
  0
ARC
  5
343A
  8
0
  6
AUSGEZOGEN
 62
     1
 10
0.0000000000011505
 20
-0.0000000000028422
 30
0.0
 40
73.5000000000029843
 50
96.6107016166331931
 51
101.3892983833678016
  0
ARC
  5
343B
  8
0
  6
AUSGEZOGEN
 62
     1
 10
-14.3168826469532
 20
71.0723354848666702
 30
0.0
 40
0.999999999999467
 50
101.3892983833503934
 51
153.0000000000082139
  0
LINE
  5
343C
  8
0
  6
AUSGEZOGEN
 62
     1
 10
-19.6586236017456386
 20
62.7912678338881491
 30
-0.0000000000000071
 11
-15.2078891711411597
 21
71.5263259846058332
 31
-0.0000000000000061
  0
ARC
  5
343D
  8
0
  6
AUSGEZOGEN
 62
     1
 10
-20.5496301259340015
 20
63.2452583336276675
 30
-0.0000000000000071
 40
0.9999999999999252
 50
243.0000000000032969
 51
333.0000000000011937
  0
LINE
  5
343E
  8
0
  6
AUSGEZOGEN
 62
     1
 10
-29.7386787763911506
 20
66.8049862400437462
 30
-0.0000000000000071
 11
-21.0036206256734594
 21
62.3542518094393401
 31
-0.0000000000000052
  0
ARC
  5
343F
  8
0
  6
AUSGEZOGEN
 62
     1
 10
-30.192669276130669
 20
65.9139797158552483
 30
-0.0000000000000071
 40
1.000000000000125
 50
63.0000000000055422
 51
114.6107016166347989
  0
ARC
  5
3440
  8
0
  6
AUSGEZOGEN
 62
     1
 10
0.0000000000212162
 20
-0.0000000000412967
 30
0.0
 40
73.5000000000463842
 50
114.6107016166342021
 51
119.3892983833659969
  0
ARC
  5
3441
  8
0
  6
AUSGEZOGEN
 62
     1
 10
-35.5787240291590905
 20
63.1696477468171906
 30
-0.0000000000000071
 40
0.9999999999997528
 50
119.3892983833583941
 51
171.0000000000025011
  0
LINE
  5
3442
  8
0
  6
AUSGEZOGEN
 62
     1
 10
-38.1000309368542318
 20
53.6431956608938094
 30
-0.0000000000000071
 11
-36.5664123697539907
 21
63.3260822118573401
 31
-0.0000000000000068
  0
ARC
  5
3443
  8
0
  6
AUSGEZOGEN
 62
     1
 10
-39.0877192774494091
 20
53.799630125934101
 30
-0.0000000000000071
 40
1.000000000000079
 50
260.9999999999988063
 51
350.9999999999969873
  0
LINE
  5
3444
  8
0
  6
AUSGEZOGEN
 62
     1
 10
-48.92704029345321
 20
54.345560352439179
 30
-0.0000000000000142
 11
-39.2441537424896723
 21
52.8119417853388882
 31
-0.0000000000000121
  0
ARC
  5
3445
  8
0
  6
AUSGEZOGEN
 62
     1
 10
-49.0834747584935798
 20
53.3578720118443925
 30
-0.0000000000000142
 40
0.9999999999996628
 50
80.9999999999886029
 51
132.6107016166423023
  0
ARC
  5
3446
  8
0
  6
AUSGEZOGEN
 62
     1
 10
0.0000000000599834
 20
-0.0000000000603393
 30
0.0
 40
73.5000000000849667
 50
132.6107016166351116
 51
137.3892983833644053
  0
ARC
  5
3447
  8
0
  6
AUSGEZOGEN
 62
     1
 10
-53.3578720118440373
 20
49.0834747584934519
 30
-0.0000000000000142
 40
1.0000000000000371
 50
137.389298383368299
 51
188.9999999999965041
  0
LINE
  5
3448
  8
0
  6
AUSGEZOGEN
 62
     1
 10
-52.8119417853388669
 20
39.244153742489722
 30
-0.0000000000000142
 11
-54.3455603524392217
 21
48.9270402934532811
 31
-0.0000000000000146
  0
ARC
  5
3449
  8
0
  6
AUSGEZOGEN
 62
     1
 10
-53.7996301259341081
 20
39.0877192774494802
 30
-0.0000000000000142
 40
1.0000000000000211
 50
279.0000000000114824
 51
8.9999999999997993
  0
LINE
  5
344A
  8
0
  6
AUSGEZOGEN
 62
     1
 10
-63.326082211857269
 20
36.566412369753948
 30
-0.0000000000000142
 11
-53.6431956608936815
 21
38.1000309368543526
 31
-0.0000000000000121
  0
ARC
  5
344B
  8
0
  6
AUSGEZOGEN
 62
     1
 10
-63.1696477468169491
 20
35.5787240291588205
 30
-0.0000000000000142
 40
1.00000000000005
 50
99.0000000000048743
 51
150.6107016166357937
  0
ARC
  5
344C
  8
0
  6
AUSGEZOGEN
 62
     1
 10
-0.000000000036423
 20
0.0000000000186446
 30
0.0
 40
73.4999999999590159
 50
150.6107016166313031
 51
155.3892983833688106
  0
ARC
  5
344D
  8
0
  6
AUSGEZOGEN
 62
     1
 10
-65.9139797158554046
 20
30.1926692761306299
 30
-0.0000000000000142
 40
0.9999999999998997
 50
155.3892983833627
 51
206.9999999999974136
  0
LINE
  5
344E
  8
0
  6
AUSGEZOGEN
 62
     1
 10
-62.354251809439269
 20
21.0036206256735412
 30
-0.0000000000000142
 11
-66.8049862400437036
 21
29.7386787763911684
 31
-0.0000000000000152
  0
ARC
  5
344F
  8
0
  6
AUSGEZOGEN
 62
     1
 10
-63.2452583336274614
 20
20.5496301259339589
 30
-0.0000000000000142
 40
0.999999999999874
 50
296.9999999999944862
 51
27.0000000000062101
  0
LINE
  5
3450
  8
0
  6
AUSGEZOGEN
 62
     1
 10
-71.5263259846057338
 20
15.2078891711412307
 30
-0.0000000000000142
 11
-62.7912678338880568
 21
19.6586236017456599
 31
-0.0000000000000123
  0
ARC
  5
3451
  8
0
  6
AUSGEZOGEN
 62
     1
 10
-71.072335484866457
 20
14.3168826469529904
 30
-0.0000000000000142
 40
0.9999999999997672
 50
116.9999999999901945
 51
168.6107016166363906
  0
ARC
  5
3452
  8
0
  6
AUSGEZOGEN
 62
     1
 10
0.0000000000271848
 20
-0.0000000000034106
 30
0.0
 40
73.5000000000273701
 50
168.6107016166342021
 51
173.3892983833671906
  0
ARC
  5
3453
  8
0
  6
AUSGEZOGEN
 62
     1
 10
-72.0179678355774939
 20
8.3463949603238916
 30
-0.0000000000000142
 40
1.0000000000000879
 50
173.3892983833740118
 51
225.0000000000046043
  0
LINE
  5
3454
  8
0
  6
AUSGEZOGEN
 62
     1
 10
-65.7928932188133757
 20
0.7071067811865817
 30
-0.0000000000000142
 11
-72.725074616764033
 21
7.6392881791372238
 31
-0.0000000000000158
  0
ARC
  5
3455
  8
0
  6
AUSGEZOGEN
 62
     1
 10
-66.4999999999999289
 20
0.0000000000000284
 30
-0.0000000000000142
 40
1.0000000000000071
 50
315.0
 51
44.9999999999999929
  0
LINE
  5
3456
  8
0
  6
AUSGEZOGEN
 62
     1
 10
-72.725074616764033
 20
-7.6392881791372238
 30
-0.0000000000000142
 11
-65.7928932188133757
 21
-0.7071067811865249
 31
-0.0000000000000127
  0
ARC
  5
3457
  8
0
  6
AUSGEZOGEN
 62
     1
 10
-72.0179678355774371
 20
-8.3463949603238632
 30
-0.0000000000000142
 40
1.0000000000000639
 50
134.9999999999965041
 51
186.6107016166276082
  0
ARC
  5
3458
  8
0
  6
AUSGEZOGEN
 62
     1
 10
-0.0000000000365935
 20
-0.0000000000066791
 30
0.0
 40
73.4999999999627818
 50
186.6107016166307062
 51
191.3892983833679011
  0
ARC
  5
3459
  8
0
  6
AUSGEZOGEN
 62
     1
 10
-71.072335484866457
 20
-14.3168826469530508
 30
-0.0000000000000142
 40
0.9999999999997463
 50
191.3892983833603125
 51
243.0000000000090097
  0
LINE
  5
345A
  8
0
  6
AUSGEZOGEN
 62
     1
 10
-62.7912678338881705
 20
-19.6586236017455995
 30
-0.0000000000000142
 11
-71.5263259846057338
 21
-15.2078891711412592
 31
-0.0000000000000162
  0
ARC
  5
345B
  8
0
  6
AUSGEZOGEN
 62
     1
 10
-63.2452583336277385
 20
-20.5496301259339909
 30
-0.0000000000000142
 40
1.0000000000000391
 50
333.0000000000011937
 51
62.9999999999989768
  0
LINE
  5
345C
  8
0
  6
AUSGEZOGEN
 62
     1
 10
-66.8049862400436467
 20
-29.7386787763912608
 30
-0.0000000000000142
 11
-62.354251809439333
 21
-21.0036206256735412
 31
-0.0000000000000132
  0
ARC
  5
345D
  8
0
  6
AUSGEZOGEN
 62
     1
 10
-65.9139797158555751
 20
-30.1926692761308004
 30
-0.0000000000000142
 40
0.9999999999997286
 50
152.9999999999922977
 51
204.6107016166398012
  0
ARC
  5
345E
  8
0
  6
AUSGEZOGEN
 62
     1
 10
0.0000000000857904
 20
0.0000000000439968
 30
0.0
 40
73.5000000000962643
 50
204.6107016166359074
 51
209.3892983833644905
  0
ARC
  5
345F
  8
0
  6
AUSGEZOGEN
 62
     1
 10
-63.1696477468168922
 20
-35.5787240291588205
 30
-0.0000000000000142
 40
1.0000000000000491
 50
209.3892983833669064
 51
260.9999999999885745
  0
LINE
  5
3460
  8
0
  6
AUSGEZOGEN
 62
     1
 10
-53.6431956608937881
 20
-38.1000309368543313
 30
-0.0000000000000142
 11
-63.326082211857333
 21
-36.5664123697539765
 31
-0.0000000000000164
  0
ARC
  5
3461
  8
0
  6
AUSGEZOGEN
 62
     1
 10
-53.7996301259340584
 20
-39.0877192774494802
 30
-0.0000000000000142
 40
1.000000000000042
 50
351.000000000001819
 51
80.9999999999951541
  0
LINE
  5
3462
  8
0
  6
AUSGEZOGEN
 62
     1
 10
-54.3455603524391577
 20
-48.9270402934532385
 30
-0.0000000000000142
 11
-52.8119417853388669
 21
-39.2441537424896865
 31
-0.0000000000000139
  0
ARC
  5
3463
  8
0
  6
AUSGEZOGEN
 62
     1
 10
-53.3578720118443215
 20
-49.0834747584935727
 30
-0.0000000000000142
 40
0.9999999999997239
 50
170.9999999999922977
 51
222.6107016166413075
  0
ARC
  5
3464
  8
0
  6
AUSGEZOGEN
 62
     1
 10
0.0000000000017758
 20
0.0000000000017337
 30
0.0
 40
73.5000000000024443
 50
222.6107016166326105
 51
227.3892983833673043
  0
ARC
  5
3465
  8
0
  6
AUSGEZOGEN
 62
     1
 10
-49.0834747584933524
 20
-53.3578720118438525
 30
-0.0000000000000142
 40
1.00000000000022
 50
227.3892983833690096
 51
278.9999999999899956
  0
LINE
  5
3466
  8
0
  6
AUSGEZOGEN
 62
     1
 10
-39.2441537424896723
 20
-52.8119417853388882
 30
-0.0000000000000071
 11
-48.9270402934532598
 21
-54.3455603524392288
 31
-0.0000000000000093
  0
ARC
  5
3467
  8
0
  6
AUSGEZOGEN
 62
     1
 10
-39.0877192774494091
 20
-53.799630125934037
 30
-0.0000000000000071
 40
0.9999999999999388
 50
9.0000000000024301
 51
99.0000000000021743
  0
LINE
  5
3468
  8
0
  6
AUSGEZOGEN
 62
     1
 10
-36.566412369753877
 20
-63.3260822118573969
 30
-0.0000000000000071
 11
-38.1000309368543384
 21
-53.643195660893781
 31
-0.0000000000000074
  0
ARC
  5
3469
  8
0
  6
AUSGEZOGEN
 62
     1
 10
-35.5787240291586926
 20
-63.1696477468171906
 30
-0.0000000000000071
 40
1.0000000000000351
 50
188.9999999999949125
 51
240.6107016166241124
  0
ARC
  5
346A
  8
0
  6
AUSGEZOGEN
 62
     1
 10
-0.0000000000181194
 20
-0.0000000000346745
 30
0.0
 40
73.4999999999608633
 50
240.6107016166315873
 51
245.3892983833690948
  0
ARC
  5
346B
  8
0
  6
AUSGEZOGEN
 62
     1
 10
-30.192669276130669
 20
-65.9139797158559873
 30
-0.0000000000000071
 40
0.999999999999445
 50
245.3892983833547135
 51
297.0000000000180194
  0
LINE
  5
346C
  8
0
  6
AUSGEZOGEN
 62
     1
 10
-21.0036206256735802
 20
-62.3542518094393401
 30
-0.0000000000000071
 11
-29.7386787763911009
 21
-66.8049862400437036
 31
-0.000000000000009
  0
ARC
  5
346D
  8
0
  6
AUSGEZOGEN
 62
     1
 10
-20.5496301259340015
 20
-63.2452583336275325
 30
-0.0000000000000071
 40
0.9999999999999246
 50
26.9999999999930616
 51
117.0000000000047038
  0
LINE
  5
346E
  8
0
  6
AUSGEZOGEN
 62
     1
 10
-15.2078891711411597
 20
-71.526325984605819
 30
0.0
 11
-19.6586236017456386
 21
-62.7912678338881278
 31
-0.000000000000001
  0
ARC
  5
346F
  8
0
  6
AUSGEZOGEN
 62
     1
 10
-14.3168826469526902
 20
-71.0723354848661302
 30
0.0
 40
1.0000000000001461
 50
207.0000000000046043
 51
258.6107016166275798
  0
ARC
  5
3470
  8
0
  6
AUSGEZOGEN
 62
     1
 10
-0.0000000000009527
 20
-0.0000000000049738
 30
0.0
 40
73.4999999999949267
 50
258.610701616632582
 51
263.3892983833677022
  0
ARC
  5
3471
  8
0
  6
AUSGEZOGEN
 62
     1
 10
-8.3463949603238206
 20
-72.0179678355772239
 30
0.0
 40
1.0000000000003291
 50
263.3892983833757739
 51
314.9999999999906777
  0
LINE
  5
3472
  8
0
  6
AUSGEZOGEN
 62
     1
 10
-0.7071067811865396
 20
-65.7928932188134468
 30
0.0
 11
-7.6392881791371536
 21
-72.725074616764104
 31
-0.0000000000000015
  0
ARC
  5
3473
  8
0
  6
AUSGEZOGEN
 62
     1
 10
0.0000000000000136
 20
-66.5
 30
0.0
 40
1.0000000000000071
 50
45.0
 51
135.0
  0
LINE
  5
3474
  8
0
  6
AUSGEZOGEN
 62
     1
 10
7.639288179137238
 20
-72.725074616764104
 30
0.0
 11
0.7071067811865666
 21
-65.7928932188134468
 31
-0.0000000000000015
  0
ARC
  5
3475
  8
0
  6
AUSGEZOGEN
 62
     1
 10
8.3463949603237353
 20
-72.0179678355777355
 30
0.0
 40
0.9999999999998552
 50
224.9999999999953957
 51
276.6107016166371864
  0
ARC
  5
3476
  8
0
  6
AUSGEZOGEN
 62
     1
 10
0.0000000000008663
 20
-0.0000000000040927
 30
0.0
 40
73.4999999999958646
 50
276.6107016166324115
 51
281.389298383367418
  0
ARC
  5
3477
  8
0
  6
AUSGEZOGEN
 62
     1
 10
14.3168826469527701
 20
-71.0723354848660733
 30
0.0
 40
1.0000000000002569
 50
281.3892983833712265
 51
332.9999999999910756
  0
LINE
  5
3478
  8
0
  6
AUSGEZOGEN
 62
     1
 10
19.6586236017456706
 20
-62.7912678338881278
 30
0.0000000000000071
 11
15.2078891711413
 21
-71.5263259846058759
 31
0.0000000000000061
  0
ARC
  5
3479
  8
0
  6
AUSGEZOGEN
 62
     1
 10
20.5496301259340903
 20
-63.2452583336275893
 30
0.0000000000000071
 40
0.9999999999998749
 50
62.9999999999981881
 51
153.0000000000040075
  0
CIRCLE
  5
347A
  8
0
  6
VERDECKT
 62
     3
 10
0.0000000000000028
 20
0.000000000000026
 30
0.0
 40
61.9999999999999929
  0
CIRCLE
  5
347B
  8
0
  6
VERDECKT
 62
     3
 10
0.0000000000000028
 20
0.000000000000026
 30
0.0
 40
64.0000000000000426
  0
LINE
  5
347C
  8
0
  6
VERDECKT
 62
     3
 10
-0.0000000000000844
 20
59.0000000000000426
 30
0.0
 11
15.4919333848295402
 21
59.0000000000000426
 31
0.0000000000000034
  0
LINE
  5
347D
  8
0
  6
VERDECKT
 62
     3
 10
-15.4919333848297001
 20
59.0000000000000426
 30
0.0
 11
-0.0000000000000835
 21
59.0000000000000426
 31
0.0000000000000034
  0
LINE
  5
347E
  8
0
  6
VERDECKT
 62
     3
 10
-0.0000000000000844
 20
-58.9999999999999503
 30
0.0
 11
-15.4919333848297001
 21
-58.9999999999999503
 31
-0.0000000000000034
  0
LINE
  5
347F
  8
0
  6
VERDECKT
 62
     3
 10
15.4919333848295402
 20
-58.9999999999999574
 30
0.0
 11
-0.0000000000000835
 21
-58.9999999999999503
 31
-0.0000000000000034
  0
LINE
  5
3480
  8
0
  6
VERDECKT
 62
     3
 10
58.9999999999999076
 20
0.0000000000000392
 30
0.0
 11
58.9999999999999076
 21
-15.4919333848296397
 31
0.0
  0
LINE
  5
3481
  8
0
  6
VERDECKT
 62
     3
 10
58.9999999999999076
 20
15.4919333848296592
 30
0.0
 11
58.9999999999999076
 21
0.0000000000000391
 31
0.0
  0
LINE
  5
3482
  8
0
  6
VERDECKT
 62
     3
 10
-59.0000000000000924
 20
0.0000000000000392
 30
0.0
 11
-59.0000000000000924
 21
15.4919333848296592
 31
0.0
  0
LINE
  5
3483
  8
0
  6
VERDECKT
 62
     3
 10
-59.0000000000000924
 20
-15.4919333848296397
 30
0.0
 11
-59.0000000000000924
 21
0.0000000000000391
 31
0.0
  0
CIRCLE
  5
3484
  8
0
  6
VERDECKT
 62
     3
 10
0.0000000000000102
 20
0.0000000000000281
 30
0.0
 40
51.7676629805460706
  0
CIRCLE
  5
3485
  8
0
  6
VERDECKT
 62
     3
 10
0.0000000000000102
 20
0.0000000000000281
 30
0.0
 40
53.7676629736210572
  0
LINE
  5
3486
  8
0
  6
VERDECKT
 62
     3
 10
29.7895026662766114
 20
-48.5969321501996916
 30
0.0
 11
27.1914264549233486
 21
-50.0969321501996987
 31
-0.0000000000000006
  0
LINE
  5
3487
  8
0
  6
VERDECKT
 62
     3
 10
29.7895026662766114
 20
48.5969321501997129
 30
0.0
 11
27.1914264549233486
 21
50.09693215019972
 31
-0.0000000000000006
  0
ARC
  5
3488
  8
0
  6
VERDECKT
 62
     3
 10
0.0000000000006826
 20
0.0000000000013576
 30
0.0
 40
34.2814676152476991
 50
57.4921984785794109
 51
62.5078015214205607
  0
ARC
  5
3489
  8
0
  6
VERDECKT
 62
     3
 10
-0.0000000000017049
 20
0.0000000000028142
 30
0.0
 40
34.2814676152524811
 50
297.4921984785797804
 51
302.5078015214202196
  0
ARC
  5
348A
  8
0
  6
VERDECKT
 62
     3
 10
0.0000000000022851
 20
0.0000000000038688
 30
0.0
 40
34.8999999999954724
 50
57.5366718750245596
 51
62.4633281249757317
  0
ARC
  5
348B
  8
0
  6
VERDECKT
 62
     3
 10
0.000000000003081
 20
-0.0000000000053007
 30
0.0
 40
34.8999999999938026
 50
297.536671875024183
 51
302.4633281249755896
  0
ARC
  5
348C
  8
0
  6
VERDECKT
 62
     3
 10
0.0000000000009273
 20
-0.0000000000000987
 30
0.0
 40
57.8686291501025991
 50
170.060192420578602
 51
179.999999999999801
  0
ARC
  5
348D
  8
0
  6
VERDECKT
 62
     3
 10
-0.0000000000000959
 20
-0.0000000000003287
 30
0.0
 40
57.868629150101917
 50
80.060192420579412
 51
99.9398075794206733
  0
ARC
  5
348E
  8
0
  6
VERDECKT
 62
     3
 10
-0.0000000000282903
 20
-0.0000000000486669
 30
0.0
 40
57.8686291501578083
 50
58.5146823501292133
 51
61.4853176498706731
  0
ARC
  5
348F
  8
0
  6
VERDECKT
 62
     3
 10
0.0000000000006999
 20
0.0000000000000017
 30
0.0
 40
57.8686291501007872
 50
350.060192420578403
 51
9.9398075794215615
  0
ARC
  5
3490
  8
0
  6
VERDECKT
 62
     3
 10
0.0000000000088853
 20
-0.0000000000152501
 30
0.0
 40
57.8686291500838692
 50
298.5146823501272024
 51
301.485317649872627
  0
ARC
  5
3491
  8
0
  6
VERDECKT
 62
     3
 10
-0.0000000000000959
 20
-0.0000000000004922
 30
0.0
 40
57.8686291501010714
 50
260.0601924205773798
 51
279.939807579422677
  0
ARC
  5
3492
  8
0
  6
VERDECKT
 62
     3
 10
0.0000000000009273
 20
0.0000000000001376
 30
0.0
 40
57.8686291501025991
 50
180.0000000000001137
 51
189.9398075794213128
  0
CIRCLE
  5
3493
  8
0
  6
VERDECKT
 62
     3
 10
0.0000000000000114
 20
0.0000000000000177
 30
0.0
 40
36.4999999999999574
  0
CIRCLE
  5
3494
  8
0
  6
VERDECKT
 62
     3
 10
0.0000000000000004
 20
0.0000000000000147
 30
0.0
 40
35.8875793553185076
  0
CIRCLE
  5
3495
  8
0
  6
VERDECKT
 62
     3
 10
0.0000000000000705
 20
0.0000000000000284
 30
0.0
 40
58.5
  0
ENDBLK
  5
3497
  8
0
  0
ENDSEC
  0
SECTION
  2
ENTITIES
  0
TEXT
  5
1871
  8
TEXT35
 10
339.4627620700201192
 20
530.8138270605206799
 30
0.0
 40
3.5
  1

 41
0.8
  0
INSERT
  5
33D9
  8
0
  2
A$C01F3049C
 10
0.0
 20
0.0000000000000253
 30
0.0
  0
INSERT
  5
3498
  8
0
  2
A$C14136F0F
 10
0.0
 20
-130.4220169289010016
 30
0.0
  0
VIEWPORT
  5
2F4F
 67
     1
  8
0
 10
6.4158112856207667
 20
7.6074142701777321
 30
0.0
 40
29.4393244222503903
 41
15.5958325808350295
 68
     1
 69
     1
1001
ACAD
1000
MVIEW
1002
{
1070
    16
1010
0.0
1020
0.0
1030
0.0
1010
0.0
1020
0.0
1030
1.0
1040
0.0
1040
15.5958325808350295
1040
6.4158112856207667
1040
7.6074142701777321
1040
50.0
1040
0.0
1040
0.0
1070
     0
1070
  1500
1070
     1
1070
     1
1070
     0
1070
     0
1070
     0
1070
     0
1040
0.0
1040
0.0
1040
0.0
1040
10.0
1040
10.0
1040
10.0
1040
10.0
1070
     0
1002
{
1002
}
1002
}
  0
ENDSEC
  0
EOF
