  0
SECTION
  2
HEADER
  9
$ACADVER
  1
AC1009
  9
$INSBASE
 10
0.0
 20
0.0
 30
0.0
  9
$EXTMIN
 10
-63.4575824198099099
 20
-148.1014738007887104
 30
-0.004272134979658
  9
$EXTMAX
 10
63.4687529721889021
 20
140.0161991596102951
 30
0.0064088543950902
  9
$LIMMIN
 10
0.0
 20
0.0
  9
$LIMMAX
 10
297.0
 20
420.0
  9
$ORTHOMODE
 70
     1
  9
$REGENMODE
 70
     1
  9
$FILLMODE
 70
     1
  9
$QTEXTMODE
 70
     0
  9
$MIRRTEXT
 70
     1
  9
$DRAGMODE
 70
     2
  9
$LTSCALE
 40
10.0
  9
$OSMODE
 70
  1327
  9
$ATTMODE
 70
     1
  9
$TEXTSIZE
 40
3.5
  9
$TRACEWID
 40
0.5
  9
$TEXTSTYLE
  7
STANDARD
  9
$CLAYER
  8
0
  9
$CELTYPE
  6
BYLAYER
  9
$CECOLOR
 62
   256
  9
$DIMSCALE
 40
0.0
  9
$DIMASZ
 40
3.5
  9
$DIMEXO
 40
1.0
  9
$DIMDLI
 40
8.0
  9
$DIMRND
 40
0.0
  9
$DIMDLE
 40
0.0
  9
$DIMEXE
 40
1.0
  9
$DIMTP
 40
0.8
  9
$DIMTM
 40
0.0
  9
$DIMTXT
 40
3.5
  9
$DIMCEN
 40
1.5
  9
$DIMTSZ
 40
0.0
  9
$DIMTOL
 70
     0
  9
$DIMLIM
 70
     0
  9
$DIMTIH
 70
     0
  9
$DIMTOH
 70
     0
  9
$DIMSE1
 70
     0
  9
$DIMSE2
 70
     0
  9
$DIMTAD
 70
     1
  9
$DIMZIN
 70
     8
  9
$DIMBLK
  1

  9
$DIMASO
 70
     1
  9
$DIMSHO
 70
     0
  9
$DIMPOST
  1

  9
$DIMAPOST
  1

  9
$DIMALT
 70
     0
  9
$DIMALTD
 70
     2
  9
$DIMALTF
 40
25.3999999999999986
  9
$DIMLFAC
 40
1.0
  9
$DIMTOFL
 70
     1
  9
$DIMTVP
 40
0.0
  9
$DIMTIX
 70
     0
  9
$DIMSOXD
 70
     0
  9
$DIMSAH
 70
     0
  9
$DIMBLK1
  1

  9
$DIMBLK2
  1

  9
$DIMSTYLE
  2
STANDARD
  9
$DIMCLRD
 70
     0
  9
$DIMCLRE
 70
     0
  9
$DIMCLRT
 70
     1
  9
$DIMTFAC
 40
0.5
  9
$DIMGAP
 40
1.5
  9
$LUNITS
 70
     2
  9
$LUPREC
 70
     2
  9
$SKETCHINC
 40
1.0
  9
$FILLETRAD
 40
0.0
  9
$AUNITS
 70
     0
  9
$AUPREC
 70
     0
  9
$MENU
  1
ACAD
  9
$ELEVATION
 40
0.0
  9
$PELEVATION
 40
0.0
  9
$THICKNESS
 40
0.0
  9
$LIMCHECK
 70
     0
  9
$BLIPMODE
 70
     0
  9
$CHAMFERA
 40
0.0
  9
$CHAMFERB
 40
0.0
  9
$SKPOLY
 70
     0
  9
$TDCREATE
 40
2451879.5826504630967975
  9
$TDUPDATE
 40
2458401.5713310190476477
  9
$TDINDWG
 40
0.1074519444
  9
$TDUSRTIMER
 40
0.1074519444
  9
$USRTIMER
 70
     1
  9
$ANGBASE
 50
0.0
  9
$ANGDIR
 70
     0
  9
$PDMODE
 70
     0
  9
$PDSIZE
 40
0.0
  9
$PLINEWID
 40
0.0
  9
$COORDS
 70
     1
  9
$SPLFRAME
 70
     0
  9
$SPLINETYPE
 70
     6
  9
$SPLINESEGS
 70
     8
  9
$ATTDIA
 70
     0
  9
$ATTREQ
 70
     0
  9
$HANDLING
 70
     1
  9
$HANDSEED
  5
2A1D
  9
$SURFTAB1
 70
     6
  9
$SURFTAB2
 70
     6
  9
$SURFTYPE
 70
     6
  9
$SURFU
 70
     6
  9
$SURFV
 70
     6
  9
$UCSNAME
  2

  9
$UCSORG
 10
0.0
 20
0.0
 30
0.0
  9
$UCSXDIR
 10
1.0
 20
0.0
 30
0.0
  9
$UCSYDIR
 10
0.0
 20
1.0
 30
0.0
  9
$PUCSNAME
  2

  9
$PUCSORG
 10
0.0
 20
0.0
 30
0.0
  9
$PUCSXDIR
 10
1.0
 20
0.0
 30
0.0
  9
$PUCSYDIR
 10
0.0
 20
1.0
 30
0.0
  9
$USERI1
 70
     0
  9
$USERI2
 70
     0
  9
$USERI3
 70
     0
  9
$USERI4
 70
     0
  9
$USERI5
 70
     0
  9
$USERR1
 40
0.0
  9
$USERR2
 40
0.0
  9
$USERR3
 40
0.0
  9
$USERR4
 40
0.0
  9
$USERR5
 40
0.0
  9
$WORLDVIEW
 70
     1
  9
$SHADEDGE
 70
     3
  9
$SHADEDIF
 70
    70
  9
$TILEMODE
 70
     1
  9
$MAXACTVP
 70
    16
  9
$PLIMCHECK
 70
     0
  9
$PEXTMIN
 10
-0.1487886689261089
 20
-0.1569067702555635
 30
-0.0000000000112498
  9
$PEXTMAX
 10
10.2098689409556105
 20
14.7026375142972601
 30
0.0000000000002956
  9
$PLIMMIN
 10
-0.2500002402958907
 20
-0.2499999962453767
  9
$PLIMMAX
 10
10.7499995194082203
 20
8.2499997634587334
  9
$UNITMODE
 70
     0
  9
$VISRETAIN
 70
     0
  9
$PLINEGEN
 70
     0
  9
$PSLTSCALE
 70
     0
  0
ENDSEC
  0
SECTION
  2
TABLES
  0
TABLE
  2
VPORT
 70
     1
  0
VPORT
  2
*ACTIVE
 70
     0
 10
0.0
 20
0.0
 11
1.0
 21
1.0
 12
0.0055852761894926
 22
-42.3166584692708767
 13
0.0
 23
0.0
 14
1.0
 24
1.0
 15
10.0
 25
10.0
 16
-0.000000000000138
 26
0.0
 36
621.4657914497970523
 17
0.0
 27
38.2740211486816619
 37
-0.0000000000000075
 40
290.2731667730703862
 41
1.887640449438202
 42
50.0
 43
0.0
 44
0.0
 50
0.0
 51
0.0
 71
     0
 72
  1500
 73
     1
 74
     0
 75
     0
 76
     0
 77
     0
 78
     0
  0
ENDTAB
  0
TABLE
  2
LTYPE
 70
     4
  0
LTYPE
  2
AUSGEZOGEN
 70
     0
  3
Ausgezogene Linie
 72
    65
 73
     0
 40
0.0
  0
LTYPE
  2
CONTINUOUS
 70
     0
  3
Solid line
 72
    65
 73
     0
 40
0.0
  0
LTYPE
  2
VERDECKT
 70
     0
  3
Verdeckt __ __ __ __ __ __ __ __ __ __ __ __ __
 72
    65
 73
     2
 40
0.375
 49
0.25
 49
-0.125
  0
ENDTAB
  0
TABLE
  2
LAYER
 70
    12
  0
LAYER
  2
0
 70
     0
 62
     7
  6
AUSGEZOGEN
  0
LAYER
  2
DEFPOINTS
 70
     0
 62
     7
  6
AUSGEZOGEN
  0
LAYER
  2
TEXT35
 70
     0
 62
     1
  6
AUSGEZOGEN
  0
ENDTAB
  0
TABLE
  2
STYLE
 70
     4
  0
STYLE
  2
STANDARD
 70
     0
 40
0.0
 41
0.8
 50
0.0
 71
     0
 42
3.5
  3
simplex.shx
  4

  0
ENDTAB
  0
TABLE
  2
VIEW
 70
     2
  0
ENDTAB
  0
TABLE
  2
UCS
 70
     0
  0
ENDTAB
  0
TABLE
  2
APPID
 70
     9
  0
APPID
  2
ACAD
 70
     0
  0
APPID
  2
ACAD_NAV_VCDISPLAY
 70
     0
  0
APPID
  2
ACAD_PSEXT
 70
     0
  0
APPID
  2
ACAECLAYERSTANDARD
 70
     0
  0
APPID
  2
ACCMTRANSPARENCY
 70
     0
  0
APPID
  2
ACAD_EXEMPT_FROM_CAD_STANDARDS
 70
     0
  0
APPID
  2
ACAD_MLEADERVER
 70
     0
  0
APPID
  2
ACAD_OBJECT_CHANGE_GUID
 70
     0
  0
APPID
  2
ACADANNOMONITORALERTICONDI
 70
     0
  0
ENDTAB
  0
TABLE
  2
DIMSTYLE
 70
     2
  0
DIMSTYLE
  2
STANDARD
 70
     0
  3

  4

  5

  6

  7

 40
0.0
 41
3.5
 42
1.0
 43
8.0
 44
1.5
 45
0.0
 46
0.0
 47
0.5
 48
0.0
140
3.5
141
1.5
142
0.0
143
25.3999999999999986
144
1.0
145
0.0
146
1.0
147
1.0
 71
     0
 72
     0
 73
     0
 74
     0
 75
     0
 76
     0
 77
     1
 78
     8
170
     0
171
     2
172
     1
173
     0
174
     0
175
     0
176
     0
177
     0
178
     1
  0
ENDTAB
  0
ENDSEC
  0
SECTION
  2
BLOCKS
  0
BLOCK
  8
0
  2
$MODEL_SPACE
 70
     0
 10
0.0
 20
0.0
 30
0.0
  3
$MODEL_SPACE
  1

  0
ENDBLK
  5
1AFE
  8
0
  0
BLOCK
 67
     1
  8
0
  2
$PAPER_SPACE
 70
     0
 10
0.0
 20
0.0
 30
0.0
  3
$PAPER_SPACE
  1

  0
ENDBLK
  5
1AFC
 67
     1
  8
0
  0
BLOCK
  8
0
  2
A$C00754B42
 70
     0
 10
0.0
 20
0.0
 30
0.0
  3
A$C00754B42
  1

  0
LINE
  5
2823
  8
0
  6
AUSGEZOGEN
 62
     3
 10
-13.5674797050268197
 20
124.999999999999801
 30
-0.0000000000000278
 11
-35.4325202949731874
 21
124.999999999999801
 31
-0.0000000000000278
210
0.0
220
1.0
230
-0.0000000000000002
  0
LINE
  5
2824
  8
0
  6
AUSGEZOGEN
 62
     3
 10
-35.4325202949731874
 20
131.999999999999801
 30
-0.0000000000000293
 11
-35.4325202949731874
 21
124.999999999999801
 31
-0.0000000000000278
210
0.0
220
1.0
230
-0.0000000000000002
  0
LINE
  5
2825
  8
0
  6
AUSGEZOGEN
 62
     3
 10
-13.5674797050268108
 20
124.999999999999801
 30
-0.0000000000000278
 11
-13.5674797050268108
 21
131.999999999999801
 31
-0.0000000000000293
210
0.0
220
1.0
230
-0.0000000000000002
  0
LINE
  5
2826
  8
0
  6
AUSGEZOGEN
 62
     3
 10
50.6000000000000085
 20
124.999999999999801
 30
-0.0000000000000278
 11
49.0000000000001066
 21
124.999999999999801
 31
-0.0000000000000278
210
0.0
220
1.0
230
-0.0000000000000002
  0
LINE
  5
2827
  8
0
  6
AUSGEZOGEN
 62
     3
 10
49.0000000000001066
 20
131.999999999999801
 30
-0.0000000000000293
 11
49.0000000000001066
 21
124.999999999999801
 31
-0.0000000000000278
210
0.0
220
1.0
230
-0.0000000000000002
  0
LINE
  5
2828
  8
0
  6
AUSGEZOGEN
 62
     3
 10
-50.6000000000000227
 20
131.999999999999801
 30
-0.0000000000000293
 11
-49.0
 21
131.999999999999801
 31
-0.0000000000000293
210
0.0
220
1.0
230
-0.0000000000000002
  0
LINE
  5
2829
  8
0
  6
AUSGEZOGEN
 62
     3
 10
-49.0
 20
124.999999999999801
 30
-0.0000000000000278
 11
-49.0
 21
131.999999999999801
 31
-0.0000000000000293
210
0.0
220
1.0
230
-0.0000000000000002
  0
LINE
  5
282A
  8
0
  6
AUSGEZOGEN
 62
     3
 10
-35.4325202949731874
 20
131.999999999999801
 30
-0.0000000000000293
 11
-13.5674797050268108
 21
131.999999999999801
 31
-0.0000000000000293
210
0.0
220
1.0
230
-0.0000000000000002
  0
LINE
  5
282B
  8
0
  6
AUSGEZOGEN
 62
     3
 10
49.0000000000001066
 20
131.999999999999801
 30
-0.0000000000000293
 11
50.6000000000000227
 21
131.999999999999801
 31
-0.0000000000000293
210
0.0
220
1.0
230
-0.0000000000000002
  0
LINE
  5
282C
  8
0
  6
AUSGEZOGEN
 62
     3
 10
-48.9999999999999929
 20
124.999999999999801
 30
-0.0000000000000278
 11
-50.6000000000000227
 21
124.999999999999801
 31
-0.0000000000000278
210
0.0
220
1.0
230
-0.0000000000000002
  0
LINE
  5
282D
  8
0
  6
AUSGEZOGEN
 62
     3
 10
50.6000000000000227
 20
139.9999999999998863
 30
-0.0000000000000311
 11
-50.6000000000000227
 21
139.9999999999998863
 31
-0.0000000000000311
210
0.0
220
1.0
230
-0.0000000000000002
  0
LINE
  5
282E
  8
0
  6
AUSGEZOGEN
 62
     3
 10
-54.0
 20
0.0
 30
0.0
 11
54.0
 21
0.0
 31
0.0
210
0.0
220
1.0
230
-0.0000000000000002
  0
LINE
  5
282F
  8
0
  6
AUSGEZOGEN
 62
     3
 10
50.6000000000001293
 20
139.999999999999801
 30
-0.0000000000000311
 11
50.6000000000001293
 21
131.999999999999801
 31
-0.0000000000000293
210
0.0
220
1.0
230
-0.0000000000000002
  0
LINE
  5
2830
  8
0
  6
AUSGEZOGEN
 62
     3
 10
50.6000000000001293
 20
124.999999999999801
 30
-0.0000000000000278
 11
50.6000000000001293
 21
72.4685777299186356
 31
-0.0000000000000161
210
0.0
220
1.0
230
-0.0000000000000002
  0
LINE
  5
2831
  8
0
  6
AUSGEZOGEN
 62
     3
 10
-50.6000000000001293
 20
139.9999999999998863
 30
-0.0000000000000311
 11
-50.6000000000001293
 21
131.999999999999801
 31
-0.0000000000000293
210
0.0
220
1.0
230
-0.0000000000000002
  0
LINE
  5
2832
  8
0
  6
AUSGEZOGEN
 62
     3
 10
-50.6000000000001293
 20
124.999999999999801
 30
-0.0000000000000278
 11
-50.6000000000001293
 21
72.4685777299186356
 31
-0.0000000000000161
210
0.0
220
1.0
230
-0.0000000000000002
  0
ARC
  5
2833
  8
0
  6
AUSGEZOGEN
 62
     3
 10
34.9999999999999574
 20
72.4685777299187492
 30
0.0
 40
15.6000000000002803
210
0.0
220
-0.0000000000000002
230
-1.0
 50
339.9999999999996021
 51
359.9999999999996021
  0
ARC
  5
2834
  8
0
  6
AUSGEZOGEN
 62
     3
 10
-34.9999999999999574
 20
72.4685777299187492
 30
0.0
 40
15.6000000000002803
210
0.0
220
-0.0000000000000002
230
-1.0
 50
180.0000000000003979
 51
200.0000000000003126
  0
LINE
  5
2835
  8
0
  6
AUSGEZOGEN
 62
     3
 10
-45.3443033089972687
 20
55.2779688488337513
 30
-0.0000000000000123
 11
-47.4524302439644501
 21
61.0700000000000713
 31
-0.0000000000000136
210
0.0
220
1.0
230
-0.0000000000000002
  0
LINE
  5
2836
  8
0
  6
AUSGEZOGEN
 62
     3
 10
-47.9983855953637502
 20
62.5700000000000571
 30
-0.0000000000000139
 11
-49.6592048842603688
 21
67.1330634940381259
 31
-0.0000000000000149
210
0.0
220
1.0
230
-0.0000000000000002
  0
LINE
  5
2837
  8
0
  6
AUSGEZOGEN
 62
     3
 10
45.3443033089972687
 20
55.2779688488337513
 30
-0.0000000000000123
 11
47.4524302439644501
 21
61.0700000000000571
 31
-0.0000000000000136
210
0.0
220
1.0
230
-0.0000000000000002
  0
LINE
  5
2838
  8
0
  6
AUSGEZOGEN
 62
     3
 10
47.9983855953637502
 20
62.5700000000000571
 30
-0.0000000000000139
 11
49.6592048842603688
 21
67.1330634940381259
 31
-0.0000000000000149
210
0.0
220
1.0
230
-0.0000000000000002
  0
ARC
  5
2839
  8
0
  6
AUSGEZOGEN
 62
     3
 10
58.5000000000027711
 20
50.4896868422739615
 30
0.0
 40
14.0000000000027693
210
0.0
220
-0.0000000000000002
230
-1.0
 50
160.0000000000021032
 51
179.9999999999984084
  0
ARC
  5
283A
  8
0
  6
AUSGEZOGEN
 62
     3
 10
-58.500000000002963
 20
50.4896868422739331
 30
0.0
 40
14.0000000000029594
210
0.0
220
-0.0000000000000002
230
-1.0
 50
0.0000000000016666
 51
19.9999999999976517
  0
LINE
  5
283B
  8
0
  6
AUSGEZOGEN
 62
     3
 10
44.5
 20
50.4896868422743381
 30
-0.0000000000000112
 11
44.5
 21
43.8517363838709286
 31
-0.0000000000000097
210
0.0
220
1.0
230
-0.0000000000000002
  0
LINE
  5
283C
  8
0
  6
AUSGEZOGEN
 62
     3
 10
-44.5
 20
50.4896868422743381
 30
-0.0000000000000112
 11
-44.5
 21
43.8517363838709286
 31
-0.0000000000000097
210
0.0
220
1.0
230
-0.0000000000000002
  0
ARC
  5
283D
  8
0
  6
AUSGEZOGEN
 62
     3
 10
58.5000000000027072
 20
43.8517363838713479
 30
0.0
 40
14.0000000000027107
210
0.0
220
-0.0000000000000002
230
-1.0
 50
180.0000000000015064
 51
199.9999999999976978
  0
ARC
  5
283E
  8
0
  6
AUSGEZOGEN
 62
     3
 10
-58.500000000003098
 20
43.8517363838713976
 30
0.0
 40
14.0000000000030909
210
0.0
220
-0.0000000000000002
230
-1.0
 50
340.0000000000025011
 51
359.9999999999980105
  0
LINE
  5
283F
  8
0
  6
AUSGEZOGEN
 62
     3
 10
45.3443033089972687
 20
39.0634543773115723
 30
-0.0000000000000087
 11
53.0592048842602324
 21
17.8669365059619487
 31
-0.000000000000004
210
0.0
220
1.0
230
-0.0000000000000002
  0
LINE
  5
2840
  8
0
  6
AUSGEZOGEN
 62
     3
 10
-45.3443033089972687
 20
39.0634543773115723
 30
-0.0000000000000087
 11
-53.0592048842602324
 21
17.8669365059619487
 31
-0.000000000000004
210
0.0
220
1.0
230
-0.0000000000000002
  0
ARC
  5
2841
  8
0
  6
AUSGEZOGEN
 62
     3
 10
38.3999999999981299
 20
12.5314222700811708
 30
0.0
 40
15.6000000000019305
210
0.0
220
-0.0000000000000002
230
-1.0
 50
0.0000000000012086
 51
19.9999999999987814
  0
ARC
  5
2842
  8
0
  6
AUSGEZOGEN
 62
     3
 10
-38.3999999999981085
 20
12.5314222700811602
 30
0.0
 40
15.6000000000019501
210
0.0
220
-0.0000000000000002
230
-1.0
 50
160.0000000000011937
 51
179.9999999999988063
  0
LINE
  5
2843
  8
0
  6
AUSGEZOGEN
 62
     3
 10
54.0000000000000497
 20
12.5314222700814906
 30
-0.0000000000000028
 11
54.0000000000000497
 21
0.0
 31
0.0
210
0.0
220
1.0
230
-0.0000000000000002
  0
LINE
  5
2844
  8
0
  6
AUSGEZOGEN
 62
     3
 10
-54.0000000000000497
 20
12.5314222700814906
 30
-0.0000000000000028
 11
-54.0000000000000497
 21
0.0
 31
0.0
210
0.0
220
1.0
230
-0.0000000000000002
  0
LINE
  5
2845
  8
0
  6
AUSGEZOGEN
 62
     3
 10
43.2527355812501284
 20
62.5700000000000571
 30
-0.0000000000000139
 11
33.6601938457109782
 21
62.5700000000000571
 31
-0.0000000000000139
210
0.0
220
1.0
230
-0.0000000000000002
  0
LINE
  5
2846
  8
0
  6
AUSGEZOGEN
 62
     3
 10
43.2527355812501284
 20
61.0700000000000571
 30
-0.0000000000000136
 11
33.6601938457109782
 21
61.0700000000000571
 31
-0.0000000000000136
210
0.0
220
1.0
230
-0.0000000000000002
  0
LINE
  5
2847
  8
0
  6
AUSGEZOGEN
 62
     3
 10
43.2527355812501284
 20
62.5700000000000571
 30
-0.0000000000000139
 11
44.0982044914695734
 21
62.5700000000000571
 31
-0.0000000000000139
210
0.0
220
1.0
230
-0.0000000000000002
  0
LINE
  5
2848
  8
0
  6
AUSGEZOGEN
 62
     3
 10
43.2527355812501284
 20
61.0700000000000571
 30
-0.0000000000000136
 11
44.0982044914695734
 21
61.0700000000000571
 31
-0.0000000000000136
210
0.0
220
1.0
230
-0.0000000000000002
  0
LINE
  5
2849
  8
0
  6
AUSGEZOGEN
 62
     3
 10
44.0982044914696303
 20
62.5700000000000713
 30
-0.0000000000000139
 11
46.3826299451475279
 21
62.5700000000000713
 31
-0.0000000000000139
210
0.0
220
1.0
230
-0.0000000000000002
  0
LINE
  5
284A
  8
0
  6
AUSGEZOGEN
 62
     3
 10
44.0982044914696303
 20
61.0700000000000713
 30
-0.0000000000000136
 11
46.3826299451475279
 21
61.0700000000000713
 31
-0.0000000000000136
210
0.0
220
1.0
230
-0.0000000000000002
  0
LINE
  5
284B
  8
0
  6
AUSGEZOGEN
 62
     3
 10
46.3826299451475279
 20
62.5700000000000571
 30
-0.0000000000000139
 11
46.6579013522547186
 21
62.5700000000000571
 31
-0.0000000000000139
210
0.0
220
1.0
230
-0.0000000000000002
  0
LINE
  5
284C
  8
0
  6
AUSGEZOGEN
 62
     3
 10
46.3826299451475279
 20
61.0700000000000571
 30
-0.0000000000000136
 11
46.6579013522547186
 21
61.0700000000000571
 31
-0.0000000000000136
210
0.0
220
1.0
230
-0.0000000000000002
  0
LINE
  5
284D
  8
0
  6
AUSGEZOGEN
 62
     3
 10
55.5500759498705676
 20
62.5700000000000571
 30
-0.0000000000000139
 11
46.6579013522547186
 21
62.5700000000000571
 31
-0.0000000000000139
210
0.0
220
1.0
230
-0.0000000000000002
  0
LINE
  5
284E
  8
0
  6
AUSGEZOGEN
 62
     3
 10
55.5500759498705676
 20
61.0700000000000571
 30
-0.0000000000000136
 11
46.6579013522547186
 21
61.0700000000000571
 31
-0.0000000000000136
210
0.0
220
1.0
230
-0.0000000000000002
  0
LINE
  5
284F
  8
0
  6
AUSGEZOGEN
 62
     3
 10
55.5500759498705889
 20
62.5700000000000571
 30
-0.0000000000000139
 11
56.2729056353832675
 21
62.5700000000000571
 31
-0.0000000000000139
210
0.0
220
1.0
230
-0.0000000000000002
  0
LINE
  5
2850
  8
0
  6
AUSGEZOGEN
 62
     3
 10
55.5500759498705889
 20
61.0700000000000571
 30
-0.0000000000000136
 11
56.2729056353832675
 21
61.0700000000000571
 31
-0.0000000000000136
210
0.0
220
1.0
230
-0.0000000000000002
  0
LINE
  5
2851
  8
0
  6
AUSGEZOGEN
 62
     3
 10
56.2729056353832675
 20
62.5700000000000571
 30
-0.0000000000000139
 11
57.7395970615250533
 21
62.5700000000000571
 31
-0.0000000000000139
210
0.0
220
1.0
230
-0.0000000000000002
  0
LINE
  5
2852
  8
0
  6
AUSGEZOGEN
 62
     3
 10
56.2729056353832675
 20
61.0700000000000571
 30
-0.0000000000000136
 11
57.7395970615250533
 21
61.0700000000000571
 31
-0.0000000000000136
210
0.0
220
1.0
230
-0.0000000000000002
  0
LINE
  5
2853
  8
0
  6
AUSGEZOGEN
 62
     3
 10
57.7395970615250391
 20
62.5700000000000571
 30
-0.0000000000000139
 11
57.8374158574387209
 21
62.5700000000000571
 31
-0.0000000000000139
210
0.0
220
1.0
230
-0.0000000000000002
  0
LINE
  5
2854
  8
0
  6
AUSGEZOGEN
 62
     3
 10
57.7395970615250391
 20
61.0700000000000571
 30
-0.0000000000000136
 11
57.8374158574387209
 21
61.0700000000000571
 31
-0.0000000000000136
210
0.0
220
1.0
230
-0.0000000000000002
  0
LINE
  5
2855
  8
0
  6
AUSGEZOGEN
 62
     3
 10
62.4097878443801619
 20
62.5700000000000571
 30
-0.0000000000000139
 11
57.8374158574387209
 21
62.5700000000000571
 31
-0.0000000000000139
210
0.0
220
1.0
230
-0.0000000000000002
  0
LINE
  5
2856
  8
0
  6
AUSGEZOGEN
 62
     3
 10
62.4097878443801619
 20
61.0700000000000571
 30
-0.0000000000000136
 11
57.8374158574387209
 21
61.0700000000000571
 31
-0.0000000000000136
210
0.0
220
1.0
230
-0.0000000000000002
  0
LINE
  5
2857
  8
0
  6
AUSGEZOGEN
 62
     3
 10
62.4097878443801619
 20
62.5700000000000571
 30
-0.0000000000000139
 11
62.9392226993174972
 21
62.5700000000000571
 31
-0.0000000000000139
210
0.0
220
1.0
230
-0.0000000000000002
  0
LINE
  5
2858
  8
0
  6
AUSGEZOGEN
 62
     3
 10
62.4097878443801619
 20
61.0700000000000571
 30
-0.0000000000000136
 11
62.9392226993174972
 21
61.0700000000000571
 31
-0.0000000000000136
210
0.0
220
1.0
230
-0.0000000000000002
  0
LINE
  5
2859
  8
0
  6
AUSGEZOGEN
 62
     3
 10
62.9392226993174972
 20
62.5700000000000571
 30
-0.0000000000000139
 11
63.4446101220922927
 21
62.5700000000000571
 31
-0.0000000000000139
210
0.0
220
1.0
230
-0.0000000000000002
  0
LINE
  5
285A
  8
0
  6
AUSGEZOGEN
 62
     3
 10
62.9392226993174972
 20
61.0700000000000571
 30
-0.0000000000000136
 11
63.4446101220922927
 21
61.0700000000000571
 31
-0.0000000000000136
210
0.0
220
1.0
230
-0.0000000000000002
  0
LINE
  5
285B
  8
0
  6
AUSGEZOGEN
 62
     3
 10
63.4446101220922927
 20
62.5700000000000571
 30
-0.0000000000000139
 11
63.4532880889345208
 21
62.5700000000000571
 31
-0.0000000000000139
210
0.0
220
1.0
230
-0.0000000000000002
  0
LINE
  5
285C
  8
0
  6
AUSGEZOGEN
 62
     3
 10
63.4446101220922927
 20
61.0700000000000571
 30
-0.0000000000000136
 11
63.4532880889345208
 21
61.0700000000000571
 31
-0.0000000000000136
210
0.0
220
1.0
230
-0.0000000000000002
  0
LINE
  5
285D
  8
0
  6
AUSGEZOGEN
 62
     3
 10
-63.4532880889350892
 20
62.5700000000000571
 30
-0.0000000000000139
 11
-63.44461012209279
 21
62.5700000000000571
 31
-0.0000000000000139
210
0.0
220
1.0
230
-0.0000000000000002
  0
LINE
  5
285E
  8
0
  6
AUSGEZOGEN
 62
     3
 10
-63.4532880889350892
 20
61.0700000000000571
 30
-0.0000000000000136
 11
-63.44461012209279
 21
61.0700000000000571
 31
-0.0000000000000136
210
0.0
220
1.0
230
-0.0000000000000002
  0
LINE
  5
285F
  8
0
  6
AUSGEZOGEN
 62
     3
 10
-63.44461012209279
 20
62.5700000000000571
 30
-0.0000000000000139
 11
-62.9392226993180088
 21
62.5700000000000571
 31
-0.0000000000000139
210
0.0
220
1.0
230
-0.0000000000000002
  0
LINE
  5
2860
  8
0
  6
AUSGEZOGEN
 62
     3
 10
-63.44461012209279
 20
61.0700000000000571
 30
-0.0000000000000136
 11
-62.9392226993180088
 21
61.0700000000000571
 31
-0.0000000000000136
210
0.0
220
1.0
230
-0.0000000000000002
  0
LINE
  5
2861
  8
0
  6
AUSGEZOGEN
 62
     3
 10
-62.939222699317952
 20
62.5700000000000571
 30
-0.0000000000000139
 11
-62.4097878443807872
 21
62.5700000000000571
 31
-0.0000000000000139
210
0.0
220
1.0
230
-0.0000000000000002
  0
LINE
  5
2862
  8
0
  6
AUSGEZOGEN
 62
     3
 10
-62.939222699317952
 20
61.0700000000000571
 30
-0.0000000000000136
 11
-62.4097878443807872
 21
61.0700000000000571
 31
-0.0000000000000136
210
0.0
220
1.0
230
-0.0000000000000002
  0
LINE
  5
2863
  8
0
  6
AUSGEZOGEN
 62
     3
 10
-57.8374158574391686
 20
62.5700000000000571
 30
-0.0000000000000139
 11
-62.4097878443807872
 21
62.5700000000000571
 31
-0.0000000000000139
210
0.0
220
1.0
230
-0.0000000000000002
  0
LINE
  5
2864
  8
0
  6
AUSGEZOGEN
 62
     3
 10
-57.8374158574391686
 20
61.0700000000000571
 30
-0.0000000000000136
 11
-62.4097878443807872
 21
61.0700000000000571
 31
-0.0000000000000136
210
0.0
220
1.0
230
-0.0000000000000002
  0
LINE
  5
2865
  8
0
  6
AUSGEZOGEN
 62
     3
 10
-57.8374158574391615
 20
62.5700000000000571
 30
-0.0000000000000139
 11
-57.739597061525501
 21
62.5700000000000571
 31
-0.0000000000000139
210
0.0
220
1.0
230
-0.0000000000000002
  0
LINE
  5
2866
  8
0
  6
AUSGEZOGEN
 62
     3
 10
-57.8374158574391615
 20
61.0700000000000571
 30
-0.0000000000000136
 11
-57.739597061525501
 21
61.0700000000000571
 31
-0.0000000000000136
210
0.0
220
1.0
230
-0.0000000000000002
  0
LINE
  5
2867
  8
0
  6
AUSGEZOGEN
 62
     3
 10
-57.7395970615255081
 20
62.5700000000000713
 30
-0.0000000000000139
 11
-56.2729056353837791
 21
62.5700000000000713
 31
-0.0000000000000139
210
0.0
220
1.0
230
-0.0000000000000002
  0
LINE
  5
2868
  8
0
  6
AUSGEZOGEN
 62
     3
 10
-57.7395970615255081
 20
61.0700000000000713
 30
-0.0000000000000136
 11
-56.2729056353837791
 21
61.0700000000000713
 31
-0.0000000000000136
210
0.0
220
1.0
230
-0.0000000000000002
  0
LINE
  5
2869
  8
0
  6
AUSGEZOGEN
 62
     3
 10
-56.272905635383772
 20
62.5700000000000571
 30
-0.0000000000000139
 11
-55.5500759498710934
 21
62.5700000000000571
 31
-0.0000000000000139
210
0.0
220
1.0
230
-0.0000000000000002
  0
LINE
  5
286A
  8
0
  6
AUSGEZOGEN
 62
     3
 10
-56.272905635383772
 20
61.0700000000000571
 30
-0.0000000000000136
 11
-55.5500759498710934
 21
61.0700000000000571
 31
-0.0000000000000136
210
0.0
220
1.0
230
-0.0000000000000002
  0
LINE
  5
286B
  8
0
  6
AUSGEZOGEN
 62
     3
 10
-46.6579013522550596
 20
62.5700000000000571
 30
-0.0000000000000139
 11
-55.5500759498710934
 21
62.5700000000000571
 31
-0.0000000000000139
210
0.0
220
1.0
230
-0.0000000000000002
  0
LINE
  5
286C
  8
0
  6
AUSGEZOGEN
 62
     3
 10
-46.6579013522550596
 20
61.0700000000000571
 30
-0.0000000000000136
 11
-55.5500759498710934
 21
61.0700000000000571
 31
-0.0000000000000136
210
0.0
220
1.0
230
-0.0000000000000002
  0
LINE
  5
286D
  8
0
  6
AUSGEZOGEN
 62
     3
 10
-46.6579013522550667
 20
62.5700000000000571
 30
-0.0000000000000139
 11
-46.3826299451479827
 21
62.5700000000000571
 31
-0.0000000000000139
210
0.0
220
1.0
230
-0.0000000000000002
  0
LINE
  5
286E
  8
0
  6
AUSGEZOGEN
 62
     3
 10
-46.6579013522550667
 20
61.0700000000000571
 30
-0.0000000000000136
 11
-46.3826299451479827
 21
61.0700000000000571
 31
-0.0000000000000136
210
0.0
220
1.0
230
-0.0000000000000002
  0
LINE
  5
286F
  8
0
  6
AUSGEZOGEN
 62
     3
 10
-46.3826299451479684
 20
62.5700000000000713
 30
-0.0000000000000139
 11
-44.0982044914700211
 21
62.5700000000000713
 31
-0.0000000000000139
210
0.0
220
1.0
230
-0.0000000000000002
  0
LINE
  5
2870
  8
0
  6
AUSGEZOGEN
 62
     3
 10
-46.3826299451479684
 20
61.0700000000000713
 30
-0.0000000000000136
 11
-44.0982044914700211
 21
61.0700000000000713
 31
-0.0000000000000136
210
0.0
220
1.0
230
-0.0000000000000002
  0
LINE
  5
2871
  8
0
  6
AUSGEZOGEN
 62
     3
 10
-44.0982044914700779
 20
62.5700000000000571
 30
-0.0000000000000139
 11
-43.2527355812505903
 21
62.5700000000000571
 31
-0.0000000000000139
210
0.0
220
1.0
230
-0.0000000000000002
  0
LINE
  5
2872
  8
0
  6
AUSGEZOGEN
 62
     3
 10
-44.0982044914700779
 20
61.0700000000000571
 30
-0.0000000000000136
 11
-43.2527355812505903
 21
61.0700000000000571
 31
-0.0000000000000136
210
0.0
220
1.0
230
-0.0000000000000002
  0
LINE
  5
2873
  8
0
  6
AUSGEZOGEN
 62
     3
 10
-33.6601938457114329
 20
62.5700000000000571
 30
-0.0000000000000139
 11
-43.2527355812505903
 21
62.5700000000000571
 31
-0.0000000000000139
210
0.0
220
1.0
230
-0.0000000000000002
  0
LINE
  5
2874
  8
0
  6
AUSGEZOGEN
 62
     3
 10
-33.6601938457114329
 20
61.0700000000000571
 30
-0.0000000000000136
 11
-43.2527355812505903
 21
61.0700000000000571
 31
-0.0000000000000136
210
0.0
220
1.0
230
-0.0000000000000002
  0
LINE
  5
2875
  8
0
  6
AUSGEZOGEN
 62
     3
 10
-32.5160710400760991
 20
62.5700000000000571
 30
-0.0000000000000139
 11
-33.6601938457114329
 21
62.5700000000000571
 31
-0.0000000000000139
210
0.0
220
1.0
230
-0.0000000000000002
  0
LINE
  5
2876
  8
0
  6
AUSGEZOGEN
 62
     3
 10
-32.5160710400760991
 20
61.0700000000000571
 30
-0.0000000000000136
 11
-33.6601938457114329
 21
61.0700000000000571
 31
-0.0000000000000136
210
0.0
220
1.0
230
-0.0000000000000002
  0
LINE
  5
2877
  8
0
  6
AUSGEZOGEN
 62
     3
 10
-30.9967616860029196
 20
62.5700000000000571
 30
-0.0000000000000139
 11
-32.5160710400760991
 21
62.5700000000000571
 31
-0.0000000000000139
210
0.0
220
1.0
230
-0.0000000000000002
  0
LINE
  5
2878
  8
0
  6
AUSGEZOGEN
 62
     3
 10
-30.9967616860029196
 20
61.0700000000000571
 30
-0.0000000000000136
 11
-32.5160710400760991
 21
61.0700000000000571
 31
-0.0000000000000136
210
0.0
220
1.0
230
-0.0000000000000002
  0
LINE
  5
2879
  8
0
  6
AUSGEZOGEN
 62
     3
 10
-30.9967616860028805
 20
62.5700000000000571
 30
-0.0000000000000139
 11
-30.4854078429539186
 21
62.5700000000000571
 31
-0.0000000000000139
210
0.0
220
1.0
230
-0.0000000000000002
  0
LINE
  5
287A
  8
0
  6
AUSGEZOGEN
 62
     3
 10
-30.9967616860028805
 20
61.0700000000000571
 30
-0.0000000000000136
 11
-30.4854078429539186
 21
61.0700000000000571
 31
-0.0000000000000136
210
0.0
220
1.0
230
-0.0000000000000002
  0
LINE
  5
287B
  8
0
  6
AUSGEZOGEN
 62
     3
 10
-30.4854078429539186
 20
62.5700000000000713
 30
-0.0000000000000139
 11
-27.6068638416737713
 21
62.5700000000000713
 31
-0.0000000000000139
210
0.0
220
1.0
230
-0.0000000000000002
  0
LINE
  5
287C
  8
0
  6
AUSGEZOGEN
 62
     3
 10
-30.4854078429539186
 20
61.0700000000000713
 30
-0.0000000000000136
 11
-27.6068638416737713
 21
61.0700000000000713
 31
-0.0000000000000136
210
0.0
220
1.0
230
-0.0000000000000002
  0
LINE
  5
287D
  8
0
  6
AUSGEZOGEN
 62
     3
 10
-27.6068638416737606
 20
62.5700000000000713
 30
-0.0000000000000139
 11
-26.7215160944081198
 21
62.5700000000000713
 31
-0.0000000000000139
210
0.0
220
1.0
230
-0.0000000000000002
  0
LINE
  5
287E
  8
0
  6
AUSGEZOGEN
 62
     3
 10
-27.6068638416737606
 20
61.0700000000000571
 30
-0.0000000000000136
 11
-26.7215160944081198
 21
61.0700000000000571
 31
-0.0000000000000136
210
0.0
220
1.0
230
-0.0000000000000002
  0
LINE
  5
287F
  8
0
  6
AUSGEZOGEN
 62
     3
 10
-18.0679591791117709
 20
62.5700000000000571
 30
-0.0000000000000139
 11
-26.7215160944081198
 21
62.5700000000000571
 31
-0.0000000000000139
210
0.0
220
1.0
230
-0.0000000000000002
  0
LINE
  5
2880
  8
0
  6
AUSGEZOGEN
 62
     3
 10
-18.0679591791117709
 20
61.0700000000000571
 30
-0.0000000000000136
 11
-26.7215160944081198
 21
61.0700000000000571
 31
-0.0000000000000136
210
0.0
220
1.0
230
-0.0000000000000002
  0
LINE
  5
2881
  8
0
  6
AUSGEZOGEN
 62
     3
 10
-16.7229621551838896
 20
62.5700000000000571
 30
-0.0000000000000139
 11
-18.0679591791118312
 21
62.5700000000000571
 31
-0.0000000000000139
210
0.0
220
1.0
230
-0.0000000000000002
  0
LINE
  5
2882
  8
0
  6
AUSGEZOGEN
 62
     3
 10
-16.7229621551838896
 20
61.0700000000000571
 30
-0.0000000000000136
 11
-18.0679591791118312
 21
61.0700000000000571
 31
-0.0000000000000136
210
0.0
220
1.0
230
-0.0000000000000002
  0
LINE
  5
2883
  8
0
  6
AUSGEZOGEN
 62
     3
 10
-12.3137546781919092
 20
62.5700000000000713
 30
-0.0000000000000139
 11
-16.7229621551838896
 21
62.5700000000000713
 31
-0.0000000000000139
210
0.0
220
1.0
230
-0.0000000000000002
  0
LINE
  5
2884
  8
0
  6
AUSGEZOGEN
 62
     3
 10
-12.3137546781919092
 20
61.0700000000000713
 30
-0.0000000000000136
 11
-16.7229621551838896
 21
61.0700000000000713
 31
-0.0000000000000136
210
0.0
220
1.0
230
-0.0000000000000002
  0
LINE
  5
2885
  8
0
  6
AUSGEZOGEN
 62
     3
 10
-12.3137546781919198
 20
62.5700000000000713
 30
-0.0000000000000139
 11
-11.6040616167655308
 21
62.5700000000000713
 31
-0.0000000000000139
210
0.0
220
1.0
230
-0.0000000000000002
  0
LINE
  5
2886
  8
0
  6
AUSGEZOGEN
 62
     3
 10
-12.3137546781919198
 20
61.0700000000000713
 30
-0.0000000000000136
 11
-11.6040616167655308
 21
61.0700000000000713
 31
-0.0000000000000136
210
0.0
220
1.0
230
-0.0000000000000002
  0
LINE
  5
2887
  8
0
  6
AUSGEZOGEN
 62
     3
 10
-11.6040616167655308
 20
62.5700000000000713
 30
-0.0000000000000139
 11
-8.4131710107238877
 21
62.5700000000000713
 31
-0.0000000000000139
210
0.0
220
1.0
230
-0.0000000000000002
  0
LINE
  5
2888
  8
0
  6
AUSGEZOGEN
 62
     3
 10
-11.6040616167655308
 20
61.0700000000000713
 30
-0.0000000000000136
 11
-8.4131710107238877
 21
61.0700000000000713
 31
-0.0000000000000136
210
0.0
220
1.0
230
-0.0000000000000002
  0
LINE
  5
2889
  8
0
  6
AUSGEZOGEN
 62
     3
 10
-8.4131710107238842
 20
62.5700000000000713
 30
-0.0000000000000139
 11
-7.574608432494756
 21
62.5700000000000713
 31
-0.0000000000000139
210
0.0
220
1.0
230
-0.0000000000000002
  0
LINE
  5
288A
  8
0
  6
AUSGEZOGEN
 62
     3
 10
-8.4131710107238842
 20
61.0700000000000713
 30
-0.0000000000000136
 11
-7.574608432494756
 21
61.0700000000000713
 31
-0.0000000000000136
210
0.0
220
1.0
230
-0.0000000000000002
  0
LINE
  5
288B
  8
0
  6
AUSGEZOGEN
 62
     3
 10
-0.7071067811867806
 20
62.5700000000000571
 30
-0.0000000000000139
 11
-7.574608432494756
 21
62.5700000000000571
 31
-0.0000000000000139
210
0.0
220
1.0
230
-0.0000000000000002
  0
LINE
  5
288C
  8
0
  6
AUSGEZOGEN
 62
     3
 10
-0.7071067811867806
 20
61.0700000000000571
 30
-0.0000000000000136
 11
-7.574608432494756
 21
61.0700000000000571
 31
-0.0000000000000136
210
0.0
220
1.0
230
-0.0000000000000002
  0
LINE
  5
288D
  8
0
  6
AUSGEZOGEN
 62
     3
 10
0.7071067811863259
 20
62.5700000000000713
 30
-0.0000000000000139
 11
-0.7071067811867806
 21
62.5700000000000713
 31
-0.0000000000000139
210
0.0
220
1.0
230
-0.0000000000000002
  0
LINE
  5
288E
  8
0
  6
AUSGEZOGEN
 62
     3
 10
0.7071067811863259
 20
61.0700000000000571
 30
-0.0000000000000136
 11
-0.7071067811867806
 21
61.0700000000000571
 31
-0.0000000000000136
210
0.0
220
1.0
230
-0.0000000000000002
  0
LINE
  5
288F
  8
0
  6
AUSGEZOGEN
 62
     3
 10
7.5746084324941867
 20
62.5700000000000713
 30
-0.0000000000000139
 11
0.7071067811863259
 21
62.5700000000000713
 31
-0.0000000000000139
210
0.0
220
1.0
230
-0.0000000000000002
  0
LINE
  5
2890
  8
0
  6
AUSGEZOGEN
 62
     3
 10
7.5746084324941867
 20
61.0700000000000713
 30
-0.0000000000000136
 11
0.7071067811863259
 21
61.0700000000000713
 31
-0.0000000000000136
210
0.0
220
1.0
230
-0.0000000000000002
  0
LINE
  5
2891
  8
0
  6
AUSGEZOGEN
 62
     3
 10
7.5746084324941991
 20
62.5700000000000713
 30
-0.0000000000000139
 11
8.4131710107233175
 21
62.5700000000000713
 31
-0.0000000000000139
210
0.0
220
1.0
230
-0.0000000000000002
  0
LINE
  5
2892
  8
0
  6
AUSGEZOGEN
 62
     3
 10
7.5746084324941991
 20
61.0700000000000713
 30
-0.0000000000000136
 11
8.4131710107233175
 21
61.0700000000000713
 31
-0.0000000000000136
210
0.0
220
1.0
230
-0.0000000000000002
  0
LINE
  5
2893
  8
0
  6
AUSGEZOGEN
 62
     3
 10
8.4131710107233193
 20
62.5700000000000713
 30
-0.0000000000000139
 11
11.6040616167649695
 21
62.5700000000000713
 31
-0.0000000000000139
210
0.0
220
1.0
230
-0.0000000000000002
  0
LINE
  5
2894
  8
0
  6
AUSGEZOGEN
 62
     3
 10
8.4131710107233193
 20
61.0700000000000713
 30
-0.0000000000000136
 11
11.6040616167649695
 21
61.0700000000000713
 31
-0.0000000000000136
210
0.0
220
1.0
230
-0.0000000000000002
  0
LINE
  5
2895
  8
0
  6
AUSGEZOGEN
 62
     3
 10
11.6040616167649606
 20
62.5700000000000713
 30
-0.0000000000000139
 11
12.3137546781913993
 21
62.5700000000000713
 31
-0.0000000000000139
210
0.0
220
1.0
230
-0.0000000000000002
  0
LINE
  5
2896
  8
0
  6
AUSGEZOGEN
 62
     3
 10
11.6040616167649606
 20
61.0700000000000713
 30
-0.0000000000000136
 11
12.3137546781913993
 21
61.0700000000000713
 31
-0.0000000000000136
210
0.0
220
1.0
230
-0.0000000000000002
  0
LINE
  5
2897
  8
0
  6
AUSGEZOGEN
 62
     3
 10
16.7229621551833816
 20
62.5700000000000571
 30
-0.0000000000000139
 11
12.3137546781913993
 21
62.5700000000000571
 31
-0.0000000000000139
210
0.0
220
1.0
230
-0.0000000000000002
  0
LINE
  5
2898
  8
0
  6
AUSGEZOGEN
 62
     3
 10
16.7229621551833816
 20
61.0700000000000571
 30
-0.0000000000000136
 11
12.3137546781913993
 21
61.0700000000000571
 31
-0.0000000000000136
210
0.0
220
1.0
230
-0.0000000000000002
  0
LINE
  5
2899
  8
0
  6
AUSGEZOGEN
 62
     3
 10
18.067959179111309
 20
62.5700000000000571
 30
-0.0000000000000139
 11
16.72296215518341
 21
62.5700000000000571
 31
-0.0000000000000139
210
0.0
220
1.0
230
-0.0000000000000002
  0
LINE
  5
289A
  8
0
  6
AUSGEZOGEN
 62
     3
 10
18.067959179111309
 20
61.0700000000000571
 30
-0.0000000000000136
 11
16.72296215518341
 21
61.0700000000000571
 31
-0.0000000000000136
210
0.0
220
1.0
230
-0.0000000000000002
  0
LINE
  5
289B
  8
0
  6
AUSGEZOGEN
 62
     3
 10
26.7215160944076011
 20
62.5700000000000713
 30
-0.0000000000000139
 11
18.067959179111309
 21
62.5700000000000713
 31
-0.0000000000000139
210
0.0
220
1.0
230
-0.0000000000000002
  0
LINE
  5
289C
  8
0
  6
AUSGEZOGEN
 62
     3
 10
26.7215160944076011
 20
61.0700000000000713
 30
-0.0000000000000136
 11
18.067959179111309
 21
61.0700000000000713
 31
-0.0000000000000136
210
0.0
220
1.0
230
-0.0000000000000002
  0
LINE
  5
289D
  8
0
  6
AUSGEZOGEN
 62
     3
 10
26.7215160944076118
 20
62.5700000000000713
 30
-0.0000000000000139
 11
27.6068638416733201
 21
62.5700000000000713
 31
-0.0000000000000139
210
0.0
220
1.0
230
-0.0000000000000002
  0
LINE
  5
289E
  8
0
  6
AUSGEZOGEN
 62
     3
 10
26.7215160944076118
 20
61.0700000000000571
 30
-0.0000000000000136
 11
27.6068638416733201
 21
61.0700000000000571
 31
-0.0000000000000136
210
0.0
220
1.0
230
-0.0000000000000002
  0
LINE
  5
289F
  8
0
  6
AUSGEZOGEN
 62
     3
 10
27.6068638416733094
 20
62.5700000000000713
 30
-0.0000000000000139
 11
30.4854078429535207
 21
62.5700000000000713
 31
-0.0000000000000139
210
0.0
220
1.0
230
-0.0000000000000002
  0
LINE
  5
28A0
  8
0
  6
AUSGEZOGEN
 62
     3
 10
27.6068638416733094
 20
61.0700000000000713
 30
-0.0000000000000136
 11
30.4854078429535207
 21
61.0700000000000713
 31
-0.0000000000000136
210
0.0
220
1.0
230
-0.0000000000000002
  0
LINE
  5
28A1
  8
0
  6
AUSGEZOGEN
 62
     3
 10
30.4854078429535207
 20
62.5700000000000571
 30
-0.0000000000000139
 11
30.9967616860025217
 21
62.5700000000000571
 31
-0.0000000000000139
210
0.0
220
1.0
230
-0.0000000000000002
  0
LINE
  5
28A2
  8
0
  6
AUSGEZOGEN
 62
     3
 10
30.4854078429535207
 20
61.0700000000000571
 30
-0.0000000000000136
 11
30.9967616860025217
 21
61.0700000000000571
 31
-0.0000000000000136
210
0.0
220
1.0
230
-0.0000000000000002
  0
LINE
  5
28A3
  8
0
  6
AUSGEZOGEN
 62
     3
 10
32.5160710400756514
 20
62.5700000000000571
 30
-0.0000000000000139
 11
30.9967616860025217
 21
62.5700000000000571
 31
-0.0000000000000139
210
0.0
220
1.0
230
-0.0000000000000002
  0
LINE
  5
28A4
  8
0
  6
AUSGEZOGEN
 62
     3
 10
32.5160710400756514
 20
61.0700000000000571
 30
-0.0000000000000136
 11
30.9967616860025217
 21
61.0700000000000571
 31
-0.0000000000000136
210
0.0
220
1.0
230
-0.0000000000000002
  0
LINE
  5
28A5
  8
0
  6
AUSGEZOGEN
 62
     3
 10
33.6601938457109782
 20
62.5700000000000571
 30
-0.0000000000000139
 11
32.5160710400756514
 21
62.5700000000000571
 31
-0.0000000000000139
210
0.0
220
1.0
230
-0.0000000000000002
  0
LINE
  5
28A6
  8
0
  6
AUSGEZOGEN
 62
     3
 10
33.6601938457109782
 20
61.0700000000000571
 30
-0.0000000000000136
 11
32.5160710400756514
 21
61.0700000000000571
 31
-0.0000000000000136
210
0.0
220
1.0
230
-0.0000000000000002
  0
LINE
  5
28A7
  8
0
  6
AUSGEZOGEN
 62
     3
 10
46.6579013522546973
 20
62.5700000000000571
 30
-0.0000000000000139
 11
46.6579013522546973
 21
61.0700000000000571
 31
-0.0000000000000136
210
0.0
220
1.0
230
-0.0000000000000002
  0
LINE
  5
28A8
  8
0
  6
AUSGEZOGEN
 62
     3
 10
57.8374158574387565
 20
62.5700000000000571
 30
-0.0000000000000139
 11
57.8374158574387565
 21
61.0700000000000571
 31
-0.0000000000000136
210
0.0
220
1.0
230
-0.0000000000000002
  0
LINE
  5
28A9
  8
0
  6
AUSGEZOGEN
 62
     3
 10
63.4532880889345634
 20
62.5700000000000571
 30
-0.0000000000000139
 11
63.4532880889345634
 21
61.0700000000000571
 31
-0.0000000000000136
210
0.0
220
1.0
230
-0.0000000000000002
  0
LINE
  5
28AA
  8
0
  6
AUSGEZOGEN
 62
     3
 10
-63.4532880889350892
 20
62.5700000000000571
 30
-0.0000000000000139
 11
-63.4532880889350892
 21
61.0700000000000571
 31
-0.0000000000000136
210
0.0
220
1.0
230
-0.0000000000000002
  0
LINE
  5
28AB
  8
0
  6
AUSGEZOGEN
 62
     3
 10
-57.8374158574391615
 20
62.5700000000000571
 30
-0.0000000000000139
 11
-57.8374158574391615
 21
61.0700000000000571
 31
-0.0000000000000136
210
0.0
220
1.0
230
-0.0000000000000002
  0
LINE
  5
28AC
  8
0
  6
AUSGEZOGEN
 62
     3
 10
-46.6579013522550525
 20
62.5700000000000571
 30
-0.0000000000000139
 11
-46.6579013522550525
 21
61.0700000000000571
 31
-0.0000000000000136
210
0.0
220
1.0
230
-0.0000000000000002
  0
LINE
  5
28AD
  8
0
  6
VERDECKT
 62
     1
 10
46.9999999999997726
 20
132.0
 30
-0.0000000000000293
 11
46.9999999999997726
 21
125.0
 31
-0.0000000000000278
210
0.0
220
1.0
230
-0.0000000000000002
  0
LINE
  5
28AE
  8
0
  6
VERDECKT
 62
     1
 10
49.0
 20
125.0
 30
-0.0000000000000278
 11
47.0
 21
125.0
 31
-0.0000000000000278
210
0.0
220
1.0
230
-0.0000000000000002
  0
LINE
  5
28AF
  8
0
  6
VERDECKT
 62
     1
 10
47.0
 20
132.0
 30
-0.0000000000000293
 11
49.0
 21
132.0
 31
-0.0000000000000293
210
0.0
220
1.0
230
-0.0000000000000002
  0
LINE
  5
28B0
  8
0
  6
VERDECKT
 62
     1
 10
-11.5000000000015898
 20
125.0
 30
-0.0000000000000278
 11
-11.5000000000015898
 21
132.0
 31
-0.0000000000000293
210
0.0
220
1.0
230
-0.0000000000000002
  0
LINE
  5
28B1
  8
0
  6
VERDECKT
 62
     1
 10
-35.4999999999988702
 20
132.0
 30
-0.0000000000000293
 11
-35.4999999999988702
 21
125.0
 31
-0.0000000000000278
210
0.0
220
1.0
230
-0.0000000000000002
  0
LINE
  5
28B2
  8
0
  6
VERDECKT
 62
     1
 10
-13.5674797050268108
 20
132.0
 30
-0.0000000000000293
 11
-11.5000000000001101
 21
132.0
 31
-0.0000000000000293
210
0.0
220
1.0
230
-0.0000000000000002
  0
LINE
  5
28B3
  8
0
  6
VERDECKT
 62
     1
 10
-35.4999999999998934
 20
132.0
 30
-0.0000000000000293
 11
-35.4325202949731874
 21
132.0
 31
-0.0000000000000293
210
0.0
220
1.0
230
-0.0000000000000002
  0
LINE
  5
28B4
  8
0
  6
VERDECKT
 62
     1
 10
-11.5000000000001101
 20
125.0
 30
-0.0000000000000278
 11
-13.5674797050268108
 21
125.0
 31
-0.0000000000000278
210
0.0
220
1.0
230
-0.0000000000000002
  0
LINE
  5
28B5
  8
0
  6
VERDECKT
 62
     1
 10
-35.4325202949731874
 20
125.0
 30
-0.0000000000000278
 11
-35.4999999999998934
 21
125.0
 31
-0.0000000000000278
210
0.0
220
1.0
230
-0.0000000000000002
  0
LINE
  5
28B6
  8
0
  6
VERDECKT
 62
     1
 10
-47.0000000000002274
 20
125.0
 30
-0.0000000000000278
 11
-47.0000000000002274
 21
132.0
 31
-0.0000000000000293
210
0.0
220
1.0
230
-0.0000000000000002
  0
LINE
  5
28B7
  8
0
  6
VERDECKT
 62
     1
 10
-46.9999999999998792
 20
125.0
 30
-0.0000000000000278
 11
-49.0
 21
125.0
 31
-0.0000000000000278
210
0.0
220
1.0
230
-0.0000000000000002
  0
LINE
  5
28B8
  8
0
  6
VERDECKT
 62
     1
 10
-49.0000000000000071
 20
132.0
 30
-0.0000000000000293
 11
-46.9999999999998792
 21
132.0
 31
-0.0000000000000293
210
0.0
220
1.0
230
-0.0000000000000002
  0
LINE
  5
28B9
  8
0
  6
VERDECKT
 62
     1
 10
52.4000000000000909
 20
12.5314222700814906
 30
-0.0000000000000028
 11
52.4000000000000909
 21
0.0
 31
0.0
210
0.0
220
1.0
230
-0.0000000000000002
  0
LINE
  5
28BA
  8
0
  6
VERDECKT
 62
     1
 10
-52.4000000000000909
 20
12.5314222700814906
 30
-0.0000000000000028
 11
-52.4000000000000909
 21
0.0
 31
0.0
210
0.0
220
1.0
230
-0.0000000000000002
  0
ARC
  5
28BB
  8
0
  6
VERDECKT
 62
     1
 10
38.399999999999288
 20
12.5314222700812206
 30
0.0
 40
14.00000000000081
210
0.0
220
-0.0000000000000002
230
-1.0
 50
0.0000000000011196
 51
20.0000000000000213
  0
ARC
  5
28BC
  8
0
  6
VERDECKT
 62
     1
 10
-38.3999999999988191
 20
12.5314222700811406
 30
0.0
 40
14.0000000000012808
210
0.0
220
-0.0000000000000002
230
-1.0
 50
160.0000000000003126
 51
179.9999999999984936
  0
LINE
  5
28BD
  8
0
  6
VERDECKT
 62
     1
 10
43.840795115739887
 20
38.5162221479906393
 30
-0.0000000000000086
 11
51.5556966910028009
 21
17.31970427664087
 31
-0.0000000000000038
210
0.0
220
1.0
230
-0.0000000000000002
  0
LINE
  5
28BE
  8
0
  6
VERDECKT
 62
     1
 10
-43.840795115739887
 20
38.5162221479906393
 30
-0.0000000000000086
 11
-51.5556966910028009
 21
17.31970427664087
 31
-0.0000000000000038
210
0.0
220
1.0
230
-0.0000000000000002
  0
ARC
  5
28BF
  8
0
  6
VERDECKT
 62
     1
 10
58.4999999999994813
 20
43.851736383870751
 30
0.0
 40
15.5999999999993797
210
0.0
220
-0.0000000000000002
230
-1.0
 50
179.9999999999992895
 51
199.9999999999994884
  0
ARC
  5
28C0
  8
0
  6
VERDECKT
 62
     1
 10
-58.4999999999997513
 20
43.8517363838708008
 30
0.0
 40
15.5999999999996604
210
0.0
220
-0.0000000000000002
230
-1.0
 50
340.0000000000005116
 51
0.0000000000004453
  0
LINE
  5
28C1
  8
0
  6
VERDECKT
 62
     1
 10
42.9000000000000767
 20
50.4896868422743381
 30
-0.0000000000000112
 11
42.9000000000000767
 21
43.8517363838709286
 31
-0.0000000000000097
210
0.0
220
1.0
230
-0.0000000000000002
  0
LINE
  5
28C2
  8
0
  6
VERDECKT
 62
     1
 10
-42.9000000000000767
 20
50.4896868422743381
 30
-0.0000000000000112
 11
-42.9000000000000767
 21
43.8517363838709286
 31
-0.0000000000000097
210
0.0
220
1.0
230
-0.0000000000000002
  0
ARC
  5
28C3
  8
0
  6
VERDECKT
 62
     1
 10
58.4999999999996305
 20
50.4896868422745584
 30
0.0
 40
15.5999999999995307
210
0.0
220
-0.0000000000000002
230
-1.0
 50
160.0000000000003126
 51
180.0000000000007105
  0
ARC
  5
28C4
  8
0
  6
VERDECKT
 62
     1
 10
-58.4999999999995524
 20
50.4896868422745726
 30
0.0
 40
15.5999999999994401
210
0.0
220
-0.0000000000000002
230
-1.0
 50
359.9999999999992042
 51
19.9999999999997087
  0
LINE
  5
28C5
  8
0
  6
VERDECKT
 62
     1
 10
-43.8407951157398585
 20
55.825201078154727
 30
-0.0000000000000124
 11
-48.1556966910029587
 21
67.6802957233593787
 31
-0.000000000000015
210
0.0
220
1.0
230
-0.0000000000000002
  0
LINE
  5
28C6
  8
0
  6
VERDECKT
 62
     1
 10
43.8407951157398585
 20
55.825201078154727
 30
-0.0000000000000124
 11
48.1556966910029587
 21
67.6802957233593787
 31
-0.000000000000015
210
0.0
220
1.0
230
-0.0000000000000002
  0
ARC
  5
28C7
  8
0
  6
VERDECKT
 62
     1
 10
34.9999999999986215
 20
72.4685777299189624
 30
0.0
 40
14.0000000000016005
210
0.0
220
-0.0000000000000002
230
-1.0
 50
340.0000000000014211
 51
359.9999999999984084
  0
ARC
  5
28C8
  8
0
  6
VERDECKT
 62
     1
 10
-34.9999999999986215
 20
72.4685777299189624
 30
0.0
 40
14.0000000000016005
210
0.0
220
-0.0000000000000002
230
-1.0
 50
180.0000000000015064
 51
199.9999999999984936
  0
LINE
  5
28C9
  8
0
  6
VERDECKT
 62
     1
 10
49.0000000000002274
 20
140.0
 30
-0.0000000000000311
 11
49.0000000000002274
 21
132.0
 31
-0.0000000000000293
210
0.0
220
1.0
230
-0.0000000000000002
  0
LINE
  5
28CA
  8
0
  6
VERDECKT
 62
     1
 10
49.0000000000002274
 20
125.0
 30
-0.0000000000000278
 11
49.0000000000002274
 21
72.4685777299185787
 31
-0.0000000000000161
210
0.0
220
1.0
230
-0.0000000000000002
  0
LINE
  5
28CB
  8
0
  6
VERDECKT
 62
     1
 10
-49.0000000000002274
 20
140.0
 30
-0.0000000000000311
 11
-49.0000000000002274
 21
132.0
 31
-0.0000000000000293
210
0.0
220
1.0
230
-0.0000000000000002
  0
LINE
  5
28CC
  8
0
  6
VERDECKT
 62
     1
 10
-49.0000000000002274
 20
125.0
 30
-0.0000000000000278
 11
-49.0000000000002274
 21
72.4685777299185787
 31
-0.0000000000000161
210
0.0
220
1.0
230
-0.0000000000000002
  0
LINE
  5
28CD
  8
0
  6
VERDECKT
 62
     1
 10
-47.4524302439644501
 20
61.0700000000000713
 30
-0.0000000000000136
 11
-47.9983855953637502
 21
62.5700000000000571
 31
-0.0000000000000139
210
0.0
220
1.0
230
-0.0000000000000002
  0
LINE
  5
28CE
  8
0
  6
VERDECKT
 62
     1
 10
47.4524302439644501
 20
61.0700000000000571
 30
-0.0000000000000136
 11
47.9983855953637502
 21
62.5700000000000571
 31
-0.0000000000000139
210
0.0
220
1.0
230
-0.0000000000000002
  0
LINE
  5
28CF
  8
0
  6
VERDECKT
 62
     1
 10
22.2990381056765692
 20
131.9999999999996874
 30
-0.0000000000000293
 11
15.2990381056766793
 21
126.9999999999997016
 31
-0.0000000000000282
210
0.0
220
1.0
230
-0.0000000000000002
  0
LINE
  5
28D0
  8
0
  6
VERDECKT
 62
     1
 10
12.7009618943234308
 20
126.9999999999997016
 30
-0.0000000000000282
 11
15.2990381056768001
 21
126.9999999999997016
 31
-0.0000000000000282
210
0.0
220
1.0
230
-0.0000000000000002
  0
LINE
  5
28D1
  8
0
  6
VERDECKT
 62
     1
 10
12.7009618943234308
 20
126.9999999999997016
 30
-0.0000000000000282
 11
19.70096189432331
 21
131.9999999999996874
 31
-0.0000000000000293
210
0.0
220
1.0
230
-0.0000000000000002
  0
LINE
  5
28D2
  8
0
  6
VERDECKT
 62
     1
 10
9.2009618943234273
 20
126.999999999999801
 30
-0.0000000000000282
 11
12.7009618943234308
 21
126.9999999999997016
 31
-0.0000000000000282
210
0.0
220
1.0
230
-0.0000000000000002
  0
LINE
  5
28D3
  8
0
  6
VERDECKT
 62
     1
 10
11.7990381056768001
 20
126.999999999999801
 30
-0.0000000000000282
 11
11.7990381056766793
 21
119.7999999999997982
 31
-0.0000000000000266
210
0.0
220
1.0
230
-0.0000000000000002
  0
LINE
  5
28D4
  8
0
  6
VERDECKT
 62
     1
 10
9.2009618943233136
 20
119.7999999999997982
 30
-0.0000000000000266
 11
9.2009618943234273
 21
126.999999999999801
 31
-0.0000000000000282
210
0.0
220
1.0
230
-0.0000000000000002
  0
LINE
  5
28D5
  8
0
  6
VERDECKT
 62
     1
 10
12.7009618943234308
 20
119.7999999999997982
 30
-0.0000000000000266
 11
15.2990381056768001
 21
119.7999999999997982
 31
-0.0000000000000266
210
0.0
220
1.0
230
-0.0000000000000002
  0
LINE
  5
28D6
  8
0
  6
VERDECKT
 62
     1
 10
12.7009618943234308
 20
119.7999999999997982
 30
-0.0000000000000266
 11
9.2009618943234273
 21
119.7999999999997982
 31
-0.0000000000000266
210
0.0
220
1.0
230
-0.0000000000000002
  0
LINE
  5
28D7
  8
0
  6
VERDECKT
 62
     1
 10
15.2990381056768001
 20
119.7999999999997982
 30
-0.0000000000000266
 11
22.29903810567669
 21
114.7999999999998977
 31
-0.0000000000000255
210
0.0
220
1.0
230
-0.0000000000000002
  0
LINE
  5
28D8
  8
0
  6
VERDECKT
 62
     1
 10
19.70096189432331
 20
114.7999999999998977
 30
-0.0000000000000255
 11
12.7009618943234308
 21
119.7999999999997982
 31
-0.0000000000000266
210
0.0
220
1.0
230
-0.0000000000000002
  0
LINE
  5
28D9
  8
0
  6
VERDECKT
 62
     1
 10
23.20096189432331
 20
114.7999999999996987
 30
-0.0000000000000255
 11
25.79903810567669
 21
114.7999999999996987
 31
-0.0000000000000255
210
0.0
220
1.0
230
-0.0000000000000002
  0
LINE
  5
28DA
  8
0
  6
VERDECKT
 62
     1
 10
23.20096189432331
 20
114.7999999999996987
 30
-0.0000000000000255
 11
19.70096189432331
 21
114.7999999999998977
 31
-0.0000000000000255
210
0.0
220
1.0
230
-0.0000000000000002
  0
LINE
  5
28DB
  8
0
  6
VERDECKT
 62
     1
 10
25.79903810567669
 20
114.7999999999996987
 30
-0.0000000000000255
 11
25.79903810567669
 21
117.2999999999996987
 31
-0.000000000000026
210
0.0
220
1.0
230
-0.0000000000000002
  0
LINE
  5
28DC
  8
0
  6
VERDECKT
 62
     1
 10
23.20096189432331
 20
117.2999999999996987
 30
-0.000000000000026
 11
25.79903810567669
 21
117.2999999999996987
 31
-0.000000000000026
210
0.0
220
1.0
230
-0.0000000000000002
  0
LINE
  5
28DD
  8
0
  6
VERDECKT
 62
     1
 10
23.20096189432331
 20
117.2999999999996987
 30
-0.000000000000026
 11
23.20096189432331
 21
114.7999999999996987
 31
-0.0000000000000255
210
0.0
220
1.0
230
-0.0000000000000002
  0
LINE
  5
28DE
  8
0
  6
VERDECKT
 62
     1
 10
25.79903810567669
 20
117.2999999999996987
 30
-0.000000000000026
 11
24.79903810567669
 21
118.4547005383790008
 31
-0.0000000000000263
210
0.0
220
1.0
230
-0.0000000000000002
  0
LINE
  5
28DF
  8
0
  6
VERDECKT
 62
     1
 10
22.20096189432331
 20
118.4547005383790008
 30
-0.0000000000000263
 11
24.79903810567669
 21
118.4547005383790008
 31
-0.0000000000000263
210
0.0
220
1.0
230
-0.0000000000000002
  0
LINE
  5
28E0
  8
0
  6
VERDECKT
 62
     1
 10
22.20096189432331
 20
118.4547005383790008
 30
-0.0000000000000263
 11
23.20096189432331
 21
117.2999999999996987
 31
-0.000000000000026
210
0.0
220
1.0
230
-0.0000000000000002
  0
LINE
  5
28E1
  8
0
  6
VERDECKT
 62
     1
 10
24.79903810567669
 20
118.4547005383790008
 30
-0.0000000000000263
 11
24.79903810567669
 21
128.345299461620499
 31
-0.0000000000000285
210
0.0
220
1.0
230
-0.0000000000000002
  0
LINE
  5
28E2
  8
0
  6
VERDECKT
 62
     1
 10
22.20096189432331
 20
128.345299461620499
 30
-0.0000000000000285
 11
24.79903810567669
 21
128.345299461620499
 31
-0.0000000000000285
210
0.0
220
1.0
230
-0.0000000000000002
  0
LINE
  5
28E3
  8
0
  6
VERDECKT
 62
     1
 10
22.20096189432331
 20
128.345299461620499
 30
-0.0000000000000285
 11
22.20096189432331
 21
118.4547005383790008
 31
-0.0000000000000263
210
0.0
220
1.0
230
-0.0000000000000002
  0
LINE
  5
28E4
  8
0
  6
VERDECKT
 62
     1
 10
24.79903810567669
 20
128.345299461620499
 30
-0.0000000000000285
 11
25.79903810567669
 21
129.499999999999801
 31
-0.0000000000000288
210
0.0
220
1.0
230
-0.0000000000000002
  0
LINE
  5
28E5
  8
0
  6
VERDECKT
 62
     1
 10
23.20096189432331
 20
129.499999999999801
 30
-0.0000000000000288
 11
25.79903810567669
 21
129.499999999999801
 31
-0.0000000000000288
210
0.0
220
1.0
230
-0.0000000000000002
  0
LINE
  5
28E6
  8
0
  6
VERDECKT
 62
     1
 10
23.20096189432331
 20
129.499999999999801
 30
-0.0000000000000288
 11
22.20096189432331
 21
128.345299461620499
 31
-0.0000000000000285
210
0.0
220
1.0
230
-0.0000000000000002
  0
LINE
  5
28E7
  8
0
  6
VERDECKT
 62
     1
 10
25.79903810567669
 20
129.499999999999801
 30
-0.0000000000000288
 11
25.79903810567669
 21
131.999999999999801
 31
-0.0000000000000293
210
0.0
220
1.0
230
-0.0000000000000002
  0
LINE
  5
28E8
  8
0
  6
VERDECKT
 62
     1
 10
23.20096189432331
 20
131.999999999999801
 30
-0.0000000000000293
 11
25.79903810567669
 21
131.999999999999801
 31
-0.0000000000000293
210
0.0
220
1.0
230
-0.0000000000000002
  0
LINE
  5
28E9
  8
0
  6
VERDECKT
 62
     1
 10
23.20096189432331
 20
131.999999999999801
 30
-0.0000000000000293
 11
23.20096189432331
 21
129.499999999999801
 31
-0.0000000000000288
210
0.0
220
1.0
230
-0.0000000000000002
  0
LINE
  5
28EA
  8
0
  6
VERDECKT
 62
     1
 10
19.70096189432331
 20
131.9999999999996874
 30
-0.0000000000000293
 11
23.20096189432331
 21
131.999999999999801
 31
-0.0000000000000293
210
0.0
220
1.0
230
-0.0000000000000002
  0
LINE
  5
28EB
  8
0
  6
VERDECKT
 62
     1
 10
47.9999999999997726
 20
62.5700000000000571
 30
-0.0000000000000139
 11
47.9999999999997726
 21
61.0700000000000571
 31
-0.0000000000000136
210
0.0
220
1.0
230
-0.0000000000000002
  0
LINE
  5
28EC
  8
0
  6
VERDECKT
 62
     1
 10
-48.0000000000002203
 20
62.5700000000000571
 30
-0.0000000000000139
 11
-48.0000000000002203
 21
61.0700000000000571
 31
-0.0000000000000136
210
0.0
220
1.0
230
-0.0000000000000002
  0
LINE
  5
28ED
  8
0
  6
VERDECKT
 62
     1
 10
45.1139686793717232
 20
62.5700000000000571
 30
-0.0000000000000139
 11
45.1139686793717232
 21
61.0700000000000571
 31
-0.0000000000000136
210
0.0
220
1.0
230
-0.0000000000000002
  0
LINE
  5
28EE
  8
0
  6
VERDECKT
 62
     1
 10
53.2102214288235373
 20
62.5700000000000571
 30
-0.0000000000000139
 11
53.2102214288235373
 21
61.0700000000000571
 31
-0.0000000000000136
210
0.0
220
1.0
230
-0.0000000000000002
  0
LINE
  5
28EF
  8
0
  6
VERDECKT
 62
     1
 10
55.9999999999997868
 20
62.5700000000000571
 30
-0.0000000000000139
 11
55.9999999999997868
 21
61.0700000000000571
 31
-0.0000000000000136
210
0.0
220
1.0
230
-0.0000000000000002
  0
LINE
  5
28F0
  8
0
  6
VERDECKT
 62
     1
 10
-56.0000000000002203
 20
62.5700000000000571
 30
-0.0000000000000139
 11
-56.0000000000002203
 21
61.0700000000000571
 31
-0.0000000000000136
210
0.0
220
1.0
230
-0.0000000000000002
  0
LINE
  5
28F1
  8
0
  6
VERDECKT
 62
     1
 10
-53.2102214288240276
 20
62.5700000000000571
 30
-0.0000000000000139
 11
-53.2102214288240276
 21
61.0700000000000571
 31
-0.0000000000000136
210
0.0
220
1.0
230
-0.0000000000000002
  0
LINE
  5
28F2
  8
0
  6
VERDECKT
 62
     1
 10
-45.1139686793722703
 20
62.5700000000000571
 30
-0.0000000000000139
 11
-45.1139686793722703
 21
61.0700000000000571
 31
-0.0000000000000136
210
0.0
220
1.0
230
-0.0000000000000002
  0
LINE
  5
28F3
  8
0
  6
VERDECKT
 62
     1
 10
26.0682864386853907
 20
2.0000000000001421
 30
-0.0000000000000004
 11
-26.0682864386853907
 21
2.000000000000028
 31
-0.0000000000000004
210
0.0
220
1.0
230
-0.0000000000000002
  0
LINE
  5
28F4
  8
0
  6
VERDECKT
 62
     1
 10
49.0
 20
78.9393398282200991
 30
-0.0000000000000175
 11
-49.0000000000002274
 21
78.9393398282200991
 31
-0.0000000000000175
210
0.0
220
1.0
230
-0.0000000000000002
  0
LINE
  5
28F5
  8
0
  6
VERDECKT
 62
     1
 10
47.9393398282199925
 20
80.0000000000001563
 30
-0.0000000000000178
 11
-47.9393398282202128
 21
80.0000000000000568
 31
-0.0000000000000178
210
0.0
220
1.0
230
-0.0000000000000002
  0
LINE
  5
28F6
  8
0
  6
VERDECKT
 62
     1
 10
-26.0682864386853907
 20
2.000000000000028
 30
-0.0000000000000004
 11
-26.5
 21
6.9345085856372481
 31
-0.0000000000000015
210
0.0
220
1.0
230
-0.0000000000000002
  0
LINE
  5
28F7
  8
0
  6
VERDECKT
 62
     1
 10
26.0682864386853907
 20
2.0000000000000768
 30
-0.0000000000000004
 11
26.5
 21
6.934508585637297
 31
-0.0000000000000015
210
0.0
220
1.0
230
-0.0000000000000002
  0
LINE
  5
28F8
  8
0
  6
VERDECKT
 62
     1
 10
-26.4999999999999893
 20
6.9345085856372481
 30
-0.0000000000000015
 11
-26.5000000000000213
 21
53.9540584539815669
 31
-0.000000000000012
210
0.0
220
1.0
230
-0.0000000000000002
  0
LINE
  5
28F9
  8
0
  6
VERDECKT
 62
     1
 10
26.5000000000000213
 20
6.934508585637297
 30
-0.0000000000000015
 11
26.4999999999999893
 21
53.9540584539815882
 31
-0.000000000000012
210
0.0
220
1.0
230
-0.0000000000000002
  0
ARC
  5
28FA
  8
0
  6
VERDECKT
 62
     1
 10
-32.4999999999993889
 20
53.9540584539817729
 30
0.0
 40
5.9999999999994307
210
0.0
220
-0.0000000000000002
230
-1.0
 50
359.9999999999982947
 51
45.0000000000030127
  0
ARC
  5
28FB
  8
0
  6
VERDECKT
 62
     1
 10
32.4999999999994031
 20
53.954058453981709
 30
0.0
 40
5.9999999999994431
210
0.0
220
-0.0000000000000002
230
-1.0
 50
134.9999999999963904
 51
180.0000000000011937
  0
LINE
  5
28FC
  8
0
  6
VERDECKT
 62
     1
 10
-28.2573593128807694
 20
58.1966991411008578
 30
-0.0000000000000129
 11
-49.0000000000001918
 21
78.9393398282201133
 31
-0.0000000000000175
210
0.0
220
1.0
230
-0.0000000000000002
  0
LINE
  5
28FD
  8
0
  6
VERDECKT
 62
     1
 10
28.257359312880741
 20
58.1966991411008578
 30
-0.0000000000000129
 11
49.0000000000001066
 21
78.9393398282201133
 31
-0.0000000000000175
210
0.0
220
1.0
230
-0.0000000000000002
  0
LINE
  5
28FE
  8
0
  6
VERDECKT
 62
     1
 10
47.9393398282199996
 20
80.0000000000000995
 30
-0.0000000000000178
 11
49.0000000000000213
 21
78.9393398282201559
 31
-0.0000000000000175
210
0.0
220
1.0
230
-0.0000000000000002
  0
LINE
  5
28FF
  8
0
  6
VERDECKT
 62
     1
 10
-47.9393398282202128
 20
80.0000000000000568
 30
-0.0000000000000178
 11
-49.0000000000002203
 21
78.9393398282200991
 31
-0.0000000000000175
210
0.0
220
1.0
230
-0.0000000000000002
  0
LINE
  5
2900
  8
0
  6
VERDECKT
 62
     1
 10
-27.1966991411009111
 20
59.2573593128806593
 30
-0.0000000000000132
 11
-47.9393398282202199
 21
80.0000000000000568
 31
-0.0000000000000178
210
0.0
220
1.0
230
-0.0000000000000002
  0
LINE
  5
2901
  8
0
  6
VERDECKT
 62
     1
 10
27.1966991411008898
 20
59.2573593128806593
 30
-0.0000000000000132
 11
47.9393398282201275
 21
80.0000000000000568
 31
-0.0000000000000178
210
0.0
220
1.0
230
-0.0000000000000002
  0
ARC
  5
2902
  8
0
  6
VERDECKT
 62
     1
 10
-32.4999999999998721
 20
53.9540584539816521
 30
0.0
 40
7.499999999999921
210
0.0
220
-0.0000000000000002
230
-1.0
 50
359.9999999999996021
 51
45.0000000000001492
  0
ARC
  5
2903
  8
0
  6
VERDECKT
 62
     1
 10
32.4999999999998792
 20
53.9540584539815811
 30
0.0
 40
7.4999999999999289
210
0.0
220
-0.0000000000000002
230
-1.0
 50
134.9999999999994031
 51
180.0
  0
LINE
  5
2904
  8
0
  6
VERDECKT
 62
     1
 10
-24.9999999999999787
 20
6.9999999999998588
 30
-0.0000000000000016
 11
-25.0000000000000213
 21
53.9540584539815669
 31
-0.000000000000012
210
0.0
220
1.0
230
-0.0000000000000002
  0
LINE
  5
2905
  8
0
  6
VERDECKT
 62
     1
 10
25.0000000000000213
 20
6.9999999999999094
 30
-0.0000000000000016
 11
24.9999999999999787
 21
53.9540584539815882
 31
-0.000000000000012
210
0.0
220
1.0
230
-0.0000000000000002
  0
LINE
  5
2906
  8
0
  6
VERDECKT
 62
     1
 10
-24.5625566823704808
 20
2.0000000000000231
 30
-0.0000000000000004
 11
-25.0000000000000604
 21
6.9999999999998543
 31
-0.0000000000000016
210
0.0
220
1.0
230
-0.0000000000000002
  0
LINE
  5
2907
  8
0
  6
VERDECKT
 62
     1
 10
24.5625566823704915
 20
2.0000000000000711
 30
-0.0000000000000004
 11
25.0000000000000497
 21
6.9999999999999041
 31
-0.0000000000000016
210
0.0
220
1.0
230
-0.0000000000000002
  0
ENDBLK
  5
2909
  8
0
  0
BLOCK
  8
0
  2
A$C184C2F51
 70
     0
 10
0.0
 20
0.0
 30
0.0
  3
A$C184C2F51
  1

  0
LINE
  5
290D
  8
0
  6
AUSGEZOGEN
 62
     3
 10
46.999999999999801
 20
-13.8564064605510495
 30
0.0
 11
46.999999999999801
 21
13.8564064605504207
 31
0.0
  0
LINE
  5
290E
  8
0
  6
AUSGEZOGEN
 62
     3
 10
-35.500000000000199
 20
-33.7749907475934918
 30
0.0
 11
-11.5000000000002007
 21
-47.6313972081444774
 31
0.0000000000000053
  0
LINE
  5
290F
  8
0
  6
AUSGEZOGEN
 62
     3
 10
-47.0000000000001918
 20
13.8564064605508506
 30
0.0
 11
-47.0000000000001918
 21
-13.8564064605514794
 31
0.0
  0
LINE
  5
2910
  8
0
  6
AUSGEZOGEN
 62
     3
 10
-11.5000000000003109
 20
47.6313972081437811
 30
0.0
 11
-35.5000000000000924
 21
33.7749907475929092
 31
-0.0000000000000053
  0
CIRCLE
  5
2911
  8
0
  6
AUSGEZOGEN
 62
     3
 10
0.0000000000000311
 20
0.0000000000000261
 30
0.0
 40
50.6000000000000014
  0
CIRCLE
  5
2912
  8
0
  6
AUSGEZOGEN
 62
     3
 10
0.0000000000000311
 20
0.000000000000023
 30
0.0
 40
49.0
  0
LINE
  5
2913
  8
0
  6
AUSGEZOGEN
 62
     3
 10
22.2990381056766012
 20
-35.6230669589463389
 30
0.0
 11
15.2990381056767095
 21
-23.4987113059642887
 31
-0.0000000000000018
  0
LINE
  5
2914
  8
0
  6
AUSGEZOGEN
 62
     3
 10
12.7009618943234504
 20
-24.9987113059642887
 30
0.0
 11
15.2990381056768303
 21
-23.4987113059642887
 31
0.0000000000000006
  0
LINE
  5
2915
  8
0
  6
AUSGEZOGEN
 62
     3
 10
12.7009618943234504
 20
-24.9987113059642887
 30
0.0
 11
19.7009618943233384
 21
-37.1230669589463389
 31
0.0000000000000018
  0
LINE
  5
2916
  8
0
  6
AUSGEZOGEN
 62
     3
 10
19.7009618943233384
 20
-37.1230669589463389
 30
0.0
 11
22.2990381056767113
 21
-35.6230669589463389
 31
0.0000000000000006
  0
LINE
  5
2917
  8
0
  6
AUSGEZOGEN
 62
     3
 10
15.2990381056767095
 20
-23.4987113059644201
 30
0.0
 11
11.7990381056767095
 21
-17.4365334794733506
 31
-0.0000000000000008
  0
LINE
  5
2918
  8
0
  6
AUSGEZOGEN
 62
     3
 10
9.2009618943234557
 20
-18.9365334794732405
 30
0.0
 11
11.7990381056768303
 21
-17.4365334794732405
 31
0.0000000000000006
  0
LINE
  5
2919
  8
0
  6
AUSGEZOGEN
 62
     3
 10
9.2009618943234557
 20
-18.9365334794732405
 30
0.0
 11
12.7009618943234504
 21
-24.99871130596431
 31
0.0000000000000008
  0
LINE
  5
291A
  8
0
  6
AUSGEZOGEN
 62
     3
 10
25.7875558231703792
 20
-41.665356888749578
 30
0.0
 11
22.2990381056767113
 21
-35.6230669589463389
 31
-0.0000000000000008
  0
LINE
  5
291B
  8
0
  6
AUSGEZOGEN
 62
     3
 10
19.7009618943233384
 20
-37.1230669589463389
 30
0.0
 11
23.1894796118169992
 21
-43.1653568887495922
 31
0.0000000000000008
  0
LINE
  5
291C
  8
0
  6
AUSGEZOGEN
 62
     3
 10
43.2527355812501426
 20
-46.6455896928498532
 30
0.0000000000000071
 11
33.6601938457109924
 21
-45.1262803387768088
 31
0.000000000000005
  0
ARC
  5
291D
  8
0
  6
AUSGEZOGEN
 62
     3
 10
43.4091700462902921
 20
-45.6579013522544699
 30
0.0000000000000071
 40
1.0000000000002229
 50
261.0000000000068212
 51
313.5537253564021967
  0
ARC
  5
291E
  8
0
  6
AUSGEZOGEN
 62
     3
 10
-0.0000000000692214
 20
0.0000000000685816
 30
0.0
 40
64.0000000000972449
 50
313.5537253564111779
 51
316.4462746435896179
  0
ARC
  5
291F
  8
0
  6
AUSGEZOGEN
 62
     3
 10
45.657901352256161
 20
-43.4091700462909671
 30
0.0000000000000071
 40
0.9999999999985592
 50
316.4462746435494864
 51
9.0000000000446292
  0
LINE
  5
2920
  8
0
  6
AUSGEZOGEN
 62
     3
 10
45.1262803387766169
 20
-33.6601938457111203
 30
0.0000000000000071
 11
46.6455896928497467
 21
-43.2527355812501924
 31
0.0000000000000074
  0
ARC
  5
2921
  8
0
  6
AUSGEZOGEN
 62
     3
 10
46.1139686793717516
 20
-33.5037593806709211
 30
0.0000000000000071
 40
1.000000000000014
 50
98.999999999998451
 51
188.9999999999986073
  0
LINE
  5
2922
  8
0
  6
AUSGEZOGEN
 62
     3
 10
55.5500759498705889
 20
-30.9967616860025394
 30
0.0000000000000142
 11
45.9575342143315382
 21
-32.516071040075758
 31
0.0000000000000121
  0
ARC
  5
2923
  8
0
  6
AUSGEZOGEN
 62
     3
 10
55.3936414848301624
 20
-30.0090733454073586
 30
0.0000000000000142
 40
1.000000000000232
 50
279.0000000000102887
 51
331.5537253564152138
  0
ARC
  5
2924
  8
0
  6
AUSGEZOGEN
 62
     3
 10
0.0000000001146102
 20
-0.0000000000568718
 30
0.0
 40
63.9999999998718607
 50
331.5537253564045272
 51
334.4462746435930853
  0
ARC
  5
2925
  8
0
  6
AUSGEZOGEN
 62
     3
 10
56.8374158574391828
 20
-27.1755065941473504
 30
0.0000000000000142
 40
0.9999999999995839
 50
334.4462746435809208
 51
27.0000000000121716
  0
LINE
  5
2926
  8
0
  6
AUSGEZOGEN
 62
     3
 10
53.3192149046351602
 20
-18.0679591791115115
 30
0.0000000000000142
 11
57.7284223816270767
 21
-26.7215160944078001
 31
0.0000000000000152
  0
ARC
  5
2927
  8
0
  6
AUSGEZOGEN
 62
     3
 10
54.2102214288236297
 20
-17.6139686793719896
 30
0.0000000000000142
 40
1.000000000000079
 50
117.000000000006807
 51
206.9999999999959073
  0
LINE
  5
2928
  8
0
  6
AUSGEZOGEN
 62
     3
 10
62.409787844380169
 20
-12.3137546781916303
 30
0.0000000000000142
 11
53.7562309290839409
 21
-16.722962155183609
 31
0.0000000000000123
  0
ARC
  5
2929
  8
0
  6
AUSGEZOGEN
 62
     3
 10
61.9557973446404873
 20
-11.4227481540031004
 30
0.0000000000000142
 40
1.0000000000002101
 50
297.0000000000031264
 51
349.5537253564012872
  0
ARC
  5
292A
  8
0
  6
AUSGEZOGEN
 62
     3
 10
0.0000000001100628
 20
-0.0000000000164562
 30
0.0
 40
63.9999999998885301
 50
349.5537253564052094
 51
352.4462746435930853
  0
ARC
  5
292B
  8
0
  6
AUSGEZOGEN
 62
     3
 10
62.4532880889340802
 20
-8.2817152136811387
 30
0.0000000000000142
 40
1.0000000000004701
 50
352.4462746436071257
 51
44.9999999999896474
  0
LINE
  5
292C
  8
0
  6
AUSGEZOGEN
 62
     3
 10
56.2928932188132265
 20
-0.7071067811865533
 30
0.0000000000000142
 11
63.1603948701210882
 21
-7.5746084324943856
 31
0.0000000000000157
  0
ARC
  5
292D
  8
0
  6
AUSGEZOGEN
 62
     3
 10
56.9999999999997797
 20
0.0
 30
0.0000000000000142
 40
0.9999999999999879
 50
135.0000000000011084
 51
225.0
  0
LINE
  5
292E
  8
0
  6
AUSGEZOGEN
 62
     3
 10
63.1603948701210882
 20
7.5746084324945278
 30
0.0000000000000142
 11
56.2928932188132265
 21
0.7071067811865249
 31
0.0000000000000127
  0
ARC
  5
292F
  8
0
  6
AUSGEZOGEN
 62
     3
 10
62.4532880889339665
 20
8.2817152136810535
 30
0.0000000000000142
 40
1.0000000000005109
 50
315.0000000000276259
 51
7.5537253564042404
  0
ARC
  5
2930
  8
0
  6
AUSGEZOGEN
 62
     3
 10
-0.0000000000760994
 20
-0.0000000000106297
 30
0.0
 40
64.0000000000765397
 50
7.5537253564090738
 51
10.4462746435885308
  0
ARC
  5
2931
  8
0
  6
AUSGEZOGEN
 62
     3
 10
61.955797344640601
 20
11.4227481540032691
 30
0.0000000000000142
 40
1.0000000000000779
 50
10.4462746435966505
 51
63.0000000000004619
  0
LINE
  5
2932
  8
0
  6
AUSGEZOGEN
 62
     3
 10
53.7562309290839409
 20
16.7229621551836409
 30
0.0000000000000142
 11
62.409787844380169
 21
12.3137546781917102
 31
0.0000000000000161
  0
ARC
  5
2933
  8
0
  6
AUSGEZOGEN
 62
     3
 10
54.2102214288235089
 20
17.6139686793719896
 30
0.0000000000000142
 40
0.9999999999999893
 50
152.9999999999996874
 51
242.9999999999982094
  0
LINE
  5
2934
  8
0
  6
AUSGEZOGEN
 62
     3
 10
57.7284223816270767
 20
26.7215160944079493
 30
0.0000000000000142
 11
53.3192149046351602
 21
18.0679591791115399
 31
0.0000000000000132
  0
ARC
  5
2935
  8
0
  6
AUSGEZOGEN
 62
     3
 10
56.8374158574382804
 20
27.1755065941474996
 30
0.0000000000000142
 40
1.0000000000003919
 50
333.0000000000114824
 51
25.5537253563952405
  0
ARC
  5
2936
  8
0
  6
AUSGEZOGEN
 62
     3
 10
-0.0000000000622297
 20
-0.000000000030326
 30
0.0
 40
64.0000000000690505
 50
25.553725356409231
 51
28.4462746435888505
  0
ARC
  5
2937
  8
0
  6
AUSGEZOGEN
 62
     3
 10
55.3936414848299208
 20
30.0090733454068506
 30
0.0000000000000142
 40
1.000000000000786
 50
28.4462746436099394
 51
80.9999999999821938
  0
LINE
  5
2938
  8
0
  6
AUSGEZOGEN
 62
     3
 10
45.9575342143315382
 20
32.5160710400758717
 30
0.0000000000000071
 11
55.5500759498705889
 21
30.9967616860027206
 31
0.0000000000000092
  0
ARC
  5
2939
  8
0
  6
AUSGEZOGEN
 62
     3
 10
46.1139686793718724
 20
33.5037593806709992
 30
0.0000000000000071
 40
1.0000000000000979
 50
171.0000000000023022
 51
260.9999999999919282
  0
LINE
  5
293A
  8
0
  6
AUSGEZOGEN
 62
     3
 10
46.645589692849633
 20
43.2527355812503629
 30
0.0000000000000071
 11
45.1262803387766169
 21
33.6601938457112126
 31
0.0000000000000068
  0
ARC
  5
293B
  8
0
  6
AUSGEZOGEN
 62
     3
 10
45.6579013522549673
 20
43.409170046290761
 30
0.0000000000000071
 40
0.9999999999995518
 50
350.9999999999860165
 51
43.5537253564208484
  0
ARC
  5
293C
  8
0
  6
AUSGEZOGEN
 62
     3
 10
0.0000000000187154
 20
0.0000000000196394
 30
0.0
 40
63.9999999999727294
 50
43.5537253564076394
 51
46.4462746435916785
  0
ARC
  5
293D
  8
0
  6
AUSGEZOGEN
 62
     3
 10
43.4091700462902423
 20
45.657901352254747
 30
0.0000000000000071
 40
1.0000000000000979
 50
46.4462746435956575
 51
98.9999999999976836
  0
LINE
  5
293E
  8
0
  6
AUSGEZOGEN
 62
     3
 10
33.6601938457109924
 20
45.1262803387769225
 30
0.0000000000000071
 11
43.2527355812500431
 21
46.6455896928499882
 31
0.0000000000000092
  0
ARC
  5
293F
  8
0
  6
AUSGEZOGEN
 62
     3
 10
33.5037593806706724
 20
46.1139686793719576
 30
0.0000000000000071
 40
0.9999999999999211
 50
188.9999999999959073
 51
279.0000000000059117
  0
LINE
  5
2940
  8
0
  6
AUSGEZOGEN
 62
     3
 10
30.9967616860024187
 20
55.5500759498709371
 30
0.0000000000000071
 11
32.5160710400756017
 21
45.9575342143318082
 31
0.0000000000000074
  0
ARC
  5
2941
  8
0
  6
AUSGEZOGEN
 62
     3
 10
30.0090733454070602
 20
55.393641484830539
 30
0.0000000000000071
 40
1.0000000000002269
 50
9.0000000000079385
 51
61.5537253564019977
  0
ARC
  5
2942
  8
0
  6
AUSGEZOGEN
 62
     3
 10
0.0000000000035382
 20
0.0000000000081855
 30
0.0
 40
63.999999999991033
 50
61.5537253564081084
 51
64.446274643591309
  0
ARC
  5
2943
  8
0
  6
AUSGEZOGEN
 62
     3
 10
27.1755065941470804
 20
56.8374158574388275
 30
0.0000000000000071
 40
1.0000000000001019
 50
64.4462746435912237
 51
116.9999999999950973
  0
LINE
  5
2944
  8
0
  6
AUSGEZOGEN
 62
     3
 10
18.0679591791113303
 20
53.3192149046354302
 30
0.0000000000000071
 11
26.7215160944075585
 21
57.7284223816273183
 31
0.000000000000009
  0
ARC
  5
2945
  8
0
  6
AUSGEZOGEN
 62
     3
 10
17.6139686793717516
 20
54.2102214288238713
 30
0.0000000000000071
 40
1.00000000000004
 50
207.0000000000061107
 51
297.0000000000002274
  0
LINE
  5
2946
  8
0
  6
AUSGEZOGEN
 62
     3
 10
12.3137546781913603
 20
62.409787844380503
 30
0.0
 11
16.7229621551833887
 21
53.7562309290842109
 31
0.000000000000001
  0
ARC
  5
2947
  8
0
  6
AUSGEZOGEN
 62
     3
 10
11.4227481540029991
 20
61.9557973446409775
 30
0.0
 40
0.9999999999999613
 50
26.9999999999988809
 51
79.5537253564069857
  0
ARC
  5
2948
  8
0
  6
AUSGEZOGEN
 62
     3
 10
-0.0000000000044767
 20
-0.0000000000227942
 30
0.0
 40
64.0000000000232063
 50
79.5537253564085773
 51
82.4462746435903711
  0
ARC
  5
2949
  8
0
  6
AUSGEZOGEN
 62
     3
 10
8.281715213680755
 20
62.4532880889349329
 30
0.0
 40
0.9999999999999278
 50
82.4462746435896463
 51
135.0000000000046043
  0
LINE
  5
294A
  8
0
  6
AUSGEZOGEN
 62
     3
 10
0.7071067811863399
 20
56.2928932188134823
 30
0.0
 11
7.5746084324942009
 21
63.1603948701213724
 31
0.0000000000000015
  0
ARC
  5
294B
  8
0
  6
AUSGEZOGEN
 62
     3
 10
-0.0000000000002135
 20
57.0
 30
0.0
 40
0.9999999999999879
 50
224.9999999999988063
 51
315.0
  0
LINE
  5
294C
  8
0
  6
AUSGEZOGEN
 62
     3
 10
-7.5746084324947409
 20
63.1603948701213724
 30
0.0
 11
-0.7071067811867664
 21
56.2928932188134823
 31
0.0000000000000015
  0
ARC
  5
294D
  8
0
  6
AUSGEZOGEN
 62
     3
 10
-8.281715213681295
 20
62.4532880889346984
 30
0.0
 40
1.000000000000121
 50
45.0000000000057483
 51
97.5537253564088758
  0
ARC
  5
294E
  8
0
  6
AUSGEZOGEN
 62
     3
 10
0.0000000000027992
 20
-0.0000000000225953
 30
0.0
 40
64.0000000000228226
 50
97.5537253564086626
 51
100.4462746435903995
  0
ARC
  5
294F
  8
0
  6
AUSGEZOGEN
 62
     3
 10
-11.4227481540034805
 20
61.9557973446410131
 30
0.0
 40
1.0000000000000011
 50
100.4462746435958991
 51
153.0000000000055138
  0
LINE
  5
2950
  8
0
  6
AUSGEZOGEN
 62
     3
 10
-16.7229621551839287
 20
53.7562309290842109
 30
-0.0000000000000071
 11
-12.3137546781919003
 21
62.4097878443804674
 31
-0.0000000000000061
  0
ARC
  5
2951
  8
0
  6
AUSGEZOGEN
 62
     3
 10
-17.6139686793722916
 20
54.2102214288234734
 30
-0.0000000000000071
 40
0.999999999999672
 50
242.9999999999959073
 51
333.0000000000126761
  0
LINE
  5
2952
  8
0
  6
AUSGEZOGEN
 62
     3
 10
-26.7215160944080985
 20
57.7284223816273467
 30
-0.0000000000000071
 11
-18.0679591791117495
 21
53.3192149046354302
 31
-0.0000000000000052
  0
ARC
  5
2953
  8
0
  6
AUSGEZOGEN
 62
     3
 10
-27.1755065941476204
 20
56.8374158574389696
 30
-0.0000000000000071
 40
1.00000000000002
 50
63.0000000000026219
 51
115.5537253564071989
  0
ARC
  5
2954
  8
0
  6
AUSGEZOGEN
 62
     3
 10
-0.0000000000028283
 20
0.0000000000059117
 30
0.0
 40
63.9999999999935909
 50
115.5537253564087052
 51
118.4462746435918064
  0
ARC
  5
2955
  8
0
  6
AUSGEZOGEN
 62
     3
 10
-30.0090733454079412
 20
55.3936414848307308
 30
-0.0000000000000071
 40
0.9999999999998088
 50
118.4462746435841041
 51
171.0000000000030127
  0
LINE
  5
2956
  8
0
  6
AUSGEZOGEN
 62
     3
 10
-32.5160710400760919
 20
45.9575342143317869
 30
-0.0000000000000071
 11
-30.9967616860028983
 21
55.5500759498708803
 31
-0.0000000000000068
  0
ARC
  5
2957
  8
0
  6
AUSGEZOGEN
 62
     3
 10
-33.5037593806710419
 20
46.1139686793717587
 30
-0.0000000000000071
 40
0.9999999999997601
 50
260.9999999999894271
 51
351.0000000000126761
  0
LINE
  5
2958
  8
0
  6
AUSGEZOGEN
 62
     3
 10
-43.2527355812505689
 20
46.6455896928499385
 30
-0.0000000000000071
 11
-33.6601938457114187
 21
45.1262803387768869
 31
-0.000000000000005
  0
ARC
  5
2959
  8
0
  6
AUSGEZOGEN
 62
     3
 10
-43.4091700462907824
 20
45.6579013522547186
 30
-0.0000000000000071
 40
1.00000000000006
 50
81.0000000000017906
 51
133.5537253564064883
  0
ARC
  5
295A
  8
0
  6
AUSGEZOGEN
 62
     3
 10
0.0000000000236608
 20
-0.0000000000244427
 30
0.0
 40
64.0000000000341771
 50
133.5537253564089895
 51
136.4462746435901863
  0
ARC
  5
295B
  8
0
  6
AUSGEZOGEN
 62
     3
 10
-45.6579013522550525
 20
43.4091700462905905
 30
-0.0000000000000071
 40
0.999999999999995
 50
136.4462746435912095
 51
189.0000000000019043
  0
LINE
  5
295C
  8
0
  6
AUSGEZOGEN
 62
     3
 10
-45.1262803387771569
 20
33.6601938457112269
 30
-0.0000000000000071
 11
-46.6455896928501801
 21
43.2527355812503274
 31
-0.0000000000000074
  0
ARC
  5
295D
  8
0
  6
AUSGEZOGEN
 62
     3
 10
-46.1139686793721779
 20
33.5037593806709424
 30
-0.0000000000000071
 40
0.9999999999999299
 50
278.9999999999992042
 51
9.0000000000045528
  0
LINE
  5
295E
  8
0
  6
AUSGEZOGEN
 62
     3
 10
-55.5500759498710721
 20
30.9967616860026816
 30
-0.0000000000000142
 11
-45.9575342143319574
 21
32.5160710400758717
 31
-0.0000000000000121
  0
ARC
  5
295F
  8
0
  6
AUSGEZOGEN
 62
     3
 10
-55.3936414848309226
 20
30.0090733454075895
 30
-0.0000000000000142
 40
0.9999999999999557
 50
98.9999999999957225
 51
151.5537253564102116
  0
ARC
  5
2960
  8
0
  6
AUSGEZOGEN
 62
     3
 10
-0.0000000000097632
 20
0.0000000000050306
 30
0.0
 40
63.9999999999892495
 50
151.5537253564083926
 51
154.4462746435916927
  0
ARC
  5
2961
  8
0
  6
AUSGEZOGEN
 62
     3
 10
-56.8374158574390407
 20
27.1755065941474605
 30
-0.0000000000000142
 40
1.000000000000103
 50
154.4462746435949043
 51
206.9999999999986926
  0
LINE
  5
2962
  8
0
  6
AUSGEZOGEN
 62
     3
 10
-53.3192149046356434
 20
18.0679591791115399
 30
-0.0000000000000142
 11
-57.7284223816275102
 21
26.7215160944078889
 31
-0.0000000000000152
  0
ARC
  5
2963
  8
0
  6
AUSGEZOGEN
 62
     3
 10
-54.2102214288237718
 20
17.6139686793718795
 30
-0.0000000000000142
 40
0.9999999999997724
 50
296.9999999999938041
 51
27.0000000000134683
  0
LINE
  5
2964
  8
0
  6
AUSGEZOGEN
 62
     3
 10
-62.409787844380773
 20
12.3137546781916303
 30
-0.0000000000000142
 11
-53.7562309290844169
 21
16.7229621551836587
 31
-0.0000000000000123
  0
ARC
  5
2965
  8
0
  6
AUSGEZOGEN
 62
     3
 10
-61.9557973446412475
 20
11.4227481540033793
 30
-0.0000000000000142
 40
0.9999999999999406
 50
117.0000000000002984
 51
169.5537253564133096
  0
ARC
  5
2966
  8
0
  6
AUSGEZOGEN
 62
     3
 10
0.0000000000658386
 20
-0.000000000009436
 30
0.0
 40
64.0000000000667484
 50
169.5537253564110074
 51
172.4462746435908116
  0
ARC
  5
2967
  8
0
  6
AUSGEZOGEN
 62
     3
 10
-62.4532880889347908
 20
8.2817152136811103
 30
-0.0000000000000142
 40
1.0000000000002081
 50
172.4462746435968086
 51
224.9999999999930935
  0
LINE
  5
2968
  8
0
  6
AUSGEZOGEN
 62
     3
 10
-56.2928932188136528
 20
0.7071067811865817
 30
-0.0000000000000142
 11
-63.1603948701215785
 21
7.5746084324945002
 31
-0.0000000000000157
  0
ARC
  5
2969
  8
0
  6
AUSGEZOGEN
 62
     3
 10
-57.0000000000002132
 20
0.0000000000000568
 30
-0.0000000000000142
 40
1.0000000000000071
 50
315.0
 51
44.9999999999999929
  0
LINE
  5
296A
  8
0
  6
AUSGEZOGEN
 62
     3
 10
-63.1603948701216282
 20
-7.5746084324945278
 30
-0.0000000000000142
 11
-56.2928932188136528
 21
-0.7071067811864964
 31
-0.0000000000000127
  0
ARC
  5
296B
  8
0
  6
AUSGEZOGEN
 62
     3
 10
-62.4532880889350821
 20
-8.2817152136811103
 30
-0.0000000000000142
 40
0.9999999999999936
 50
135.0
 51
187.5537253564031914
  0
ARC
  5
296C
  8
0
  6
AUSGEZOGEN
 62
     3
 10
0.000000000074024
 20
0.0000000000129035
 30
0.0
 40
64.0000000000753602
 50
187.5537253564112063
 51
190.4462746435906979
  0
ARC
  5
296D
  8
0
  6
AUSGEZOGEN
 62
     3
 10
-61.9557973446413683
 20
-11.4227481540035001
 30
-0.0000000000000142
 40
0.9999999999996969
 50
190.4462746435825125
 51
243.0000000000003126
  0
LINE
  5
296E
  8
0
  6
AUSGEZOGEN
 62
     3
 10
-53.7562309290844809
 20
-16.7229621551835805
 30
-0.0000000000000142
 11
-62.409787844380773
 21
-12.3137546781916001
 31
-0.0000000000000161
  0
ARC
  5
296F
  8
0
  6
AUSGEZOGEN
 62
     3
 10
-54.2102214288239423
 20
-17.6139686793719612
 30
-0.0000000000000142
 40
0.9999999999999255
 50
332.9999999999997158
 51
63.0000000000040501
  0
LINE
  5
2970
  8
0
  6
AUSGEZOGEN
 62
     3
 10
-57.7284223816275102
 20
-26.7215160944078391
 30
-0.0000000000000142
 11
-53.3192149046356434
 21
-18.0679591791114795
 31
-0.0000000000000132
  0
ARC
  5
2971
  8
0
  6
AUSGEZOGEN
 62
     3
 10
-56.8374158574391473
 20
-27.1755065941473788
 30
-0.0000000000000142
 40
0.9999999999999946
 50
152.9999999999996874
 51
205.5537253564079947
  0
ARC
  5
2972
  8
0
  6
AUSGEZOGEN
 62
     3
 10
-0.0000000000070915
 20
-0.000000000004178
 30
0.0
 40
63.9999999999919922
 50
205.5537253564077957
 51
208.4462746435910105
  0
ARC
  5
2973
  8
0
  6
AUSGEZOGEN
 62
     3
 10
-55.3936414848309226
 20
-30.0090733454075007
 30
-0.0000000000000142
 40
0.9999999999999772
 50
208.4462746435926022
 51
261.0000000000046043
  0
LINE
  5
2974
  8
0
  6
AUSGEZOGEN
 62
     3
 10
-45.9575342143319574
 20
-32.5160710400757935
 30
-0.0000000000000071
 11
-55.5500759498710721
 21
-30.9967616860026283
 31
-0.0000000000000092
  0
ARC
  5
2975
  8
0
  6
AUSGEZOGEN
 62
     3
 10
-46.1139686793722277
 20
-33.5037593806709211
 30
-0.0000000000000071
 40
0.9999999999999861
 50
351.0000000000013074
 51
80.9999999999980957
  0
LINE
  5
2976
  8
0
  6
AUSGEZOGEN
 62
     3
 10
-46.6455896928501801
 20
-43.2527355812502989
 30
-0.0000000000000071
 11
-45.1262803387771001
 21
-33.6601938457111203
 31
-0.0000000000000068
  0
ARC
  5
2977
  8
0
  6
AUSGEZOGEN
 62
     3
 10
-45.6579013522551094
 20
-43.4091700462905408
 30
-0.0000000000000071
 40
0.999999999999938
 50
170.9999999999990905
 51
223.5537253564110074
  0
ARC
  5
2978
  8
0
  6
AUSGEZOGEN
 62
     3
 10
0.000000000002515
 20
0.0000000000027569
 30
0.0
 40
64.0000000000038654
 50
223.5537253564085916
 51
226.4462746435912948
  0
ARC
  5
2979
  8
0
  6
AUSGEZOGEN
 62
     3
 10
-43.4091700462907184
 20
-45.6579013522544273
 30
-0.0000000000000071
 40
1.0000000000003131
 50
226.4462746435987981
 51
278.999999999992383
  0
LINE
  5
297A
  8
0
  6
AUSGEZOGEN
 62
     3
 10
-33.6601938457114187
 20
-45.1262803387768585
 30
-0.0000000000000071
 11
-43.2527355812505689
 21
-46.6455896928499101
 31
-0.0000000000000092
  0
ARC
  5
297B
  8
0
  6
AUSGEZOGEN
 62
     3
 10
-33.5037593806711627
 20
-46.1139686793719576
 30
-0.0000000000000071
 40
0.9999999999999299
 50
8.9999999999992113
 51
99.0000000000024301
  0
LINE
  5
297C
  8
0
  6
AUSGEZOGEN
 62
     3
 10
-30.9967616860028983
 20
-55.5500759498708589
 30
-0.0000000000000071
 11
-32.5160710400760919
 21
-45.9575342143317513
 31
-0.0000000000000074
  0
ARC
  5
297D
  8
0
  6
AUSGEZOGEN
 62
     3
 10
-30.0090733454074297
 20
-55.3936414848304182
 30
-0.0000000000000071
 40
1.0000000000003311
 50
189.0000000000084128
 51
241.5537253563977913
  0
ARC
  5
297E
  8
0
  6
AUSGEZOGEN
 62
     3
 10
0.000000000068226
 20
0.0000000001357705
 30
0.0
 40
64.0000000001519567
 50
241.553725356412599
 51
244.4462746435885094
  0
ARC
  5
297F
  8
0
  6
AUSGEZOGEN
 62
     3
 10
-27.1755065941475706
 20
-56.8374158574387067
 30
-0.0000000000000071
 40
1.0000000000001521
 50
244.4462746435933127
 51
296.9999999999901092
  0
LINE
  5
2980
  8
0
  6
AUSGEZOGEN
 62
     3
 10
-18.0679591791117495
 20
-53.3192149046353734
 30
-0.0000000000000071
 11
-26.7215160944080985
 21
-57.728422381627297
 31
-0.000000000000009
  0
ARC
  5
2981
  8
0
  6
AUSGEZOGEN
 62
     3
 10
-17.6139686793722312
 20
-54.2102214288235587
 30
-0.0000000000000071
 40
0.9999999999999246
 50
26.9999999999930616
 51
117.0000000000047038
  0
LINE
  5
2982
  8
0
  6
AUSGEZOGEN
 62
     3
 10
-12.3137546781919003
 20
-62.409787844380503
 30
0.0
 11
-16.722962155183879
 21
-53.7562309290841611
 31
-0.000000000000001
  0
ARC
  5
2983
  8
0
  6
AUSGEZOGEN
 62
     3
 10
-11.4227481540036493
 20
-61.9557973446410983
 30
0.0
 40
0.9999999999998291
 50
206.9999999999959925
 51
259.5537253564122011
  0
ARC
  5
2984
  8
0
  6
AUSGEZOGEN
 62
     3
 10
-0.0000000000035104
 20
-0.00000000002089
 30
0.0
 40
63.99999999997884
 50
259.5537253564079947
 51
262.4462746435917779
  0
ARC
  5
2985
  8
0
  6
AUSGEZOGEN
 62
     3
 10
-8.2817152136815224
 20
-62.4532880889342366
 30
0.0
 40
1.00000000000053
 50
262.4462746436075236
 51
314.9999999999885176
  0
LINE
  5
2986
  8
0
  6
AUSGEZOGEN
 62
     3
 10
-0.7071067811867668
 20
-56.2928932188134397
 30
0.0
 11
-7.5746084324947409
 21
-63.1603948701213085
 31
-0.0000000000000015
  0
ARC
  5
2987
  8
0
  6
AUSGEZOGEN
 62
     3
 10
-0.0000000000002135
 20
-57.0
 30
0.0
 40
1.0000000000000071
 50
45.0
 51
135.0
  0
LINE
  5
2988
  8
0
  6
AUSGEZOGEN
 62
     3
 10
7.5746084324942009
 20
-63.1603948701213085
 30
0.0
 11
0.7071067811863401
 21
-56.2928932188134397
 31
-0.0000000000000015
  0
ARC
  5
2989
  8
0
  6
AUSGEZOGEN
 62
     3
 10
8.2817152136806982
 20
-62.4532880889349826
 30
0.0
 40
0.9999999999997905
 50
224.9999999999930935
 51
277.5537253564145885
  0
ARC
  5
298A
  8
0
  6
AUSGEZOGEN
 62
     3
 10
0.0000000000029698
 20
-0.00000000002089
 30
0.0
 40
63.99999999997884
 50
277.5537253564082221
 51
280.4462746435920053
  0
ARC
  5
298B
  8
0
  6
AUSGEZOGEN
 62
     3
 10
11.4227481540030595
 20
-61.955797344640871
 30
0.0
 40
1.0000000000000011
 50
280.44627464358922
 51
332.999999999998181
  0
LINE
  5
298C
  8
0
  6
AUSGEZOGEN
 62
     3
 10
16.7229621551833887
 20
-53.7562309290842109
 30
0.0000000000000071
 11
12.31375467819141
 21
-62.4097878443804532
 31
0.0000000000000061
  0
ARC
  5
298D
  8
0
  6
AUSGEZOGEN
 62
     3
 10
17.6139686793718617
 20
-54.2102214288239566
 30
0.0000000000000071
 40
1.0000000000001521
 50
63.0000000000099618
 51
152.9999999999924967
  0
LINE
  5
298E
  8
0
  6
AUSGEZOGEN
 62
     3
 10
26.7215160944076189
 20
-57.728422381627297
 30
0.0000000000000071
 11
18.0679591791113303
 21
-53.3192149046353734
 31
0.0000000000000052
  0
ARC
  5
298F
  8
0
  6
AUSGEZOGEN
 62
     3
 10
27.1755065941471905
 20
-56.8374158574389412
 30
0.0000000000000071
 40
0.9999999999999946
 50
242.9999999999982094
 51
295.553725356407881
  0
ARC
  5
2990
  8
0
  6
AUSGEZOGEN
 62
     3
 10
0.0000000000196817
 20
-0.0000000000408136
 30
0.0
 40
63.9999999999545892
 50
295.5537253564082789
 51
298.446274643593199
  0
ARC
  5
2991
  8
0
  6
AUSGEZOGEN
 62
     3
 10
30.009073345407689
 20
-55.3936414848308232
 30
0.0000000000000071
 40
0.9999999999996786
 50
298.4462746435814893
 51
351.0000000000084128
  0
LINE
  5
2992
  8
0
  6
AUSGEZOGEN
 62
     3
 10
32.5160710400756585
 20
-45.9575342143317016
 30
0.0000000000000071
 11
30.9967616860025288
 21
-55.5500759498708589
 31
0.0000000000000068
  0
ARC
  5
2993
  8
0
  6
AUSGEZOGEN
 62
     3
 10
33.5037593806707932
 20
-46.1139686793719434
 30
0.0000000000000071
 40
0.9999999999999861
 50
81.0000000000012932
 51
170.9999999999996874
  0
ARC
  5
2994
  8
0
  6
AUSGEZOGEN
 62
     3
 10
0.0000000000003588
 20
0.0000000000002858
 30
0.0
 40
47.9393398282206604
 50
191.3609507808183992
 51
228.6390492191833914
  0
ARC
  5
2995
  8
0
  6
AUSGEZOGEN
 62
     3
 10
-0.0000000000000959
 20
-0.0000000000000872
 30
0.0
 40
47.9393398282200565
 50
251.3609507808164949
 51
298.2069486269633103
  0
ARC
  5
2996
  8
0
  6
AUSGEZOGEN
 62
     3
 10
-0.0000000000002096
 20
0.0000000000000655
 30
0.0
 40
47.9393398282202696
 50
301.7930513730370876
 51
348.6390492191803787
  0
ARC
  5
2997
  8
0
  6
AUSGEZOGEN
 62
     3
 10
-0.0000000000002096
 20
-0.0000000000000375
 30
0.0
 40
47.9393398282202767
 50
11.3609507808196195
 51
58.2069486269629266
  0
ARC
  5
2998
  8
0
  6
AUSGEZOGEN
 62
     3
 10
-0.0000000000000959
 20
-0.0000000000000162
 30
0.0
 40
47.9393398282202128
 50
61.7930513730367181
 51
108.6390492191798955
  0
ARC
  5
2999
  8
0
  6
AUSGEZOGEN
 62
     3
 10
-0.0000000000003233
 20
0.0000000000001473
 30
0.0
 40
47.9393398282199001
 50
131.3609507808199055
 51
168.6390492191819988
  0
ARC
  5
299A
  8
0
  6
AUSGEZOGEN
 62
     3
 10
-0.0000000000001017
 20
0.0000000000000142
 30
0.0
 40
24.9999999999998899
 50
180.0
 51
296.5601872324850774
  0
ARC
  5
299B
  8
0
  6
AUSGEZOGEN
 62
     3
 10
0.0000000000001257
 20
0.000000000000016
 30
0.0
 40
24.9999999999999005
 50
303.4398127675149226
 51
56.5601872324851414
  0
ARC
  5
299C
  8
0
  6
AUSGEZOGEN
 62
     3
 10
-0.0000000000001017
 20
0.0000000000000195
 30
0.0
 40
25.0000000000000107
 50
63.4398127675149368
 51
180.0
  0
ARC
  5
299D
  8
0
  6
AUSGEZOGEN
 62
     3
 10
0.0000000000000004
 20
0.0000000000000146
 30
0.0
 40
24.5625566823704311
 50
180.0
 51
296.4988506893249109
  0
ARC
  5
299E
  8
0
  6
AUSGEZOGEN
 62
     3
 10
0.0000000000000004
 20
0.0000000000000146
 30
0.0
 40
24.5625566823704311
 50
303.5011493106749754
 51
56.4988506893249394
  0
ARC
  5
299F
  8
0
  6
AUSGEZOGEN
 62
     3
 10
0.0000000000000004
 20
0.000000000000011
 30
0.0
 40
24.5625566823704311
 50
63.5011493106749967
 51
180.0
  0
LINE
  5
29A0
  8
0
  6
AUSGEZOGEN
 62
     3
 10
19.7009618943234486
 20
37.1230669589465094
 30
0.0
 11
12.7009618943234504
 21
24.9987113059644592
 31
-0.0000000000000018
  0
LINE
  5
29A1
  8
0
  6
AUSGEZOGEN
 62
     3
 10
15.2990381056767095
 20
23.4987113059644699
 30
0.0
 11
12.7009618943234504
 21
24.9987113059644699
 31
-0.0000000000000006
  0
LINE
  5
29A2
  8
0
  6
AUSGEZOGEN
 62
     3
 10
15.2990381056767095
 20
23.4987113059644699
 30
0.0
 11
22.2990381056767113
 21
35.6230669589465094
 31
0.0000000000000018
  0
LINE
  5
29A3
  8
0
  6
AUSGEZOGEN
 62
     3
 10
22.2990381056767113
 20
35.6230669589464526
 30
0.0
 11
19.7009618943234486
 21
37.1230669589464526
 31
-0.0000000000000006
  0
LINE
  5
29A4
  8
0
  6
AUSGEZOGEN
 62
     3
 10
12.7009618943234504
 20
24.9987113059644805
 30
0.0
 11
9.2009618943234557
 21
18.936533479473411
 31
-0.0000000000000008
  0
LINE
  5
29A5
  8
0
  6
AUSGEZOGEN
 62
     3
 10
11.7990381056767095
 20
17.436533479473411
 30
0.0
 11
9.2009618943234557
 21
18.936533479473411
 31
-0.0000000000000006
  0
LINE
  5
29A6
  8
0
  6
AUSGEZOGEN
 62
     3
 10
11.7990381056767095
 20
17.436533479473411
 30
0.0
 11
15.2990381056767095
 21
23.4987113059644912
 31
0.0000000000000008
  0
LINE
  5
29A7
  8
0
  6
AUSGEZOGEN
 62
     3
 10
23.1894796118169992
 20
43.1653568887496633
 30
0.0
 11
19.7009618943233384
 21
37.1230669589464526
 31
-0.0000000000000008
  0
LINE
  5
29A8
  8
0
  6
AUSGEZOGEN
 62
     3
 10
22.2990381056767113
 20
35.6230669589464526
 30
0.0
 11
25.7875558231703792
 21
41.6653568887496419
 31
0.0000000000000008
  0
LINE
  5
29A9
  8
0
  6
VERDECKT
 62
     1
 10
-24.4999999999999716
 20
-42.4352447854374617
 30
0.0
 11
-13.5674797050267806
 21
-48.7471383206612714
 31
0.0000000000000024
  0
LINE
  5
29AA
  8
0
  6
VERDECKT
 62
     1
 10
-35.432520294973159
 20
-36.123351250213652
 30
0.0
 11
-24.4999999999999716
 21
-42.4352447854374617
 31
0.0000000000000024
  0
LINE
  5
29AB
  8
0
  6
VERDECKT
 62
     1
 10
-24.4999999999999716
 20
42.4352447854375114
 30
0.0
 11
-35.432520294973159
 21
36.1233512502137017
 31
-0.0000000000000024
  0
LINE
  5
29AC
  8
0
  6
VERDECKT
 62
     1
 10
-13.5674797050267806
 20
48.7471383206613282
 30
0.0
 11
-24.4999999999999716
 21
42.4352447854375114
 31
-0.0000000000000024
  0
LINE
  5
29AD
  8
0
  6
VERDECKT
 62
     1
 10
49.0000000000001421
 20
0.0000000000000225
 30
0.0
 11
49.0000000000001421
 21
12.6237870704471806
 31
0.0
  0
LINE
  5
29AE
  8
0
  6
VERDECKT
 62
     1
 10
49.0000000000001421
 20
-12.6237870704471202
 30
0.0
 11
49.0000000000001421
 21
0.0000000000000231
 31
0.0
  0
LINE
  5
29AF
  8
0
  6
VERDECKT
 62
     1
 10
-48.9999999999999716
 20
12.62378707044763
 30
0.0
 11
-48.9999999999999716
 21
0.0000000000000231
 31
0.0
  0
LINE
  5
29B0
  8
0
  6
VERDECKT
 62
     1
 10
-48.9999999999999716
 20
0.0000000000000225
 30
0.0
 11
-48.9999999999999716
 21
-12.6237870704475803
 31
0.0
  0
CIRCLE
  5
29B1
  8
0
  6
VERDECKT
 62
     1
 10
0.0000000000000028
 20
0.0000000000000152
 30
0.0
 40
52.4000000000000909
  0
CIRCLE
  5
29B2
  8
0
  6
VERDECKT
 62
     1
 10
0.0000000000000112
 20
0.0000000000000176
 30
0.0
 40
42.9000000000000767
  0
CIRCLE
  5
29B3
  8
0
  6
VERDECKT
 62
     1
 10
0.0000000000000112
 20
0.0000000000000176
 30
0.0
 40
44.5
  0
CIRCLE
  5
29B4
  8
0
  6
VERDECKT
 62
     1
 10
0.0000000000000028
 20
0.0000000000000152
 30
0.0
 40
54.0000000000000497
  0
LINE
  5
29B5
  8
0
  6
VERDECKT
 62
     1
 10
22.2009618943233384
 20
-41.4531939778685512
 30
0.0
 11
24.7990381056767184
 21
-39.9531939778685512
 31
0.0000000000000006
  0
LINE
  5
29B6
  8
0
  6
VERDECKT
 62
     1
 10
23.2009618943233384
 20
-43.1852447854374475
 30
0.0
 11
25.7990381056767113
 21
-41.6852447854374404
 31
0.0000000000000006
  0
LINE
  5
29B7
  8
0
  6
VERDECKT
 62
     1
 10
25.7990381056767113
 20
-41.685244785437412
 30
0.0
 11
25.7875558231703792
 21
-41.665356888749578
 31
0.0
  0
LINE
  5
29B8
  8
0
  6
VERDECKT
 62
     1
 10
23.1894796118169992
 20
-43.1653568887495922
 30
0.0
 11
23.2009618943233384
 21
-43.185244785437412
 31
0.0
  0
CIRCLE
  5
29B9
  8
0
  6
VERDECKT
 62
     1
 10
-0.0000000000002135
 20
0.0000000000000284
 30
0.0
 40
48.0
  0
CIRCLE
  5
29BA
  8
0
  6
VERDECKT
 62
     1
 10
0.0000000000000004
 20
0.0000000000000146
 30
0.0
 40
26.0682864386853907
  0
CIRCLE
  5
29BB
  8
0
  6
VERDECKT
 62
     1
 10
0.000000000000012
 20
0.0000000000000178
 30
0.0
 40
26.4999999999999609
  0
ARC
  5
29BC
  8
0
  6
VERDECKT
 62
     1
 10
0.0000000000057021
 20
0.0000000000003533
 30
0.0
 40
47.9393398282259113
 50
180.0000000000003979
 51
191.3609507808172054
  0
ARC
  5
29BD
  8
0
  6
VERDECKT
 62
     1
 10
0.0000000000003588
 20
0.0000000000007725
 30
0.0
 40
47.9393398282210228
 50
228.6390492191837893
 51
251.3609507808162959
  0
ARC
  5
29BE
  8
0
  6
VERDECKT
 62
     1
 10
0.000000000019913
 20
-0.000000000034442
 30
0.0
 40
47.9393398281803371
 50
298.2069486269617187
 51
301.793051373038395
  0
ARC
  5
29BF
  8
0
  6
VERDECKT
 62
     1
 10
-0.0000000000023697
 20
0.0000000000000247
 30
0.0
 40
47.939339828222387
 50
348.639049219181004
 51
11.3609507808190298
  0
ARC
  5
29C0
  8
0
  6
VERDECKT
 62
     1
 10
0.0000000000136602
 20
0.0000000000236449
 30
0.0
 40
47.9393398281928498
 50
58.2069486269621095
 51
61.7930513730378479
  0
ARC
  5
29C1
  8
0
  6
VERDECKT
 62
     1
 10
0.0000000000005862
 20
-0.0000000000009186
 30
0.0
 40
47.9393398282212715
 50
108.6390492191802934
 51
131.3609507808199055
  0
ARC
  5
29C2
  8
0
  6
VERDECKT
 62
     1
 10
-0.0000000000180584
 20
0.0000000000019853
 30
0.0
 40
47.9393398282021508
 50
168.6390492191798955
 51
180.0000000000023022
  0
ARC
  5
29C3
  8
0
  6
VERDECKT
 62
     1
 10
0.0000000000056963
 20
-0.0000000000095746
 30
0.0
 40
24.9999999999888303
 50
296.5601872324829742
 51
303.4398127675164005
  0
ARC
  5
29C4
  8
0
  6
VERDECKT
 62
     1
 10
0.0000000000063784
 20
0.0000000000110205
 30
0.0
 40
24.99999999998726
 50
56.5601872324832016
 51
63.4398127675169476
  0
ARC
  5
29C5
  8
0
  6
VERDECKT
 62
     1
 10
0.0000000000064806
 20
-0.0000000000112298
 30
0.0
 40
24.5625566823574815
 50
296.498850689323092
 51
303.501149310676908
  0
ARC
  5
29C6
  8
0
  6
VERDECKT
 62
     1
 10
0.0000000000055711
 20
0.0000000000097952
 30
0.0
 40
24.562556682359201
 50
56.4988506893231985
 51
63.5011493106764391
  0
LINE
  5
29C7
  8
0
  6
VERDECKT
 62
     1
 10
24.7990381056767184
 20
39.953193977868672
 30
0.0
 11
22.2009618943234592
 21
41.4531939778686578
 31
-0.0000000000000006
  0
LINE
  5
29C8
  8
0
  6
VERDECKT
 62
     1
 10
25.7990381056767113
 20
41.6852447854374972
 30
0.0
 11
23.2009618943234592
 21
43.1852447854374972
 31
-0.0000000000000006
  0
LINE
  5
29C9
  8
0
  6
VERDECKT
 62
     1
 10
23.2009618943233384
 20
43.1852447854375185
 30
0.0
 11
23.1894796118169992
 21
43.1653568887496633
 31
0.0
  0
LINE
  5
29CA
  8
0
  6
VERDECKT
 62
     1
 10
25.7875558231703792
 20
41.6653568887496419
 30
0.0
 11
25.7990381056767113
 21
41.6852447854375114
 31
0.0
  0
ENDBLK
  5
29CC
  8
0
  0
ENDSEC
  0
SECTION
  2
ENTITIES
  0
TEXT
  5
12C8
  8
TEXT35
 10
35.2868559635740482
 20
181.2157724913357981
 30
0.0
 40
3.5
  1

 41
0.8
  0
INSERT
  5
290A
  8
0
  2
A$C00754B42
 10
0.0
 20
0.0000000000000145
 30
0.0
  0
INSERT
  5
29CD
  8
0
  2
A$C184C2F51
 10
0.0
 20
-84.6132459482692951
 30
0.0
  0
VIEWPORT
  5
2507
 67
     1
  8
0
 10
5.9749612878783154
 20
7.2733612302380628
 30
0.0
 40
28.2475493495017815
 41
14.9644755482479592
 68
     1
 69
     1
1001
ACAD
1000
MVIEW
1002
{
1070
    16
1010
0.0
1020
0.0
1030
0.0
1010
0.0
1020
0.0
1030
1.0
1040
0.0
1040
14.9644755482479592
1040
5.9749612878783154
1040
7.2733612302380628
1040
50.0
1040
0.0
1040
0.0
1070
     0
1070
  1500
1070
     1
1070
     1
1070
     0
1070
     0
1070
     0
1070
     0
1040
0.0
1040
0.0
1040
0.0
1040
10.0
1040
10.0
1040
10.0
1040
10.0
1070
     0
1002
{
1002
}
1002
}
  0
ENDSEC
  0
EOF
