  0
SECTION
  2
HEADER
  9
$ACADVER
  1
AC1009
  9
$INSBASE
 10
0.0
 20
0.0
 30
0.0
  9
$EXTMIN
 10
-73.0292590263164811
 20
-185.1906514523392957
 30
-0.0036618299825193
  9
$EXTMAX
 10
73.0334364512830234
 20
120.0075480442715019
 30
0.0054933037672527
  9
$LIMMIN
 10
0.0
 20
0.0
  9
$LIMMAX
 10
297.0
 20
420.0
  9
$ORTHOMODE
 70
     1
  9
$REGENMODE
 70
     1
  9
$FILLMODE
 70
     1
  9
$QTEXTMODE
 70
     0
  9
$MIRRTEXT
 70
     1
  9
$DRAGMODE
 70
     2
  9
$LTSCALE
 40
10.0
  9
$OSMODE
 70
  1327
  9
$ATTMODE
 70
     1
  9
$TEXTSIZE
 40
3.5
  9
$TRACEWID
 40
0.5
  9
$TEXTSTYLE
  7
STANDARD
  9
$CLAYER
  8
0
  9
$CELTYPE
  6
BYLAYER
  9
$CECOLOR
 62
   256
  9
$DIMSCALE
 40
1.0
  9
$DIMASZ
 40
3.5
  9
$DIMEXO
 40
1.0
  9
$DIMDLI
 40
8.0
  9
$DIMRND
 40
0.0
  9
$DIMDLE
 40
0.0
  9
$DIMEXE
 40
1.0
  9
$DIMTP
 40
1.0
  9
$DIMTM
 40
1.0
  9
$DIMTXT
 40
3.5
  9
$DIMCEN
 40
0.0
  9
$DIMTSZ
 40
0.0
  9
$DIMTOL
 70
     0
  9
$DIMLIM
 70
     0
  9
$DIMTIH
 70
     0
  9
$DIMTOH
 70
     0
  9
$DIMSE1
 70
     0
  9
$DIMSE2
 70
     0
  9
$DIMTAD
 70
     1
  9
$DIMZIN
 70
     8
  9
$DIMBLK
  1

  9
$DIMASO
 70
     1
  9
$DIMSHO
 70
     0
  9
$DIMPOST
  1

  9
$DIMAPOST
  1

  9
$DIMALT
 70
     0
  9
$DIMALTD
 70
     2
  9
$DIMALTF
 40
25.3999999999999986
  9
$DIMLFAC
 40
1.0
  9
$DIMTOFL
 70
     1
  9
$DIMTVP
 40
0.0
  9
$DIMTIX
 70
     0
  9
$DIMSOXD
 70
     0
  9
$DIMSAH
 70
     0
  9
$DIMBLK1
  1

  9
$DIMBLK2
  1

  9
$DIMSTYLE
  2
STANDARD
  9
$DIMCLRD
 70
     0
  9
$DIMCLRE
 70
     0
  9
$DIMCLRT
 70
     1
  9
$DIMTFAC
 40
1.0
  9
$DIMGAP
 40
1.5
  9
$LUNITS
 70
     2
  9
$LUPREC
 70
     2
  9
$SKETCHINC
 40
1.0
  9
$FILLETRAD
 40
0.0
  9
$AUNITS
 70
     0
  9
$AUPREC
 70
     0
  9
$MENU
  1
ACAD
  9
$ELEVATION
 40
0.0
  9
$PELEVATION
 40
0.0
  9
$THICKNESS
 40
0.0
  9
$LIMCHECK
 70
     0
  9
$BLIPMODE
 70
     0
  9
$CHAMFERA
 40
0.0
  9
$CHAMFERB
 40
0.0
  9
$SKPOLY
 70
     0
  9
$TDCREATE
 40
2451879.3302777782082558
  9
$TDUPDATE
 40
2458401.5388310188427567
  9
$TDINDWG
 40
0.1170743519
  9
$TDUSRTIMER
 40
0.1170743519
  9
$USRTIMER
 70
     1
  9
$ANGBASE
 50
0.0
  9
$ANGDIR
 70
     0
  9
$PDMODE
 70
     0
  9
$PDSIZE
 40
0.0
  9
$PLINEWID
 40
0.0
  9
$COORDS
 70
     1
  9
$SPLFRAME
 70
     0
  9
$SPLINETYPE
 70
     6
  9
$SPLINESEGS
 70
     8
  9
$ATTDIA
 70
     0
  9
$ATTREQ
 70
     0
  9
$HANDLING
 70
     1
  9
$HANDSEED
  5
301C
  9
$SURFTAB1
 70
     6
  9
$SURFTAB2
 70
     6
  9
$SURFTYPE
 70
     6
  9
$SURFU
 70
     6
  9
$SURFV
 70
     6
  9
$UCSNAME
  2

  9
$UCSORG
 10
0.0
 20
0.0
 30
0.0
  9
$UCSXDIR
 10
1.0
 20
0.0
 30
0.0
  9
$UCSYDIR
 10
0.0
 20
1.0
 30
0.0
  9
$PUCSNAME
  2

  9
$PUCSORG
 10
0.0
 20
0.0
 30
0.0
  9
$PUCSXDIR
 10
1.0
 20
0.0
 30
0.0
  9
$PUCSYDIR
 10
0.0
 20
1.0
 30
0.0
  9
$USERI1
 70
     0
  9
$USERI2
 70
     0
  9
$USERI3
 70
     0
  9
$USERI4
 70
     0
  9
$USERI5
 70
     0
  9
$USERR1
 40
0.0
  9
$USERR2
 40
0.0
  9
$USERR3
 40
0.0
  9
$USERR4
 40
0.0
  9
$USERR5
 40
0.0
  9
$WORLDVIEW
 70
     1
  9
$SHADEDGE
 70
     3
  9
$SHADEDIF
 70
    70
  9
$TILEMODE
 70
     1
  9
$MAXACTVP
 70
    16
  9
$PLIMCHECK
 70
     0
  9
$PEXTMIN
 10
-0.0749361313909454
 20
-0.1248928223899419
 30
-0.0000000000000053
  9
$PEXTMAX
 10
10.2560267769150908
 20
14.3135377434755906
 30
0.0000000000000099
  9
$PLIMMIN
 10
-0.2500002402958907
 20
-0.2499999962453767
  9
$PLIMMAX
 10
10.7499995194082203
 20
8.2499997634587334
  9
$UNITMODE
 70
     0
  9
$VISRETAIN
 70
     0
  9
$PLINEGEN
 70
     0
  9
$PSLTSCALE
 70
     0
  0
ENDSEC
  0
SECTION
  2
TABLES
  0
TABLE
  2
VPORT
 70
     1
  0
VPORT
  2
*ACTIVE
 70
     0
 10
0.0
 20
0.0
 11
1.0
 21
1.0
 12
0.0020887124832996
 22
-56.0836171337214182
 13
0.0
 23
0.0
 14
1.0
 24
1.0
 15
10.0
 25
10.0
 16
-0.0000000000001555
 26
0.0
 36
700.1606330155619844
 17
0.0
 27
23.4920654296875107
 37
60.0000000000000284
 40
307.4814777970843238
 41
1.887640449438202
 42
50.0
 43
0.0
 44
0.0
 50
0.0
 51
0.0
 71
     0
 72
  1500
 73
     1
 74
     0
 75
     0
 76
     0
 77
     0
 78
     0
  0
ENDTAB
  0
TABLE
  2
LTYPE
 70
     4
  0
LTYPE
  2
AUSGEZOGEN
 70
     0
  3
Ausgezogene Linie
 72
    65
 73
     0
 40
0.0
  0
LTYPE
  2
CONTINUOUS
 70
     0
  3
Solid line
 72
    65
 73
     0
 40
0.0
  0
LTYPE
  2
VERDECKT
 70
     0
  3
Verdeckt __ __ __ __ __ __ __ __ __ __ __ __ __
 72
    65
 73
     2
 40
0.375
 49
0.25
 49
-0.125
  0
ENDTAB
  0
TABLE
  2
LAYER
 70
    12
  0
LAYER
  2
0
 70
     0
 62
     7
  6
AUSGEZOGEN
  0
LAYER
  2
DEFPOINTS
 70
     0
 62
     7
  6
AUSGEZOGEN
  0
LAYER
  2
TEXT35
 70
     0
 62
     1
  6
AUSGEZOGEN
  0
ENDTAB
  0
TABLE
  2
STYLE
 70
     4
  0
STYLE
  2
STANDARD
 70
     0
 40
0.0
 41
0.8
 50
0.0
 71
     0
 42
3.5
  3
simplex.shx
  4

  0
ENDTAB
  0
TABLE
  2
VIEW
 70
     2
  0
ENDTAB
  0
TABLE
  2
UCS
 70
     0
  0
ENDTAB
  0
TABLE
  2
APPID
 70
    11
  0
APPID
  2
ACAD
 70
     0
  0
APPID
  2
ACAD_NAV_VCDISPLAY
 70
     0
  0
APPID
  2
ACAD_PSEXT
 70
     0
  0
APPID
  2
ACAD_DSTYLE_DIMRADIAL_EXTENSION
 70
     0
  0
APPID
  2
ACAECLAYERSTANDARD
 70
     0
  0
APPID
  2
ACCMTRANSPARENCY
 70
     0
  0
APPID
  2
ACAD_STEPID
 70
     0
  0
APPID
  2
ACAD_EXEMPT_FROM_CAD_STANDARDS
 70
     0
  0
APPID
  2
ACAD_MLEADERVER
 70
     0
  0
APPID
  2
ACAD_OBJECT_CHANGE_GUID
 70
     0
  0
APPID
  2
ACADANNOMONITORALERTICONDI
 70
     0
  0
ENDTAB
  0
TABLE
  2
DIMSTYLE
 70
     2
  0
DIMSTYLE
  2
STANDARD
 70
     0
  3

  4

  5

  6

  7

 40
0.0
 41
3.5
 42
1.0
 43
8.0
 44
1.5
 45
0.0
 46
0.0
 47
0.5
 48
0.0
140
3.5
141
1.5
142
0.0
143
25.3999999999999986
144
1.0
145
0.0
146
1.0
147
1.0
 71
     0
 72
     0
 73
     0
 74
     0
 75
     0
 76
     0
 77
     1
 78
     8
170
     0
171
     2
172
     1
173
     0
174
     0
175
     0
176
     0
177
     0
178
     1
  0
ENDTAB
  0
ENDSEC
  0
SECTION
  2
BLOCKS
  0
BLOCK
  8
0
  2
$MODEL_SPACE
 70
     0
 10
0.0
 20
0.0
 30
0.0
  3
$MODEL_SPACE
  1

  0
ENDBLK
  5
1FE1
  8
0
  0
BLOCK
 67
     1
  8
0
  2
$PAPER_SPACE
 70
     0
 10
0.0
 20
0.0
 30
0.0
  3
$PAPER_SPACE
  1

  0
ENDBLK
  5
1FDF
 67
     1
  8
0
  0
BLOCK
  8
0
  2
A$C186D7339
 70
     0
 10
0.0
 20
0.0
 30
0.0
  3
A$C186D7339
  1

  0
LINE
  5
2E30
  8
0
  6
AUSGEZOGEN
 62
     3
 10
-63.9999999999998792
 20
0.0000000000000142
 30
0.0
 11
63.9999999999998792
 21
-0.0000000000000142
 31
0.0
210
0.0000000000000002
220
1.0
230
-0.0000000000000002
  0
LINE
  5
2E31
  8
0
  6
AUSGEZOGEN
 62
     3
 10
-15.4919333848298102
 20
105.000000000000199
 30
-0.0000000000000199
 11
15.4919333848294301
 21
105.000000000000199
 31
-0.0000000000000268
210
0.0000000000000002
220
1.0
230
-0.0000000000000002
  0
LINE
  5
2E32
  8
0
  6
AUSGEZOGEN
 62
     3
 10
15.4919333848294301
 20
112.000000000000199
 30
-0.0000000000000283
 11
-15.4919333848298102
 21
112.000000000000199
 31
-0.0000000000000214
210
0.0000000000000002
220
1.0
230
-0.0000000000000002
  0
LINE
  5
2E33
  8
0
  6
AUSGEZOGEN
 62
     3
 10
15.4919333848294301
 20
112.0000000000002984
 30
-0.0000000000000283
 11
15.4919333848294301
 21
105.0000000000003979
 31
-0.0000000000000268
210
0.0000000000000002
220
1.0
230
-0.0000000000000002
  0
LINE
  5
2E34
  8
0
  6
AUSGEZOGEN
 62
     3
 10
-15.4919333848298102
 20
105.0000000000003979
 30
-0.0000000000000199
 11
-15.4919333848298102
 21
112.0000000000002984
 31
-0.0000000000000214
210
0.0000000000000002
220
1.0
230
-0.0000000000000002
  0
LINE
  5
2E35
  8
0
  6
AUSGEZOGEN
 62
     3
 10
58.9999999999997868
 20
105.000000000000199
 30
-0.000000000000024
 11
60.999999999999801
 21
105.000000000000199
 31
-0.0000000000000233
210
0.0000000000000002
220
1.0
230
-0.0000000000000002
  0
LINE
  5
2E36
  8
0
  6
AUSGEZOGEN
 62
     3
 10
60.999999999999801
 20
112.000000000000199
 30
-0.0000000000000249
 11
58.999999999999801
 21
112.000000000000199
 31
-0.0000000000000255
210
0.0000000000000002
220
1.0
230
-0.0000000000000002
  0
LINE
  5
2E37
  8
0
  6
AUSGEZOGEN
 62
     3
 10
58.9999999999997868
 20
105.000000000000199
 30
-0.000000000000024
 11
58.999999999999801
 21
112.000000000000199
 31
-0.0000000000000255
210
0.0000000000000002
220
1.0
230
-0.0000000000000002
  0
LINE
  5
2E38
  8
0
  6
AUSGEZOGEN
 62
     3
 10
-61.000000000000199
 20
105.000000000000199
 30
-0.0000000000000233
 11
-59.000000000000199
 21
105.000000000000199
 31
-0.0000000000000226
210
0.0000000000000002
220
1.0
230
-0.0000000000000002
  0
LINE
  5
2E39
  8
0
  6
AUSGEZOGEN
 62
     3
 10
-59.0000000000001918
 20
112.000000000000199
 30
-0.0000000000000242
 11
-61.000000000000199
 21
112.000000000000199
 31
-0.0000000000000249
210
0.0000000000000002
220
1.0
230
-0.0000000000000002
  0
LINE
  5
2E3A
  8
0
  6
AUSGEZOGEN
 62
     3
 10
-59.0000000000001918
 20
112.000000000000199
 30
-0.0000000000000242
 11
-59.000000000000199
 21
105.000000000000199
 31
-0.0000000000000226
210
0.0000000000000002
220
1.0
230
-0.0000000000000002
  0
LINE
  5
2E3B
  8
0
  6
AUSGEZOGEN
 62
     3
 10
-61.000000000000199
 20
120.0000000000000995
 30
-0.0000000000000266
 11
60.999999999999801
 21
120.0000000000000995
 31
-0.0000000000000266
210
0.0000000000000002
220
1.0
230
-0.0000000000000002
  0
ARC
  5
2E3C
  8
0
  6
AUSGEZOGEN
 62
     3
 10
44.9999999999986429
 20
51.0948389651166295
 30
0.0
 40
16.0000000000011795
210
0.0
220
-0.0000000000000002
230
-1.0
 50
340.0000002745874212
 51
359.9999999999993179
  0
ARC
  5
2E3D
  8
0
  6
AUSGEZOGEN
 62
     3
 10
-44.9999999999987566
 20
51.0948389651167005
 30
0.0
 40
16.0000000000010907
210
0.0
220
-0.0000000000000002
230
-1.0
 50
180.0000000000007105
 51
199.9999997254128061
  0
LINE
  5
2E3E
  8
0
  6
AUSGEZOGEN
 62
     3
 10
-58.4999999999999289
 20
41.4049136622542093
 30
-0.0000000000000092
 11
-60.0350819588001912
 21
45.6225167439604604
 31
-0.0000000000000101
210
0.0000000000000002
220
1.0
230
-0.0000000000000002
  0
LINE
  5
2E3F
  8
0
  6
AUSGEZOGEN
 62
     3
 10
58.4999999999999005
 20
41.4049136622541667
 30
-0.0000000000000092
 11
60.0350819588001912
 21
45.6225167439604675
 31
-0.0000000000000101
210
0.0000000000000002
220
1.0
230
-0.0000000000000002
  0
ARC
  5
2E40
  8
0
  6
AUSGEZOGEN
 62
     3
 10
71.4136504989300249
 20
35.9332383889677374
 30
0.0
 40
14.0062852828199897
210
0.0
220
-0.0000000000000002
230
-1.0
 50
163.526981758545503
 51
179.9954664309904047
  0
ARC
  5
2E41
  8
0
  6
AUSGEZOGEN
 62
     3
 10
-71.4136504989303802
 20
35.9332383889678084
 30
0.0
 40
14.0062852828203095
210
0.0
220
-0.0000000000000002
230
-1.0
 50
0.0045335690093726
 51
16.4730182414537083
  0
ARC
  5
2E42
  8
0
  6
AUSGEZOGEN
 62
     3
 10
71.4010842069329925
 20
35.933239383284743
 30
0.0
 40
13.9937189907836306
210
0.0
220
-0.0000000000000002
230
-1.0
 50
179.9954664309915984
 51
199.9999999999971863
  0
ARC
  5
2E43
  8
0
  6
AUSGEZOGEN
 62
     3
 10
-71.4010842069328504
 20
35.9332393832848211
 30
0.0
 40
13.9937189907834494
210
0.0
220
-0.0000000000000002
230
-1.0
 50
340.0000000000027853
 51
0.0045335690081895
  0
LINE
  5
2E44
  8
0
  6
AUSGEZOGEN
 62
     3
 10
58.251289733941789
 20
31.14710560839859
 30
-0.0000000000000069
 11
63.0350819325744922
 21
18.0037445632922797
 31
-0.000000000000004
210
0.0000000000000002
220
1.0
230
-0.0000000000000002
  0
LINE
  5
2E45
  8
0
  6
AUSGEZOGEN
 62
     3
 10
-58.2512897339418174
 20
31.1471056083984514
 30
-0.0000000000000069
 11
-63.0350819325744922
 21
18.0037445632921411
 31
-0.000000000000004
210
0.0000000000000002
220
1.0
230
-0.0000000000000002
  0
ARC
  5
2E46
  8
0
  6
AUSGEZOGEN
 62
     3
 10
47.9999999999981171
 20
12.53142227008105
 30
0.0
 40
16.0000000000018616
210
0.0
220
-0.0000000000000002
230
-1.0
 50
0.0000000000009287
 51
19.9999999999990514
  0
ARC
  5
2E47
  8
0
  6
AUSGEZOGEN
 62
     3
 10
-47.9999999999984226
 20
12.5314222700811708
 30
0.0
 40
16.0000000000015596
210
0.0
220
-0.0000000000000002
230
-1.0
 50
160.0000000000005116
 51
179.9999999999994031
  0
LINE
  5
2E48
  8
0
  6
AUSGEZOGEN
 62
     3
 10
63.9999999999999929
 20
12.5314222700813396
 30
-0.0000000000000028
 11
64.0
 21
0.0000000000000426
 31
0.0
210
0.0000000000000002
220
1.0
230
-0.0000000000000002
  0
LINE
  5
2E49
  8
0
  6
AUSGEZOGEN
 62
     3
 10
-64.0
 20
12.5314222700813094
 30
-0.0000000000000028
 11
-63.9999999999999929
 21
0.0000000000000142
 31
0.0
210
0.0000000000000002
220
1.0
230
-0.0000000000000002
  0
LINE
  5
2E4A
  8
0
  6
AUSGEZOGEN
 62
     3
 10
60.999999999999801
 20
120.0000000000000995
 30
-0.0000000000000266
 11
60.999999999999801
 21
112.000000000000199
 31
-0.0000000000000249
210
0.0000000000000002
220
1.0
230
-0.0000000000000002
  0
LINE
  5
2E4B
  8
0
  6
AUSGEZOGEN
 62
     3
 10
60.999999999999801
 20
105.000000000000199
 30
-0.0000000000000233
 11
60.9999999999997868
 21
51.0948389651164803
 31
-0.0000000000000113
210
0.0000000000000002
220
1.0
230
-0.0000000000000002
  0
LINE
  5
2E4C
  8
0
  6
AUSGEZOGEN
 62
     3
 10
-61.000000000000199
 20
120.0000000000000995
 30
-0.0000000000000266
 11
-61.000000000000199
 21
112.000000000000199
 31
-0.0000000000000249
210
0.0000000000000002
220
1.0
230
-0.0000000000000002
  0
LINE
  5
2E4D
  8
0
  6
AUSGEZOGEN
 62
     3
 10
-61.000000000000199
 20
105.000000000000199
 30
-0.0000000000000233
 11
-61.0000000000002132
 21
51.0948389651164518
 31
-0.0000000000000113
210
0.0000000000000002
220
1.0
230
-0.0000000000000002
  0
LINE
  5
2E4E
  8
0
  6
AUSGEZOGEN
 62
     3
 10
29.7386787763911897
 20
41.404913662254188
 30
-0.0000000000000158
 11
21.0036206256735589
 21
41.404913662254188
 31
-0.0000000000000156
210
0.0000000000000002
220
1.0
230
-0.0000000000000002
  0
LINE
  5
2E4F
  8
0
  6
AUSGEZOGEN
 62
     3
 10
29.7386787763911897
 20
39.9049136622542022
 30
-0.0000000000000155
 11
21.0036206256735589
 21
39.9049136622542022
 31
-0.0000000000000153
210
0.0000000000000002
220
1.0
230
-0.0000000000000002
  0
LINE
  5
2E50
  8
0
  6
AUSGEZOGEN
 62
     3
 10
29.7386787763912004
 20
41.404913662254188
 30
-0.0000000000000158
 11
30.6091198868360017
 21
41.404913662254188
 31
-0.000000000000016
210
0.0000000000000002
220
1.0
230
-0.0000000000000002
  0
LINE
  5
2E51
  8
0
  6
AUSGEZOGEN
 62
     3
 10
29.7386787763912004
 20
39.9049136622542022
 30
-0.0000000000000155
 11
30.6091198868359911
 21
39.9049136622542022
 31
-0.0000000000000157
210
0.0000000000000002
220
1.0
230
-0.0000000000000002
  0
LINE
  5
2E52
  8
0
  6
AUSGEZOGEN
 62
     3
 10
30.6091198868359911
 20
41.4049136622541809
 30
-0.000000000000016
 11
36.0694650502506633
 21
41.4049136622541809
 31
-0.000000000000003
210
0.0000000000000002
220
1.0
230
-0.0000000000000002
  0
LINE
  5
2E53
  8
0
  6
AUSGEZOGEN
 62
     3
 10
30.6091198868359804
 20
39.904913662254188
 30
-0.0000000000000157
 11
36.0694650502506633
 21
39.904913662254188
 31
-0.0000000000000027
210
0.0000000000000002
220
1.0
230
-0.0000000000000002
  0
LINE
  5
2E54
  8
0
  6
AUSGEZOGEN
 62
     3
 10
36.0694650502506491
 20
41.404913662254188
 30
-0.000000000000003
 11
36.5664123697539694
 21
41.404913662254188
 31
-0.0000000000000102
210
0.0000000000000002
220
1.0
230
-0.0000000000000002
  0
LINE
  5
2E55
  8
0
  6
AUSGEZOGEN
 62
     3
 10
36.0694650502506491
 20
39.9049136622542022
 30
-0.0000000000000027
 11
36.5664123697539694
 21
39.9049136622542022
 31
-0.0000000000000099
210
0.0000000000000002
220
1.0
230
-0.0000000000000002
  0
LINE
  5
2E56
  8
0
  6
AUSGEZOGEN
 62
     3
 10
38.1000309368543171
 20
41.4049136622541809
 30
-0.0000000000000105
 11
36.5664123697539694
 21
41.4049136622541809
 31
-0.0000000000000102
210
0.0000000000000002
220
1.0
230
-0.0000000000000002
  0
LINE
  5
2E57
  8
0
  6
AUSGEZOGEN
 62
     3
 10
38.1000309368543171
 20
39.904913662254188
 30
-0.0000000000000102
 11
36.5664123697539694
 21
39.904913662254188
 31
-0.0000000000000099
210
0.0000000000000002
220
1.0
230
-0.0000000000000002
  0
LINE
  5
2E58
  8
0
  6
AUSGEZOGEN
 62
     3
 10
39.2441537424896509
 20
41.4049136622541809
 30
-0.0000000000000108
 11
38.1000309368543313
 21
41.4049136622541809
 31
-0.0000000000000105
210
0.0000000000000002
220
1.0
230
-0.0000000000000002
  0
LINE
  5
2E59
  8
0
  6
AUSGEZOGEN
 62
     3
 10
39.2441537424896509
 20
39.904913662254188
 30
-0.0000000000000105
 11
38.1000309368543313
 21
39.904913662254188
 31
-0.0000000000000102
210
0.0000000000000002
220
1.0
230
-0.0000000000000002
  0
LINE
  5
2E5A
  8
0
  6
AUSGEZOGEN
 62
     3
 10
48.9270402934532882
 20
41.4049136622541667
 30
-0.0000000000000058
 11
39.2441537424896509
 21
41.4049136622541809
 31
-0.0000000000000059
210
0.0000000000000002
220
1.0
230
-0.0000000000000002
  0
LINE
  5
2E5B
  8
0
  6
AUSGEZOGEN
 62
     3
 10
48.9270402934532882
 20
39.9049136622541809
 30
-0.0000000000000055
 11
39.2441537424896509
 21
39.904913662254188
 31
-0.0000000000000056
210
0.0000000000000002
220
1.0
230
-0.0000000000000002
  0
LINE
  5
2E5C
  8
0
  6
AUSGEZOGEN
 62
     3
 10
48.9270402934532882
 20
41.4049136622541667
 30
-0.0000000000000058
 11
49.7604882034382499
 21
41.4049136622541667
 31
-0.000000000000006
210
0.0000000000000002
220
1.0
230
-0.0000000000000002
  0
LINE
  5
2E5D
  8
0
  6
AUSGEZOGEN
 62
     3
 10
48.9270402934532882
 20
39.9049136622541809
 30
-0.0000000000000055
 11
49.7604882034382499
 21
39.9049136622541809
 31
-0.0000000000000057
210
0.0000000000000002
220
1.0
230
-0.0000000000000002
  0
LINE
  5
2E5E
  8
0
  6
AUSGEZOGEN
 62
     3
 10
49.7604882034382285
 20
41.4049136622541667
 30
-0.000000000000006
 11
54.093842660283272
 21
41.4049136622541667
 31
-0.000000000000007
210
0.0000000000000002
220
1.0
230
-0.0000000000000002
  0
LINE
  5
2E5F
  8
0
  6
AUSGEZOGEN
 62
     3
 10
49.7604882034382285
 20
39.9049136622541809
 30
-0.0000000000000057
 11
54.093842660283272
 21
39.9049136622541809
 31
-0.0000000000000067
210
0.0000000000000002
220
1.0
230
-0.0000000000000002
  0
LINE
  5
2E60
  8
0
  6
AUSGEZOGEN
 62
     3
 10
54.0938426602833289
 20
41.4049136622541667
 30
-0.000000000000007
 11
54.3578720118440728
 21
41.4049136622541667
 31
-0.0000000000000071
210
0.0000000000000002
220
1.0
230
-0.0000000000000002
  0
LINE
  5
2E61
  8
0
  6
AUSGEZOGEN
 62
     3
 10
54.0938426602833289
 20
39.9049136622541809
 30
-0.0000000000000067
 11
54.3578720118440728
 21
39.9049136622541809
 31
-0.0000000000000067
210
0.0000000000000002
220
1.0
230
-0.0000000000000002
  0
LINE
  5
2E62
  8
0
  6
AUSGEZOGEN
 62
     3
 10
63.3260822118573472
 20
41.4049136622541667
 30
-0.000000000000009
 11
54.3578720118440728
 21
41.4049136622541667
 31
-0.0000000000000091
210
0.0000000000000002
220
1.0
230
-0.0000000000000002
  0
LINE
  5
2E63
  8
0
  6
AUSGEZOGEN
 62
     3
 10
63.3260822118573472
 20
39.9049136622541809
 30
-0.0000000000000087
 11
54.3578720118440728
 21
39.9049136622541809
 31
-0.0000000000000087
210
0.0000000000000002
220
1.0
230
-0.0000000000000002
  0
LINE
  5
2E64
  8
0
  6
AUSGEZOGEN
 62
     3
 10
63.3260822118573472
 20
41.4049136622541667
 30
-0.000000000000009
 11
64.0409532329801152
 21
41.4049136622541667
 31
-0.0000000000000092
210
0.0000000000000002
220
1.0
230
-0.0000000000000002
  0
LINE
  5
2E65
  8
0
  6
AUSGEZOGEN
 62
     3
 10
63.3260822118573472
 20
39.9049136622541809
 30
-0.0000000000000087
 11
64.0409532329801152
 21
39.9049136622541809
 31
-0.0000000000000089
210
0.0000000000000002
220
1.0
230
-0.0000000000000002
  0
LINE
  5
2E66
  8
0
  6
AUSGEZOGEN
 62
     3
 10
64.0409532329801152
 20
41.4049136622541667
 30
-0.0000000000000092
 11
66.8231380567637103
 21
41.4049136622541667
 31
-0.0000000000000098
210
0.0000000000000002
220
1.0
230
-0.0000000000000002
  0
LINE
  5
2E67
  8
0
  6
AUSGEZOGEN
 62
     3
 10
64.0409532329801152
 20
39.9049136622541809
 30
-0.0000000000000089
 11
66.8231380567637103
 21
39.9049136622541809
 31
-0.0000000000000095
210
0.0000000000000002
220
1.0
230
-0.0000000000000002
  0
LINE
  5
2E68
  8
0
  6
AUSGEZOGEN
 62
     3
 10
66.8231380567637103
 20
41.4049136622541667
 30
-0.0000000000000098
 11
66.9139797158553762
 21
41.4049136622541667
 31
-0.0000000000000098
210
0.0000000000000002
220
1.0
230
-0.0000000000000002
  0
LINE
  5
2E69
  8
0
  6
AUSGEZOGEN
 62
     3
 10
66.8231380567637103
 20
39.9049136622541809
 30
-0.0000000000000095
 11
66.9139797158553762
 21
39.9049136622541809
 31
-0.0000000000000095
210
0.0000000000000002
220
1.0
230
-0.0000000000000002
  0
LINE
  5
2E6A
  8
0
  6
AUSGEZOGEN
 62
     3
 10
71.5263259846058332
 20
41.4049136622541667
 30
-0.0000000000000091
 11
66.9139797158553762
 21
41.4049136622541667
 31
-0.000000000000009
210
0.0000000000000002
220
1.0
230
-0.0000000000000002
  0
LINE
  5
2E6B
  8
0
  6
AUSGEZOGEN
 62
     3
 10
71.5263259846058332
 20
39.9049136622541809
 30
-0.0000000000000088
 11
66.9139797158553762
 21
39.9049136622541809
 31
-0.0000000000000086
210
0.0000000000000002
220
1.0
230
-0.0000000000000002
  0
LINE
  5
2E6C
  8
0
  6
AUSGEZOGEN
 62
     3
 10
71.526325984605819
 20
41.4049136622541667
 30
-0.0000000000000091
 11
72.0526435605195985
 21
41.4049136622541667
 31
-0.0000000000000092
210
0.0000000000000002
220
1.0
230
-0.0000000000000002
  0
LINE
  5
2E6D
  8
0
  6
AUSGEZOGEN
 62
     3
 10
71.526325984605819
 20
39.9049136622541809
 30
-0.0000000000000088
 11
72.0526435605195985
 21
39.9049136622541809
 31
-0.0000000000000089
210
0.0000000000000002
220
1.0
230
-0.0000000000000002
  0
LINE
  5
2E6E
  8
0
  6
AUSGEZOGEN
 62
     3
 10
72.0526435605196411
 20
41.4049136622541667
 30
-0.0000000000000092
 11
73.0113191160683215
 21
41.4049136622541667
 31
-0.0000000000000094
210
0.0000000000000002
220
1.0
230
-0.0000000000000002
  0
LINE
  5
2E6F
  8
0
  6
AUSGEZOGEN
 62
     3
 10
72.0526435605196411
 20
39.9049136622541809
 30
-0.0000000000000089
 11
73.0113191160683215
 21
39.9049136622541809
 31
-0.0000000000000091
210
0.0000000000000002
220
1.0
230
-0.0000000000000002
  0
LINE
  5
2E70
  8
0
  6
AUSGEZOGEN
 62
     3
 10
73.0113191160683215
 20
41.4049136622541667
 30
-0.0000000000000094
 11
73.0179678355775792
 21
41.4049136622541667
 31
-0.0000000000000094
210
0.0000000000000002
220
1.0
230
-0.0000000000000002
  0
LINE
  5
2E71
  8
0
  6
AUSGEZOGEN
 62
     3
 10
73.0113191160683215
 20
39.9049136622541809
 30
-0.0000000000000091
 11
73.0179678355775792
 21
39.9049136622541809
 31
-0.0000000000000091
210
0.0000000000000002
220
1.0
230
-0.0000000000000002
  0
LINE
  5
2E72
  8
0
  6
AUSGEZOGEN
 62
     3
 10
-73.0179678355775508
 20
41.4049136622542093
 30
-0.000000000000009
 11
-73.0113191160682931
 21
41.4049136622542093
 31
-0.000000000000009
210
0.0000000000000002
220
1.0
230
-0.0000000000000002
  0
LINE
  5
2E73
  8
0
  6
AUSGEZOGEN
 62
     3
 10
-73.0179678355775508
 20
39.9049136622542093
 30
-0.0000000000000086
 11
-73.0113191160682931
 21
39.9049136622542093
 31
-0.0000000000000086
210
0.0000000000000002
220
1.0
230
-0.0000000000000002
  0
LINE
  5
2E74
  8
0
  6
AUSGEZOGEN
 62
     3
 10
-73.0113191160682362
 20
41.4049136622542022
 30
-0.000000000000009
 11
-72.0526435605196127
 21
41.4049136622542022
 31
-0.0000000000000092
210
0.0000000000000002
220
1.0
230
-0.0000000000000002
  0
LINE
  5
2E75
  8
0
  6
AUSGEZOGEN
 62
     3
 10
-73.0113191160682362
 20
39.9049136622542022
 30
-0.0000000000000086
 11
-72.0526435605196127
 21
39.9049136622542022
 31
-0.0000000000000088
210
0.0000000000000002
220
1.0
230
-0.0000000000000002
  0
LINE
  5
2E76
  8
0
  6
AUSGEZOGEN
 62
     3
 10
-72.0526435605196127
 20
41.4049136622542093
 30
-0.0000000000000092
 11
-71.5263259846058048
 21
41.4049136622542093
 31
-0.0000000000000093
210
0.0000000000000002
220
1.0
230
-0.0000000000000002
  0
LINE
  5
2E77
  8
0
  6
AUSGEZOGEN
 62
     3
 10
-72.0526435605196127
 20
39.9049136622542093
 30
-0.0000000000000088
 11
-71.5263259846058048
 21
39.9049136622542093
 31
-0.000000000000009
210
0.0000000000000002
220
1.0
230
-0.0000000000000002
  0
LINE
  5
2E78
  8
0
  6
AUSGEZOGEN
 62
     3
 10
-66.9139797158553336
 20
41.4049136622542093
 30
-0.0000000000000085
 11
-71.5263259846058048
 21
41.4049136622542093
 31
-0.0000000000000084
210
0.0000000000000002
220
1.0
230
-0.0000000000000002
  0
LINE
  5
2E79
  8
0
  6
AUSGEZOGEN
 62
     3
 10
-66.9139797158553336
 20
39.9049136622542093
 30
-0.0000000000000082
 11
-71.5263259846058048
 21
39.9049136622542093
 31
-0.0000000000000081
210
0.0000000000000002
220
1.0
230
-0.0000000000000002
  0
LINE
  5
2E7A
  8
0
  6
AUSGEZOGEN
 62
     3
 10
-66.9139797158553336
 20
41.4049136622542093
 30
-0.0000000000000085
 11
-66.8231380567636819
 21
41.4049136622542093
 31
-0.0000000000000086
210
0.0000000000000002
220
1.0
230
-0.0000000000000002
  0
LINE
  5
2E7B
  8
0
  6
AUSGEZOGEN
 62
     3
 10
-66.9139797158553336
 20
39.9049136622542093
 30
-0.0000000000000082
 11
-66.8231380567636819
 21
39.9049136622542093
 31
-0.0000000000000082
210
0.0000000000000002
220
1.0
230
-0.0000000000000002
  0
LINE
  5
2E7C
  8
0
  6
AUSGEZOGEN
 62
     3
 10
-66.8231380567636819
 20
41.4049136622542093
 30
-0.0000000000000086
 11
-64.0409532329800584
 21
41.4049136622542093
 31
-0.0000000000000092
210
0.0000000000000002
220
1.0
230
-0.0000000000000002
  0
LINE
  5
2E7D
  8
0
  6
AUSGEZOGEN
 62
     3
 10
-66.8231380567636819
 20
39.9049136622542093
 30
-0.0000000000000082
 11
-64.0409532329800584
 21
39.9049136622542093
 31
-0.0000000000000089
210
0.0000000000000002
220
1.0
230
-0.0000000000000002
  0
LINE
  5
2E7E
  8
0
  6
AUSGEZOGEN
 62
     3
 10
-64.0409532329799731
 20
41.4049136622542093
 30
-0.0000000000000092
 11
-63.3260822118573827
 21
41.4049136622542093
 31
-0.0000000000000093
210
0.0000000000000002
220
1.0
230
-0.0000000000000002
  0
LINE
  5
2E7F
  8
0
  6
AUSGEZOGEN
 62
     3
 10
-64.0409532329799731
 20
39.9049136622542093
 30
-0.0000000000000089
 11
-63.3260822118573827
 21
39.9049136622542093
 31
-0.000000000000009
210
0.0000000000000002
220
1.0
230
-0.0000000000000002
  0
LINE
  5
2E80
  8
0
  6
AUSGEZOGEN
 62
     3
 10
-54.357872011844087
 20
41.4049136622542093
 30
-0.0000000000000113
 11
-63.3260822118573827
 21
41.4049136622542093
 31
-0.0000000000000113
210
0.0000000000000002
220
1.0
230
-0.0000000000000002
  0
LINE
  5
2E81
  8
0
  6
AUSGEZOGEN
 62
     3
 10
-54.357872011844087
 20
39.9049136622542093
 30
-0.000000000000011
 11
-63.3260822118573827
 21
39.9049136622542093
 31
-0.000000000000011
210
0.0000000000000002
220
1.0
230
-0.0000000000000002
  0
LINE
  5
2E82
  8
0
  6
AUSGEZOGEN
 62
     3
 10
-54.357872011844087
 20
41.4049136622542093
 30
-0.0000000000000113
 11
-54.0938426602832934
 21
41.4049136622542093
 31
-0.0000000000000114
210
0.0000000000000002
220
1.0
230
-0.0000000000000002
  0
LINE
  5
2E83
  8
0
  6
AUSGEZOGEN
 62
     3
 10
-54.357872011844087
 20
39.9049136622542093
 30
-0.000000000000011
 11
-54.0938426602832934
 21
39.9049136622542093
 31
-0.0000000000000111
210
0.0000000000000002
220
1.0
230
-0.0000000000000002
  0
LINE
  5
2E84
  8
0
  6
AUSGEZOGEN
 62
     3
 10
-54.0938426602833005
 20
41.4049136622542093
 30
-0.0000000000000114
 11
-49.7604882034382712
 21
41.4049136622542093
 31
-0.0000000000000124
210
0.0000000000000002
220
1.0
230
-0.0000000000000002
  0
LINE
  5
2E85
  8
0
  6
AUSGEZOGEN
 62
     3
 10
-54.0938426602833005
 20
39.9049136622542093
 30
-0.0000000000000111
 11
-49.7604882034382712
 21
39.9049136622542093
 31
-0.000000000000012
210
0.0000000000000002
220
1.0
230
-0.0000000000000002
  0
LINE
  5
2E86
  8
0
  6
AUSGEZOGEN
 62
     3
 10
-49.7604882034382712
 20
41.4049136622542093
 30
-0.0000000000000124
 11
-48.9270402934533095
 21
41.4049136622542093
 31
-0.0000000000000125
210
0.0000000000000002
220
1.0
230
-0.0000000000000002
  0
LINE
  5
2E87
  8
0
  6
AUSGEZOGEN
 62
     3
 10
-49.7604882034382712
 20
39.9049136622542093
 30
-0.000000000000012
 11
-48.9270402934533095
 21
39.9049136622542093
 31
-0.0000000000000122
210
0.0000000000000002
220
1.0
230
-0.0000000000000002
  0
LINE
  5
2E88
  8
0
  6
AUSGEZOGEN
 62
     3
 10
-39.244153742489722
 20
41.4049136622542022
 30
-0.0000000000000076
 11
-48.9270402934533095
 21
41.4049136622542093
 31
-0.0000000000000077
210
0.0000000000000002
220
1.0
230
-0.0000000000000002
  0
LINE
  5
2E89
  8
0
  6
AUSGEZOGEN
 62
     3
 10
-39.244153742489722
 20
39.9049136622542022
 30
-0.0000000000000073
 11
-48.9270402934533095
 21
39.9049136622542093
 31
-0.0000000000000073
210
0.0000000000000002
220
1.0
230
-0.0000000000000002
  0
LINE
  5
2E8A
  8
0
  6
AUSGEZOGEN
 62
     3
 10
-38.1000309368543881
 20
41.4049136622542022
 30
-0.0000000000000078
 11
-39.244153742489722
 21
41.4049136622542022
 31
-0.0000000000000076
210
0.0000000000000002
220
1.0
230
-0.0000000000000002
  0
LINE
  5
2E8B
  8
0
  6
AUSGEZOGEN
 62
     3
 10
-38.1000309368543881
 20
39.9049136622542022
 30
-0.0000000000000075
 11
-39.244153742489722
 21
39.9049136622542022
 31
-0.0000000000000073
210
0.0000000000000002
220
1.0
230
-0.0000000000000002
  0
LINE
  5
2E8C
  8
0
  6
AUSGEZOGEN
 62
     3
 10
-36.5664123697539267
 20
41.4049136622542093
 30
-0.0000000000000082
 11
-38.1000309368543881
 21
41.4049136622542093
 31
-0.0000000000000078
210
0.0000000000000002
220
1.0
230
-0.0000000000000002
  0
LINE
  5
2E8D
  8
0
  6
AUSGEZOGEN
 62
     3
 10
-36.5664123697539267
 20
39.9049136622542093
 30
-0.0000000000000078
 11
-38.1000309368543881
 21
39.9049136622542093
 31
-0.0000000000000075
210
0.0000000000000002
220
1.0
230
-0.0000000000000002
  0
LINE
  5
2E8E
  8
0
  6
AUSGEZOGEN
 62
     3
 10
-36.5664123697539409
 20
41.4049136622542093
 30
-0.0000000000000082
 11
-36.0694650502507272
 21
41.4049136622542093
 31
-0.0000000000000154
210
0.0000000000000002
220
1.0
230
-0.0000000000000002
  0
LINE
  5
2E8F
  8
0
  6
AUSGEZOGEN
 62
     3
 10
-36.5664123697539409
 20
39.9049136622542093
 30
-0.0000000000000078
 11
-36.0694650502507272
 21
39.9049136622542093
 31
-0.0000000000000151
210
0.0000000000000002
220
1.0
230
-0.0000000000000002
  0
LINE
  5
2E90
  8
0
  6
AUSGEZOGEN
 62
     3
 10
-36.0694650502507272
 20
41.4049136622542022
 30
-0.0000000000000154
 11
-30.6091198868359413
 21
41.4049136622542022
 31
-0.0000000000000024
210
0.0000000000000002
220
1.0
230
-0.0000000000000002
  0
LINE
  5
2E91
  8
0
  6
AUSGEZOGEN
 62
     3
 10
-36.0694650502507272
 20
39.9049136622542022
 30
-0.0000000000000151
 11
-30.6091198868359413
 21
39.9049136622542022
 31
-0.0000000000000021
210
0.0000000000000002
220
1.0
230
-0.0000000000000002
  0
LINE
  5
2E92
  8
0
  6
AUSGEZOGEN
 62
     3
 10
-30.6091198868359413
 20
41.4049136622542093
 30
-0.0000000000000024
 11
-29.7386787763911506
 21
41.4049136622542093
 31
-0.0000000000000026
210
0.0000000000000002
220
1.0
230
-0.0000000000000002
  0
LINE
  5
2E93
  8
0
  6
AUSGEZOGEN
 62
     3
 10
-30.6091198868359413
 20
39.9049136622542093
 30
-0.0000000000000021
 11
-29.7386787763911506
 21
39.9049136622542093
 31
-0.0000000000000023
210
0.0000000000000002
220
1.0
230
-0.0000000000000002
  0
LINE
  5
2E94
  8
0
  6
AUSGEZOGEN
 62
     3
 10
-21.0036206256736193
 20
41.4049136622542093
 30
-0.0000000000000116
 11
-29.7386787763911506
 21
41.4049136622542093
 31
-0.0000000000000115
210
0.0000000000000002
220
1.0
230
-0.0000000000000002
  0
LINE
  5
2E95
  8
0
  6
AUSGEZOGEN
 62
     3
 10
-21.00362062567363
 20
39.9049136622542093
 30
-0.0000000000000113
 11
-29.7386787763911506
 21
39.9049136622542093
 31
-0.0000000000000111
210
0.0000000000000002
220
1.0
230
-0.0000000000000002
  0
LINE
  5
2E96
  8
0
  6
AUSGEZOGEN
 62
     3
 10
-19.6586236017456883
 20
41.4049136622542093
 30
-0.0000000000000119
 11
-21.00362062567363
 21
41.4049136622542093
 31
-0.0000000000000116
210
0.0000000000000002
220
1.0
230
-0.0000000000000002
  0
LINE
  5
2E97
  8
0
  6
AUSGEZOGEN
 62
     3
 10
-19.6586236017456883
 20
39.9049136622542093
 30
-0.0000000000000116
 11
-21.0036206256736406
 21
39.9049136622542093
 31
-0.0000000000000113
210
0.0000000000000002
220
1.0
230
-0.0000000000000002
  0
LINE
  5
2E98
  8
0
  6
AUSGEZOGEN
 62
     3
 10
-15.2078891711412094
 20
41.4049136622542022
 30
-0.0000000000000058
 11
-19.6586236017456883
 21
41.4049136622542093
 31
-0.0000000000000066
210
0.0000000000000002
220
1.0
230
-0.0000000000000002
  0
LINE
  5
2E99
  8
0
  6
AUSGEZOGEN
 62
     3
 10
-15.2078891711412094
 20
39.9049136622542022
 30
-0.0000000000000055
 11
-19.6586236017456883
 21
39.9049136622542093
 31
-0.0000000000000063
210
0.0000000000000002
220
1.0
230
-0.0000000000000002
  0
LINE
  5
2E9A
  8
0
  6
AUSGEZOGEN
 62
     3
 10
-15.2078891711412005
 20
41.4049136622542022
 30
-0.0000000000000058
 11
-14.5143568903590996
 21
41.4049136622542022
 31
-0.000000000000006
210
0.0000000000000002
220
1.0
230
-0.0000000000000002
  0
LINE
  5
2E9B
  8
0
  6
AUSGEZOGEN
 62
     3
 10
-15.2078891711412005
 20
39.9049136622542022
 30
-0.0000000000000055
 11
-14.5143568903590996
 21
39.9049136622542022
 31
-0.0000000000000056
210
0.0000000000000002
220
1.0
230
-0.0000000000000002
  0
LINE
  5
2E9C
  8
0
  6
AUSGEZOGEN
 62
     3
 10
-14.5143568903590996
 20
41.404913662254188
 30
-0.000000000000006
 11
-8.4615176494316735
 21
41.404913662254188
 31
-0.0000000000000073
210
0.0000000000000002
220
1.0
230
-0.0000000000000002
  0
LINE
  5
2E9D
  8
0
  6
AUSGEZOGEN
 62
     3
 10
-14.5143568903590996
 20
39.9049136622542022
 30
-0.0000000000000056
 11
-8.4615176494316735
 21
39.9049136622542022
 31
-0.000000000000007
210
0.0000000000000002
220
1.0
230
-0.0000000000000002
  0
LINE
  5
2E9E
  8
0
  6
AUSGEZOGEN
 62
     3
 10
-8.4615176494316717
 20
41.4049136622542022
 30
-0.0000000000000073
 11
-7.6392881791371989
 21
41.4049136622542022
 31
-0.0000000000000075
210
0.0000000000000002
220
1.0
230
-0.0000000000000002
  0
LINE
  5
2E9F
  8
0
  6
AUSGEZOGEN
 62
     3
 10
-8.4615176494316717
 20
39.9049136622542022
 30
-0.000000000000007
 11
-7.6392881791371989
 21
39.9049136622542022
 31
-0.0000000000000072
210
0.0000000000000002
220
1.0
230
-0.0000000000000002
  0
LINE
  5
2EA0
  8
0
  6
AUSGEZOGEN
 62
     3
 10
-0.7071067811865862
 20
41.4049136622542022
 30
-0.000000000000009
 11
-7.6392881791371989
 21
41.4049136622542022
 31
-0.0000000000000093
210
0.0000000000000002
220
1.0
230
-0.0000000000000002
  0
LINE
  5
2EA1
  8
0
  6
AUSGEZOGEN
 62
     3
 10
-0.7071067811865867
 20
39.9049136622542022
 30
-0.0000000000000087
 11
-7.6392881791371989
 21
39.9049136622542022
 31
-0.0000000000000089
210
0.0000000000000002
220
1.0
230
-0.0000000000000002
  0
LINE
  5
2EA2
  8
0
  6
AUSGEZOGEN
 62
     3
 10
0.7071067811865203
 20
41.4049136622542022
 30
-0.0000000000000094
 11
-0.7071067811865862
 21
41.4049136622542022
 31
-0.000000000000009
210
0.0000000000000002
220
1.0
230
-0.0000000000000002
  0
LINE
  5
2EA3
  8
0
  6
AUSGEZOGEN
 62
     3
 10
0.70710678118652
 20
39.9049136622542022
 30
-0.000000000000009
 11
-0.7071067811865867
 21
39.9049136622542022
 31
-0.0000000000000087
210
0.0000000000000002
220
1.0
230
-0.0000000000000002
  0
LINE
  5
2EA4
  8
0
  6
AUSGEZOGEN
 62
     3
 10
7.6392881791371918
 20
41.4049136622542022
 30
-0.0000000000000109
 11
0.7071067811865199
 21
41.4049136622542022
 31
-0.0000000000000111
210
0.0000000000000002
220
1.0
230
-0.0000000000000002
  0
LINE
  5
2EA5
  8
0
  6
AUSGEZOGEN
 62
     3
 10
7.6392881791371918
 20
39.9049136622542022
 30
-0.0000000000000106
 11
0.7071067811865195
 21
39.9049136622542022
 31
-0.0000000000000108
210
0.0000000000000002
220
1.0
230
-0.0000000000000002
  0
LINE
  5
2EA6
  8
0
  6
AUSGEZOGEN
 62
     3
 10
7.6392881791371856
 20
41.4049136622542022
 30
-0.0000000000000109
 11
8.4615176494316664
 21
41.4049136622542022
 31
-0.0000000000000111
210
0.0000000000000002
220
1.0
230
-0.0000000000000002
  0
LINE
  5
2EA7
  8
0
  6
AUSGEZOGEN
 62
     3
 10
7.6392881791371856
 20
39.9049136622542022
 30
-0.0000000000000106
 11
8.4615176494316664
 21
39.9049136622542022
 31
-0.0000000000000107
210
0.0000000000000002
220
1.0
230
-0.0000000000000002
  0
LINE
  5
2EA8
  8
0
  6
AUSGEZOGEN
 62
     3
 10
8.4615176494316664
 20
41.404913662254188
 30
-0.0000000000000111
 11
14.5143568903590907
 21
41.404913662254188
 31
-0.0000000000000124
210
0.0000000000000002
220
1.0
230
-0.0000000000000002
  0
LINE
  5
2EA9
  8
0
  6
AUSGEZOGEN
 62
     3
 10
8.4615176494316664
 20
39.9049136622542022
 30
-0.0000000000000107
 11
14.5143568903590907
 21
39.9049136622542022
 31
-0.0000000000000121
210
0.0000000000000002
220
1.0
230
-0.0000000000000002
  0
LINE
  5
2EAA
  8
0
  6
AUSGEZOGEN
 62
     3
 10
14.5143568903590907
 20
41.4049136622542022
 30
-0.0000000000000124
 11
15.2078891711412592
 21
41.4049136622542022
 31
-0.0000000000000126
210
0.0000000000000002
220
1.0
230
-0.0000000000000002
  0
LINE
  5
2EAB
  8
0
  6
AUSGEZOGEN
 62
     3
 10
14.5143568903590907
 20
39.9049136622542022
 30
-0.0000000000000121
 11
15.2078891711412592
 21
39.9049136622542022
 31
-0.0000000000000122
210
0.0000000000000002
220
1.0
230
-0.0000000000000002
  0
LINE
  5
2EAC
  8
0
  6
AUSGEZOGEN
 62
     3
 10
19.6586236017456315
 20
41.404913662254188
 30
-0.0000000000000065
 11
15.2078891711412592
 21
41.4049136622542022
 31
-0.0000000000000072
210
0.0000000000000002
220
1.0
230
-0.0000000000000002
  0
LINE
  5
2EAD
  8
0
  6
AUSGEZOGEN
 62
     3
 10
19.6586236017456208
 20
39.9049136622542022
 30
-0.0000000000000061
 11
15.2078891711412592
 21
39.9049136622542022
 31
-0.0000000000000069
210
0.0000000000000002
220
1.0
230
-0.0000000000000002
  0
LINE
  5
2EAE
  8
0
  6
AUSGEZOGEN
 62
     3
 10
21.0036206256735589
 20
41.404913662254188
 30
-0.0000000000000068
 11
19.6586236017457487
 21
41.404913662254188
 31
-0.0000000000000065
210
0.0000000000000002
220
1.0
230
-0.0000000000000002
  0
LINE
  5
2EAF
  8
0
  6
AUSGEZOGEN
 62
     3
 10
21.0036206256735589
 20
39.9049136622542022
 30
-0.0000000000000064
 11
19.6586236017457487
 21
39.9049136622542022
 31
-0.0000000000000061
210
0.0000000000000002
220
1.0
230
-0.0000000000000002
  0
LINE
  5
2EB0
  8
0
  6
AUSGEZOGEN
 62
     3
 10
54.3578720118440515
 20
41.4049136622541667
 30
-0.0000000000000071
 11
54.3578720118440515
 21
39.9049136622541809
 31
-0.0000000000000067
210
0.0000000000000002
220
1.0
230
-0.0000000000000002
  0
LINE
  5
2EB1
  8
0
  6
AUSGEZOGEN
 62
     3
 10
66.9139797158553904
 20
41.4049136622541667
 30
-0.0000000000000098
 11
66.9139797158553904
 21
39.9049136622541809
 31
-0.0000000000000095
210
0.0000000000000002
220
1.0
230
-0.0000000000000002
  0
LINE
  5
2EB2
  8
0
  6
AUSGEZOGEN
 62
     3
 10
73.0179678355775792
 20
41.4049136622541667
 30
-0.0000000000000094
 11
73.0179678355775792
 21
39.9049136622541809
 31
-0.0000000000000091
210
0.0000000000000002
220
1.0
230
-0.0000000000000002
  0
LINE
  5
2EB3
  8
0
  6
AUSGEZOGEN
 62
     3
 10
-73.0179678355775508
 20
41.4049136622542093
 30
-0.000000000000009
 11
-73.0179678355775508
 21
39.9049136622542093
 31
-0.0000000000000086
210
0.0000000000000002
220
1.0
230
-0.0000000000000002
  0
LINE
  5
2EB4
  8
0
  6
AUSGEZOGEN
 62
     3
 10
-66.913979715855362
 20
41.4049136622542093
 30
-0.0000000000000085
 11
-66.913979715855362
 21
39.9049136622542093
 31
-0.0000000000000082
210
0.0000000000000002
220
1.0
230
-0.0000000000000002
  0
LINE
  5
2EB5
  8
0
  6
AUSGEZOGEN
 62
     3
 10
-54.357872011844087
 20
41.4049136622542093
 30
-0.0000000000000113
 11
-54.357872011844087
 21
39.9049136622542093
 31
-0.000000000000011
210
0.0000000000000002
220
1.0
230
-0.0000000000000002
  0
LINE
  5
2EB6
  8
0
  6
VERDECKT
 62
     1
 10
-15.2315462117283698
 20
112.0000000000000995
 30
-0.0000000000000215
 11
-15.2315462117283804
 21
105.0000000000000995
 31
-0.0000000000000199
210
0.0000000000000002
220
1.0
230
-0.0000000000000002
  0
LINE
  5
2EB7
  8
0
  6
VERDECKT
 62
     1
 10
15.2315462117279896
 20
105.0000000000000995
 30
-0.0000000000000267
 11
15.2315462117280003
 21
112.0000000000000995
 31
-0.0000000000000283
210
0.0000000000000002
220
1.0
230
-0.0000000000000002
  0
LINE
  5
2EB8
  8
0
  6
VERDECKT
 62
     1
 10
56.9999999999998082
 20
112.0000000000000995
 30
-0.0000000000000251
 11
58.999999999999801
 21
112.0000000000000995
 31
-0.0000000000000249
210
0.0000000000000002
220
1.0
230
-0.0000000000000002
  0
LINE
  5
2EB9
  8
0
  6
VERDECKT
 62
     1
 10
56.999999999999801
 20
112.0000000000000995
 30
-0.0000000000000251
 11
56.9999999999997868
 21
105.0000000000000995
 31
-0.0000000000000235
210
0.0000000000000002
220
1.0
230
-0.0000000000000002
  0
LINE
  5
2EBA
  8
0
  6
VERDECKT
 62
     1
 10
58.9999999999997868
 20
105.0000000000000995
 30
-0.0000000000000233
 11
56.9999999999997868
 21
105.0000000000000995
 31
-0.0000000000000235
210
0.0000000000000002
220
1.0
230
-0.0000000000000002
  0
LINE
  5
2EBB
  8
0
  6
VERDECKT
 62
     1
 10
-59.000000000000199
 20
112.0000000000000995
 30
-0.0000000000000249
 11
-57.000000000000199
 21
112.0000000000000995
 31
-0.0000000000000246
210
0.0000000000000002
220
1.0
230
-0.0000000000000002
  0
LINE
  5
2EBC
  8
0
  6
VERDECKT
 62
     1
 10
-57.000000000000199
 20
105.0000000000000995
 30
-0.0000000000000231
 11
-59.000000000000199
 21
105.0000000000000995
 31
-0.0000000000000233
210
0.0000000000000002
220
1.0
230
-0.0000000000000002
  0
LINE
  5
2EBD
  8
0
  6
VERDECKT
 62
     1
 10
-57.000000000000199
 20
105.0000000000000995
 30
-0.0000000000000231
 11
-57.000000000000199
 21
112.0000000000000995
 31
-0.0000000000000246
210
0.0000000000000002
220
1.0
230
-0.0000000000000002
  0
LINE
  5
2EBE
  8
0
  6
VERDECKT
 62
     1
 10
61.9882756530692376
 20
13.1042610377548208
 30
-0.0000000000000029
 11
61.9999999999999503
 21
0.0000000000000413
 31
0.0
210
0.0000000000000002
220
1.0
230
-0.0000000000000002
  0
LINE
  5
2EBF
  8
0
  6
VERDECKT
 62
     1
 10
-61.9882756530692518
 20
13.1042610377546804
 30
-0.0000000000000029
 11
-61.9999999999999432
 21
0.0000000000000138
 31
0.0
210
0.0000000000000002
220
1.0
230
-0.0000000000000002
  0
ARC
  5
2EC0
  8
0
  6
VERDECKT
 62
     1
 10
48.1235954047721677
 20
12.5558332105187205
 30
0.0
 40
13.8755227457996693
210
0.0
220
-0.0000000000000002
230
-1.0
 50
2.2651966103710031
 51
20.0798325957806405
  0
ARC
  5
2EC1
  8
0
  6
VERDECKT
 62
     1
 10
-48.1235954047722174
 20
12.5558332105187898
 30
0.0
 40
13.8755227457996195
210
0.0
220
-0.0000000000000002
230
-1.0
 50
159.9201674042195123
 51
177.734803389628695
  0
ARC
  5
2EC2
  8
0
  6
VERDECKT
 62
     1
 10
5020.2193056511232498
 20
1830.1002469469960943
 30
0.0
 40
5280.0080656753543735
210
0.0
220
-0.0000000000000002
230
-1.0
 50
199.9201674041966044
 51
200.0798325957927943
  0
ARC
  5
2EC3
  8
0
  6
VERDECKT
 62
     1
 10
-5020.2193061002708419
 20
1830.1002471105280165
 30
0.0
 40
5280.0080661533493185
210
0.0
220
-0.0000000000000002
230
-1.0
 50
339.9201674042138279
 51
340.0798325957954944
  0
ARC
  5
2EC4
  8
0
  6
VERDECKT
 62
     1
 10
69.3362629455604775
 20
35.9343467743182927
 30
0.0
 40
14.0538140803117795
210
0.0
220
-0.0000000000000002
230
-1.0
 50
160.0798325957908901
 51
199.9201674042093941
  0
ARC
  5
2EC5
  8
0
  6
VERDECKT
 62
     1
 10
-69.3362629455604775
 20
35.9343467743183922
 30
0.0
 40
14.0538140803117493
210
0.0
220
-0.0000000000000002
230
-1.0
 50
340.079832595790208
 51
19.9201674042087902
  0
LINE
  5
2EC6
  8
0
  6
VERDECKT
 62
     1
 10
-56.1233130240013196
 20
40.7226287808776206
 30
-0.000000000000009
 11
-57.9904005910991884
 21
45.8747343772968676
 31
-0.0000000000000102
210
0.0000000000000002
220
1.0
230
-0.0000000000000002
  0
LINE
  5
2EC7
  8
0
  6
VERDECKT
 62
     1
 10
56.1233130240013196
 20
40.7226287808776419
 30
-0.000000000000009
 11
57.9904005910992097
 21
45.8747343772969671
 31
-0.0000000000000102
210
0.0000000000000002
220
1.0
230
-0.0000000000000002
  0
ARC
  5
2EC8
  8
0
  6
VERDECKT
 62
     1
 10
45.0000000000022595
 20
51.0948390201908396
 30
0.0
 40
13.9999999999976801
210
0.0
220
-0.0000000000000002
230
-1.0
 50
338.1076055008161916
 51
0.0000000000002544
  0
ARC
  5
2EC9
  8
0
  6
VERDECKT
 62
     1
 10
-45.0000000000021885
 20
51.0948390201909319
 30
0.0
 40
13.9999999999977796
210
0.0
220
-0.0000000000000002
230
-1.0
 50
180.0
 51
201.8923944991834958
  0
LINE
  5
2ECA
  8
0
  6
VERDECKT
 62
     1
 10
-58.2516685689531286
 20
40.7226286527384502
 30
-0.000000000000009
 11
-58.4999999999999289
 21
41.4049136622542093
 31
-0.0000000000000092
210
0.0000000000000002
220
1.0
230
-0.0000000000000002
  0
LINE
  5
2ECB
  8
0
  6
VERDECKT
 62
     1
 10
58.251668568953157
 20
40.722628652738571
 30
-0.000000000000009
 11
58.4999999999999005
 21
41.4049136622541667
 31
-0.0000000000000092
210
0.0000000000000002
220
1.0
230
-0.0000000000000002
  0
ARC
  5
2ECC
  8
0
  6
VERDECKT
 62
     1
 10
71.4136504989329666
 20
35.9332383889666929
 30
0.0
 40
14.0062852828231108
210
0.0
220
-0.0000000000000002
230
-1.0
 50
160.0045335690091122
 51
163.5269817585447925
  0
ARC
  5
2ECD
  8
0
  6
VERDECKT
 62
     1
 10
-71.4136504989233032
 20
35.9332383889701532
 30
0.0
 40
14.0062852828128594
210
0.0
220
-0.0000000000000002
230
-1.0
 50
16.4730182414527597
 51
19.9954664309914811
  0
LINE
  5
2ECE
  8
0
  6
VERDECKT
 62
     1
 10
58.999999999999801
 20
120.0000000000000995
 30
-0.0000000000000266
 11
58.999999999999801
 21
112.000000000000199
 31
-0.0000000000000249
210
0.0000000000000002
220
1.0
230
-0.0000000000000002
  0
LINE
  5
2ECF
  8
0
  6
VERDECKT
 62
     1
 10
58.9999999999997868
 20
105.000000000000199
 30
-0.0000000000000233
 11
58.9999999999997868
 21
51.0948390201909319
 31
-0.0000000000000113
210
0.0000000000000002
220
1.0
230
-0.0000000000000002
  0
LINE
  5
2ED0
  8
0
  6
VERDECKT
 62
     1
 10
-59.0000000000001918
 20
120.0000000000000995
 30
-0.0000000000000266
 11
-59.0000000000001918
 21
112.000000000000199
 31
-0.0000000000000249
210
0.0000000000000002
220
1.0
230
-0.0000000000000002
  0
LINE
  5
2ED1
  8
0
  6
VERDECKT
 62
     1
 10
-59.000000000000199
 20
105.000000000000199
 30
-0.0000000000000233
 11
-59.0000000000002132
 21
51.0948390201909035
 31
-0.0000000000000113
210
0.0000000000000002
220
1.0
230
-0.0000000000000002
  0
LINE
  5
2ED2
  8
0
  6
VERDECKT
 62
     1
 10
58.5000000000000071
 20
41.4049136622541667
 30
-0.0000000000000092
 11
58.5000000000000071
 21
39.9049136622541809
 31
-0.0000000000000089
210
0.0000000000000002
220
1.0
230
-0.0000000000000002
  0
LINE
  5
2ED3
  8
0
  6
VERDECKT
 62
     1
 10
-58.4999999999999929
 20
41.4049136622542022
 30
-0.0000000000000092
 11
-58.4999999999999929
 21
39.9049136622542022
 31
-0.0000000000000089
210
0.0000000000000002
220
1.0
230
-0.0000000000000002
  0
LINE
  5
2ED4
  8
0
  6
VERDECKT
 62
     1
 10
52.7996301259339589
 20
41.4049136622541667
 30
-0.0000000000000067
 11
52.7996301259339589
 21
39.9049136622541809
 31
-0.0000000000000064
210
0.0000000000000002
220
1.0
230
-0.0000000000000002
  0
LINE
  5
2ED5
  8
0
  6
VERDECKT
 62
     1
 10
62.2452583336277527
 20
41.4049136622541667
 30
-0.0000000000000088
 11
62.2452583336277527
 21
39.9049136622541809
 31
-0.0000000000000085
210
0.0000000000000002
220
1.0
230
-0.0000000000000002
  0
LINE
  5
2ED6
  8
0
  6
VERDECKT
 62
     1
 10
65.5
 20
41.4049136622541667
 30
-0.0000000000000092
 11
65.5
 21
39.9049136622541809
 31
-0.0000000000000089
210
0.0000000000000002
220
1.0
230
-0.0000000000000002
  0
LINE
  5
2ED7
  8
0
  6
VERDECKT
 62
     1
 10
-65.4999999999999716
 20
41.4049136622542022
 30
-0.0000000000000092
 11
-65.4999999999999716
 21
39.9049136622542022
 31
-0.0000000000000089
210
0.0000000000000002
220
1.0
230
-0.0000000000000002
  0
LINE
  5
2ED8
  8
0
  6
VERDECKT
 62
     1
 10
-62.2452583336277527
 20
41.4049136622542093
 30
-0.0000000000000096
 11
-62.2452583336277527
 21
39.9049136622542093
 31
-0.0000000000000093
210
0.0000000000000002
220
1.0
230
-0.0000000000000002
  0
LINE
  5
2ED9
  8
0
  6
VERDECKT
 62
     1
 10
-52.7996301259340584
 20
41.4049136622542093
 30
-0.0000000000000117
 11
-52.7996301259340584
 21
39.9049136622542093
 31
-0.0000000000000113
210
0.0000000000000002
220
1.0
230
-0.0000000000000002
  0
LINE
  5
2EDA
  8
0
  6
VERDECKT
 62
     1
 10
-57.8686291501014622
 20
75.0000000000000284
 30
-0.0000000000000167
 11
57.8686291501019383
 21
74.9999999999996589
 31
-0.0000000000000167
210
0.0000000000000002
220
1.0
230
-0.0000000000000002
  0
LINE
  5
2EDB
  8
0
  6
VERDECKT
 62
     1
 10
-58.9999999999999787
 20
73.8686291501016683
 30
-0.0000000000000164
 11
59.000000000000469
 21
73.8686291501011851
 31
-0.0000000000000164
210
0.0000000000000002
220
1.0
230
-0.0000000000000002
  0
LINE
  5
2EDC
  8
0
  6
VERDECKT
 62
     1
 10
-35.887579355318401
 20
2.000000000000008
 30
-0.0000000000000004
 11
35.887579355318401
 21
1.9999999999997651
 31
-0.0000000000000004
210
0.0000000000000002
220
1.0
230
-0.0000000000000002
  0
LINE
  5
2EDD
  8
0
  6
VERDECKT
 62
     1
 10
-34.2814676152490279
 20
2.0000000000000311
 30
-0.0000000000000004
 11
-34.8999999999999204
 21
9.0698575086537438
 31
-0.000000000000002
210
0.0000000000000002
220
1.0
230
-0.0000000000000002
  0
LINE
  5
2EDE
  8
0
  6
VERDECKT
 62
     1
 10
34.2814676152490065
 20
1.9999999999997999
 30
-0.0000000000000004
 11
34.8999999999999417
 21
9.0698575086535094
 31
-0.000000000000002
210
0.0000000000000002
220
1.0
230
-0.0000000000000002
  0
LINE
  5
2EDF
  8
0
  6
VERDECKT
 62
     1
 10
34.900000000000162
 20
46.398066401624142
 30
-0.0000000000000103
 11
34.9000000000000412
 21
9.0698575086535147
 31
-0.000000000000002
210
0.0000000000000002
220
1.0
230
-0.0000000000000002
  0
LINE
  5
2EE0
  8
0
  6
VERDECKT
 62
     1
 10
-34.8999999999997996
 20
46.3980664016243693
 30
-0.0000000000000103
 11
-34.8999999999999204
 21
9.0698575086537492
 31
-0.000000000000002
210
0.0000000000000002
220
1.0
230
-0.0000000000000002
  0
ARC
  5
2EE1
  8
0
  6
VERDECKT
 62
     1
 10
48.4999999999999432
 20
46.398066401624277
 30
0.0
 40
13.6000000000000494
210
0.0
220
-0.0000000000000002
230
-1.0
 50
135.0
 51
179.9999999999994884
  0
ARC
  5
2EE2
  8
0
  6
VERDECKT
 62
     1
 10
-48.5000000000001918
 20
46.3980664016239501
 30
0.0
 40
13.60000000000006
210
0.0
220
-0.0000000000000002
230
-1.0
 50
0.0000000000007633
 51
45.0000000000002913
  0
LINE
  5
2EE3
  8
0
  6
VERDECKT
 62
     1
 10
-38.8833477758628305
 20
56.0147186257613612
 30
-0.0000000000000124
 11
-57.8686291501014622
 21
75.0000000000000142
 31
-0.0000000000000167
210
0.0000000000000002
220
1.0
230
-0.0000000000000002
  0
LINE
  5
2EE4
  8
0
  6
VERDECKT
 62
     1
 10
38.8833477758631929
 20
56.0147186257610628
 30
-0.0000000000000124
 11
57.8686291501019809
 21
74.9999999999996163
 31
-0.0000000000000167
210
0.0000000000000002
220
1.0
230
-0.0000000000000002
  0
LINE
  5
2EE5
  8
0
  6
VERDECKT
 62
     1
 10
57.8686291501019312
 20
74.9999999999996447
 30
-0.0000000000000167
 11
59.0000000000004476
 21
73.8686291501011709
 31
-0.0000000000000164
210
0.0000000000000002
220
1.0
230
-0.0000000000000002
  0
LINE
  5
2EE6
  8
0
  6
VERDECKT
 62
     1
 10
-57.8686291501014409
 20
75.0000000000000142
 30
-0.0000000000000167
 11
-58.9999999999999716
 21
73.8686291501015404
 31
-0.0000000000000164
210
0.0000000000000002
220
1.0
230
-0.0000000000000002
  0
LINE
  5
2EE7
  8
0
  6
VERDECKT
 62
     1
 10
-40.0147186257611125
 20
54.8833477758627382
 30
-0.0000000000000122
 11
-58.9999999999999787
 21
73.8686291501015546
 31
-0.0000000000000164
210
0.0000000000000002
220
1.0
230
-0.0000000000000002
  0
LINE
  5
2EE8
  8
0
  6
VERDECKT
 62
     1
 10
40.014718625761482
 20
54.8833477758624184
 30
-0.0000000000000122
 11
59.0000000000004974
 21
73.8686291501011425
 31
-0.0000000000000164
210
0.0000000000000002
220
1.0
230
-0.0000000000000002
  0
ARC
  5
2EE9
  8
0
  6
VERDECKT
 62
     1
 10
48.4999999999996305
 20
46.3980664016242699
 30
0.0
 40
11.9999999999998401
210
0.0
220
-0.0000000000000002
230
-1.0
 50
135.0000000000001137
 51
180.000000000000199
  0
ARC
  5
2EEA
  8
0
  6
VERDECKT
 62
     1
 10
-48.4999999999998934
 20
46.3980664016239288
 30
0.0
 40
11.9999999999998597
210
0.0
220
-0.0000000000000002
230
-1.0
 50
0.0000000000001527
 51
45.0000000000002203
  0
LINE
  5
2EEB
  8
0
  6
VERDECKT
 62
     1
 10
36.5000000000000711
 20
46.3980664016239572
 30
-0.0000000000000103
 11
36.4999999999999503
 21
8.9999999999997655
 31
-0.000000000000002
210
0.0000000000000002
220
1.0
230
-0.0000000000000002
  0
LINE
  5
2EEC
  8
0
  6
VERDECKT
 62
     1
 10
-36.4999999999997087
 20
46.3980664016241988
 30
-0.0000000000000103
 11
-36.4999999999998295
 21
9.0000000000000107
 31
-0.000000000000002
210
0.0000000000000002
220
1.0
230
-0.0000000000000002
  0
LINE
  5
2EED
  8
0
  6
VERDECKT
 62
     1
 10
-35.8875793553184508
 20
2.0000000000000031
 30
-0.0000000000000004
 11
-36.4999999999999503
 21
9.0000000000000053
 31
-0.000000000000002
210
0.0000000000000002
220
1.0
230
-0.0000000000000002
  0
LINE
  5
2EEE
  8
0
  6
VERDECKT
 62
     1
 10
35.8875793553184295
 20
1.999999999999766
 30
-0.0000000000000004
 11
36.4999999999999716
 21
8.9999999999997655
 31
-0.000000000000002
210
0.0000000000000002
220
1.0
230
-0.0000000000000002
  0
LINE
  5
2EEF
  8
0
  6
VERDECKT
 62
     1
 10
24.6914264549234694
 20
112.0000000000000995
 30
-0.0000000000000232
 11
17.6914264549234588
 21
107.0000000000000995
 31
-0.0000000000000224
210
0.0000000000000002
220
1.0
230
-0.0000000000000002
  0
LINE
  5
2EF0
  8
0
  6
VERDECKT
 62
     1
 10
20.2895026662766114
 20
107.0000000000000995
 30
-0.0000000000000212
 11
27.2895026662766114
 21
112.0000000000000995
 31
-0.000000000000022
210
0.0000000000000002
220
1.0
230
-0.0000000000000002
  0
LINE
  5
2EF1
  8
0
  6
VERDECKT
 62
     1
 10
20.2895026662766114
 20
107.0000000000000995
 30
-0.0000000000000212
 11
17.6914264549233486
 21
107.0000000000000995
 31
-0.0000000000000212
210
0.0000000000000002
220
1.0
230
-0.0000000000000002
  0
LINE
  5
2EF2
  8
0
  6
VERDECKT
 62
     1
 10
17.6914264549233486
 20
107.0000000000000995
 30
-0.0000000000000206
 11
14.1914264549233398
 21
107.000000000000199
 31
-0.0000000000000207
210
0.0000000000000002
220
1.0
230
-0.0000000000000002
  0
LINE
  5
2EF3
  8
0
  6
VERDECKT
 62
     1
 10
14.1914264549234606
 20
107.000000000000199
 30
-0.0000000000000234
 11
14.1914264549234499
 21
99.800000000000324
 31
-0.0000000000000218
210
0.0000000000000002
220
1.0
230
-0.0000000000000002
  0
LINE
  5
2EF4
  8
0
  6
VERDECKT
 62
     1
 10
16.7895026662766007
 20
99.8000000000002103
 30
-0.0000000000000223
 11
16.7895026662766007
 21
107.0000000000000995
 31
-0.0000000000000239
210
0.0000000000000002
220
1.0
230
-0.0000000000000002
  0
LINE
  5
2EF5
  8
0
  6
VERDECKT
 62
     1
 10
14.1914264549233398
 20
99.800000000000324
 30
-0.0000000000000218
 11
17.6914264549234588
 21
99.800000000000324
 31
-0.0000000000000216
210
0.0000000000000002
220
1.0
230
-0.0000000000000002
  0
LINE
  5
2EF6
  8
0
  6
VERDECKT
 62
     1
 10
20.2895026662767215
 20
99.800000000000324
 30
-0.0000000000000196
 11
17.6914264549234588
 21
99.800000000000324
 31
-0.0000000000000196
210
0.0000000000000002
220
1.0
230
-0.0000000000000002
  0
LINE
  5
2EF7
  8
0
  6
VERDECKT
 62
     1
 10
17.6914264549232314
 20
99.8000000000004377
 30
-0.000000000000019
 11
24.6914264549232385
 21
94.8000000000004235
 31
-0.0000000000000177
210
0.0000000000000002
220
1.0
230
-0.0000000000000002
  0
LINE
  5
2EF8
  8
0
  6
VERDECKT
 62
     1
 10
27.2895026662766114
 20
94.8000000000001961
 30
-0.00000000000002
 11
20.2895026662766007
 21
99.8000000000002103
 31
-0.0000000000000213
210
0.0000000000000002
220
1.0
230
-0.0000000000000002
  0
LINE
  5
2EF9
  8
0
  6
VERDECKT
 62
     1
 10
24.6914264549232385
 20
94.8000000000002956
 30
-0.0000000000000194
 11
28.1914264549232385
 21
94.8000000000001961
 31
-0.0000000000000193
210
0.0000000000000002
220
1.0
230
-0.0000000000000002
  0
LINE
  5
2EFA
  8
0
  6
VERDECKT
 62
     1
 10
30.7895026662765012
 20
94.8000000000001961
 30
-0.0000000000000208
 11
28.1914264549232385
 21
94.8000000000001961
 31
-0.0000000000000209
210
0.0000000000000002
220
1.0
230
-0.0000000000000002
  0
LINE
  5
2EFB
  8
0
  6
VERDECKT
 62
     1
 10
28.1914264549232385
 20
94.8000000000000966
 30
-0.0000000000000202
 11
28.1914264549232385
 21
97.3000000000001108
 31
-0.0000000000000208
210
0.0000000000000002
220
1.0
230
-0.0000000000000002
  0
LINE
  5
2EFC
  8
0
  6
VERDECKT
 62
     1
 10
30.7895026662765012
 20
97.3000000000002103
 30
-0.0000000000000213
 11
30.7895026662765012
 21
94.8000000000001961
 31
-0.0000000000000208
210
0.0000000000000002
220
1.0
230
-0.0000000000000002
  0
LINE
  5
2EFD
  8
0
  6
VERDECKT
 62
     1
 10
30.7895026662765012
 20
97.3000000000002103
 30
-0.0000000000000213
 11
28.1914264549232385
 21
97.3000000000002103
 31
-0.0000000000000214
210
0.0000000000000002
220
1.0
230
-0.0000000000000002
  0
LINE
  5
2EFE
  8
0
  6
VERDECKT
 62
     1
 10
28.1914264549232385
 20
97.3000000000002103
 30
-0.0000000000000208
 11
27.1914264549232385
 21
98.4547005383795124
 31
-0.000000000000021
210
0.0000000000000002
220
1.0
230
-0.0000000000000002
  0
LINE
  5
2EFF
  8
0
  6
VERDECKT
 62
     1
 10
29.7895026662766114
 20
98.4547005383795124
 30
-0.0000000000000214
 11
30.7895026662766114
 21
97.3000000000002103
 31
-0.0000000000000211
210
0.0000000000000002
220
1.0
230
-0.0000000000000002
  0
LINE
  5
2F00
  8
0
  6
VERDECKT
 62
     1
 10
29.7895026662766114
 20
98.4547005383795124
 30
-0.0000000000000214
 11
27.1914264549233486
 21
98.4547005383795124
 31
-0.0000000000000215
210
0.0000000000000002
220
1.0
230
-0.0000000000000002
  0
LINE
  5
2F01
  8
0
  6
VERDECKT
 62
     1
 10
27.1914264549232385
 20
98.4547005383795124
 30
-0.0000000000000208
 11
27.1914264549232385
 21
108.3452994616208969
 31
-0.000000000000023
210
0.0000000000000002
220
1.0
230
-0.0000000000000002
  0
LINE
  5
2F02
  8
0
  6
VERDECKT
 62
     1
 10
29.7895026662766114
 20
108.3452994616207974
 30
-0.0000000000000236
 11
29.7895026662766114
 21
98.4547005383793987
 31
-0.0000000000000214
210
0.0000000000000002
220
1.0
230
-0.0000000000000002
  0
LINE
  5
2F03
  8
0
  6
VERDECKT
 62
     1
 10
29.7895026662766114
 20
108.3452994616207974
 30
-0.0000000000000236
 11
27.1914264549233486
 21
108.3452994616207974
 31
-0.0000000000000237
210
0.0000000000000002
220
1.0
230
-0.0000000000000002
  0
LINE
  5
2F04
  8
0
  6
VERDECKT
 62
     1
 10
27.1914264549232385
 20
108.3452994616208969
 30
-0.000000000000023
 11
28.1914264549232385
 21
109.500000000000199
 31
-0.0000000000000232
210
0.0000000000000002
220
1.0
230
-0.0000000000000002
  0
LINE
  5
2F05
  8
0
  6
VERDECKT
 62
     1
 10
30.7895026662766114
 20
109.5000000000000995
 30
-0.000000000000024
 11
29.7895026662766114
 21
108.3452994616207974
 31
-0.0000000000000238
210
0.0000000000000002
220
1.0
230
-0.0000000000000002
  0
LINE
  5
2F06
  8
0
  6
VERDECKT
 62
     1
 10
30.7895026662766114
 20
109.5000000000000995
 30
-0.000000000000024
 11
28.1914264549233486
 21
109.5000000000000995
 31
-0.0000000000000241
210
0.0000000000000002
220
1.0
230
-0.0000000000000002
  0
LINE
  5
2F07
  8
0
  6
VERDECKT
 62
     1
 10
28.1914264549232385
 20
109.500000000000199
 30
-0.0000000000000235
 11
28.1914264549232385
 21
112.000000000000199
 31
-0.000000000000024
210
0.0000000000000002
220
1.0
230
-0.0000000000000002
  0
LINE
  5
2F08
  8
0
  6
VERDECKT
 62
     1
 10
30.7895026662766114
 20
112.0000000000000995
 30
-0.0000000000000246
 11
30.7895026662766114
 21
109.5000000000000995
 31
-0.000000000000024
210
0.0000000000000002
220
1.0
230
-0.0000000000000002
  0
LINE
  5
2F09
  8
0
  6
VERDECKT
 62
     1
 10
30.7895026662766114
 20
112.0000000000000995
 30
-0.0000000000000246
 11
28.1914264549233486
 21
112.0000000000000995
 31
-0.0000000000000247
210
0.0000000000000002
220
1.0
230
-0.0000000000000002
  0
LINE
  5
2F0A
  8
0
  6
VERDECKT
 62
     1
 10
28.1914264549232385
 20
112.000000000000199
 30
-0.000000000000024
 11
24.6914264549232385
 21
112.0000000000000995
 31
-0.0000000000000241
210
0.0000000000000002
220
1.0
230
-0.0000000000000002
  0
ENDBLK
  5
2F0C
  8
0
  0
BLOCK
  8
0
  2
A$C677821B7
 70
     0
 10
0.0
 20
0.0
 30
0.0
  3
A$C677821B7
  1

  0
LINE
  5
2F10
  8
0
  6
AUSGEZOGEN
 62
     3
 10
-15.23154621172805
 20
-56.9999999999997797
 30
0.0
 11
15.2315462117275295
 21
-56.9999999999997797
 31
0.0000000000000068
  0
CIRCLE
  5
2F11
  8
0
  6
AUSGEZOGEN
 62
     3
 10
-0.0000000000002007
 20
0.0000000000000397
 30
0.0
 40
59.0
  0
LINE
  5
2F12
  8
0
  6
AUSGEZOGEN
 62
     3
 10
56.999999999999801
 20
-15.2315462117275207
 30
0.0000000000000142
 11
56.999999999999801
 21
15.23154621172805
 31
0.0000000000000142
  0
LINE
  5
2F13
  8
0
  6
AUSGEZOGEN
 62
     3
 10
-57.000000000000199
 20
15.2315462117278795
 30
-0.0000000000000142
 11
-57.000000000000199
 21
-15.2315462117276894
 31
-0.0000000000000142
  0
LINE
  5
2F14
  8
0
  6
AUSGEZOGEN
 62
     3
 10
15.2315462117274105
 20
57.0000000000001634
 30
0.0
 11
-15.2315462117281601
 21
57.0000000000001634
 31
-0.0000000000000068
  0
CIRCLE
  5
2F15
  8
0
  6
AUSGEZOGEN
 62
     3
 10
-0.0000000000002007
 20
0.0000000000000397
 30
0.0
 40
61.0
  0
LINE
  5
2F16
  8
0
  6
AUSGEZOGEN
 62
     3
 10
29.7386787763911791
 20
-66.8049862400436609
 30
0.0000000000000071
 11
21.0036206256735412
 21
-62.3542518094392904
 31
0.0000000000000052
  0
ARC
  5
2F17
  8
0
  6
AUSGEZOGEN
 62
     3
 10
30.1926692761307613
 20
-65.9139797158550635
 30
0.0000000000000071
 40
1.000000000000181
 50
243.0000000000040927
 51
294.6107016166262156
  0
ARC
  5
2F18
  8
0
  6
AUSGEZOGEN
 62
     3
 10
-0.0000000000335284
 20
0.0000000000667058
 30
0.0
 40
73.5000000000745501
 50
294.6107016166346853
 51
299.3892983833645758
  0
ARC
  5
2F19
  8
0
  6
AUSGEZOGEN
 62
     3
 10
35.5787240291587068
 20
-63.1696477468169704
 30
0.0000000000000071
 40
1.0000000000001159
 50
299.3892983833682138
 51
350.9999999999957936
  0
LINE
  5
2F1A
  8
0
  6
AUSGEZOGEN
 62
     3
 10
38.1000309368543029
 20
-53.6431956608937526
 30
0.0000000000000071
 11
36.5664123697539623
 21
-63.3260822118572833
 31
0.0000000000000068
  0
ARC
  5
2F1B
  8
0
  6
AUSGEZOGEN
 62
     3
 10
39.0877192774494304
 20
-53.7996301259339873
 30
0.0000000000000071
 40
0.9999999999999861
 50
81.0000000000012932
 51
170.9999999999996874
  0
LINE
  5
2F1C
  8
0
  6
AUSGEZOGEN
 62
     3
 10
48.9270402934532811
 20
-54.3455603524391506
 30
0.0000000000000142
 11
39.2441537424896367
 21
-52.8119417853388597
 31
0.0000000000000121
  0
ARC
  5
2F1D
  8
0
  6
AUSGEZOGEN
 62
     3
 10
49.0834747584935371
 20
-53.3578720118442007
 30
0.0000000000000142
 40
0.9999999999998268
 50
260.9999999999964757
 51
312.6107016166380959
  0
ARC
  5
2F1E
  8
0
  6
AUSGEZOGEN
 62
     3
 10
-0.0000000000183512
 20
0.0000000000183888
 30
0.0
 40
73.5000000000259064
 50
312.6107016166333779
 51
317.3892983833665085
  0
ARC
  5
2F1F
  8
0
  6
AUSGEZOGEN
 62
     3
 10
53.3578720118437175
 20
-49.0834747584933879
 30
0.0000000000000142
 40
1.000000000000318
 50
317.3892983833791277
 51
8.9999999999940457
  0
LINE
  5
2F20
  8
0
  6
AUSGEZOGEN
 62
     3
 10
52.8119417853388313
 20
-39.244153742489658
 30
0.0000000000000142
 11
54.345560352439179
 21
-48.92704029345321
 31
0.0000000000000146
  0
ARC
  5
2F21
  8
0
  6
AUSGEZOGEN
 62
     3
 10
53.7996301259340228
 20
-39.0877192774494517
 30
0.0000000000000142
 40
1.0000000000000231
 50
99.0000000000016342
 51
188.9999999999980957
  0
LINE
  5
2F22
  8
0
  6
AUSGEZOGEN
 62
     3
 10
63.3260822118573472
 20
-36.5664123697539196
 30
0.0000000000000142
 11
53.6431956608937597
 21
-38.1000309368543029
 31
0.0000000000000121
  0
ARC
  5
2F23
  8
0
  6
AUSGEZOGEN
 62
     3
 10
63.1696477468171977
 20
-35.5787240291589129
 30
0.0000000000000142
 40
0.9999999999998603
 50
278.9999999999968736
 51
330.6107016166354811
  0
ARC
  5
2F24
  8
0
  6
AUSGEZOGEN
 62
     3
 10
-0.0000000000361432
 20
0.0000000000181615
 30
0.0
 40
73.5000000000404015
 50
330.6107016166341168
 51
335.3892983833662811
  0
ARC
  5
2F25
  8
0
  6
AUSGEZOGEN
 62
     3
 10
65.913979715855703
 20
-30.1926692761306583
 30
0.0000000000000142
 40
0.9999999999996724
 50
335.3892983833587209
 51
27.0000000000077307
  0
LINE
  5
2F26
  8
0
  6
AUSGEZOGEN
 62
     3
 10
62.3542518094393472
 20
-21.0036206256734985
 30
0.0000000000000142
 11
66.8049862400437036
 21
-29.73867877639114
 31
0.0000000000000152
  0
ARC
  5
2F27
  8
0
  6
AUSGEZOGEN
 62
     3
 10
63.2452583336278167
 20
-20.5496301259339909
 30
0.0000000000000142
 40
1.0000000000000531
 50
117.0000000000038938
 51
206.9999999999959073
  0
LINE
  5
2F28
  8
0
  6
AUSGEZOGEN
 62
     3
 10
71.5263259846058332
 20
-15.2078891711411703
 30
0.0000000000000142
 11
62.7912678338881989
 21
-19.6586236017455995
 31
0.0000000000000123
  0
ARC
  5
2F29
  8
0
  6
AUSGEZOGEN
 62
     3
 10
71.0723354848663718
 20
-14.3168826469528199
 30
0.0000000000000142
 40
0.9999999999999012
 50
296.9999999999967031
 51
348.6107016166313883
  0
ARC
  5
2F2A
  8
0
  6
AUSGEZOGEN
 62
     3
 10
-0.000000000060529
 20
0.0000000000093507
 30
0.0
 40
73.5000000000612346
 50
348.6107016166347989
 51
353.3892983833657127
  0
ARC
  5
2F2B
  8
0
  6
AUSGEZOGEN
 62
     3
 10
72.0179678355773518
 20
-8.3463949603237761
 30
0.0000000000000142
 40
1.0000000000002289
 50
353.3892983833752055
 51
44.9999999999942517
  0
LINE
  5
2F2C
  8
0
  6
AUSGEZOGEN
 62
     3
 10
65.792893218813461
 20
-0.7071067811865249
 30
0.0000000000000142
 11
72.7250746167641324
 21
-7.6392881791371394
 31
0.0000000000000158
  0
ARC
  5
2F2D
  8
0
  6
AUSGEZOGEN
 62
     3
 10
66.5000000000000142
 20
0.0000000000000284
 30
0.0000000000000142
 40
1.0000000000000071
 50
135.0
 51
225.0
  0
LINE
  5
2F2E
  8
0
  6
AUSGEZOGEN
 62
     3
 10
72.7250746167640756
 20
7.6392881791372806
 30
0.0000000000000142
 11
65.792893218813461
 21
0.7071067811865817
 31
0.0000000000000127
  0
ARC
  5
2F2F
  8
0
  6
AUSGEZOGEN
 62
     3
 10
72.0179678355777355
 20
8.3463949603237761
 30
0.0000000000000142
 40
0.9999999999997989
 50
314.9999999999931219
 51
6.6107016166375896
  0
ARC
  5
2F30
  8
0
  6
AUSGEZOGEN
 62
     3
 10
0.0000000000043293
 20
0.0000000000009379
 30
0.0
 40
73.4999999999955946
 50
6.6107016166322978
 51
11.3892983833674002
  0
ARC
  5
2F31
  8
0
  6
AUSGEZOGEN
 62
     3
 10
71.0723354848663149
 20
14.3168826469529602
 30
0.0000000000000142
 40
0.9999999999999761
 50
11.3892983833663806
 51
63.0000000000011369
  0
LINE
  5
2F32
  8
0
  6
AUSGEZOGEN
 62
     3
 10
62.7912678338881918
 20
19.6586236017457203
 30
0.0000000000000142
 11
71.526325984605819
 21
15.2078891711413107
 31
0.0000000000000162
  0
ARC
  5
2F33
  8
0
  6
AUSGEZOGEN
 62
     3
 10
63.2452583336277101
 20
20.549630125934069
 30
0.0000000000000142
 40
0.9999999999999761
 50
153.0000000000011084
 51
243.0000000000011937
  0
LINE
  5
2F34
  8
0
  6
AUSGEZOGEN
 62
     3
 10
66.8049862400436751
 20
29.7386787763912785
 30
0.0000000000000142
 11
62.3542518094393614
 21
21.0036206256735909
 31
0.0000000000000132
  0
ARC
  5
2F35
  8
0
  6
AUSGEZOGEN
 62
     3
 10
65.9139797158553762
 20
30.1926692761307685
 30
0.0000000000000142
 40
0.9999999999999591
 50
333.0000000000026148
 51
24.6107016166374102
  0
ARC
  5
2F36
  8
0
  6
AUSGEZOGEN
 62
     3
 10
-0.0000000000222734
 20
-0.0000000000113118
 30
0.0
 40
73.5000000000250111
 50
24.6107016166334205
 51
29.3892983833666293
  0
ARC
  5
2F37
  8
0
  6
AUSGEZOGEN
 62
     3
 10
63.1696477468169704
 20
35.5787240291587423
 30
0.0000000000000142
 40
1.0000000000002001
 50
29.3892983833739407
 51
80.9999999999966462
  0
LINE
  5
2F38
  8
0
  6
AUSGEZOGEN
 62
     3
 10
53.6431956608937597
 20
38.1000309368544094
 30
0.0000000000000142
 11
63.3260822118572904
 21
36.5664123697540617
 31
0.0000000000000164
  0
ARC
  5
2F39
  8
0
  6
AUSGEZOGEN
 62
     3
 10
53.7996301259340797
 20
39.087719277449601
 30
0.0000000000000142
 40
1.000000000000093
 50
171.0000000000038938
 51
260.9999999999956799
  0
LINE
  5
2F3A
  8
0
  6
AUSGEZOGEN
 62
     3
 10
54.345560352439179
 20
48.9270402934533308
 30
0.0000000000000142
 11
52.8119417853388313
 21
39.2441537424897717
 31
0.0000000000000139
  0
ARC
  5
2F3B
  8
0
  6
AUSGEZOGEN
 62
     3
 10
53.3578720118440515
 20
49.08347475849353
 30
0.0000000000000142
 40
0.9999999999999909
 50
351.0000000000013074
 51
42.6107016166338965
  0
ARC
  5
2F3C
  8
0
  6
AUSGEZOGEN
 62
     3
 10
0.0000000000126284
 20
0.0000000000127329
 30
0.0
 40
73.4999999999820943
 50
42.6107016166319994
 51
47.3892983833680006
  0
ARC
  5
2F3D
  8
0
  6
AUSGEZOGEN
 62
     3
 10
49.0834747584935371
 20
53.3578720118444423
 30
0.0000000000000142
 40
0.9999999999997141
 50
47.389298383359872
 51
99.0000000000044338
  0
LINE
  5
2F3E
  8
0
  6
AUSGEZOGEN
 62
     3
 10
39.2441537424896367
 20
52.8119417853389379
 30
0.0000000000000071
 11
48.9270402934532811
 21
54.3455603524392927
 31
0.0000000000000093
  0
ARC
  5
2F3F
  8
0
  6
AUSGEZOGEN
 62
     3
 10
39.0877192774493807
 20
53.7996301259340726
 30
0.0000000000000071
 40
0.9999999999999299
 50
188.9999999999992042
 51
279.0000000000023874
  0
LINE
  5
2F40
  8
0
  6
AUSGEZOGEN
 62
     3
 10
36.5664123697539623
 20
63.3260822118574467
 30
0.0000000000000071
 11
38.1000309368543029
 21
53.6431956608938592
 31
0.0000000000000074
  0
ARC
  5
2F41
  8
0
  6
AUSGEZOGEN
 62
     3
 10
35.5787240291589413
 20
63.1696477468172475
 30
0.0000000000000071
 40
0.999999999999896
 50
8.9999999999997442
 51
60.6107016166383303
  0
ARC
  5
2F42
  8
0
  6
AUSGEZOGEN
 62
     3
 10
-0.000000000000275
 20
-0.0000000000005969
 30
0.0
 40
73.5000000000007248
 50
60.6107016166326815
 51
65.3892983833674464
  0
ARC
  5
2F43
  8
0
  6
AUSGEZOGEN
 62
     3
 10
30.1926692761307613
 20
65.9139797158553051
 30
0.0000000000000071
 40
1.000000000000129
 50
65.3892983833724344
 51
117.0000000000017053
  0
LINE
  5
2F44
  8
0
  6
AUSGEZOGEN
 62
     3
 10
21.0036206256735412
 20
62.3542518094393969
 30
0.0000000000000071
 11
29.7386787763911187
 21
66.8049862400437746
 31
0.000000000000009
  0
ARC
  5
2F45
  8
0
  6
AUSGEZOGEN
 62
     3
 10
20.5496301259339695
 20
63.2452583336277598
 30
0.0000000000000071
 40
0.9999999999999893
 50
207.0000000000003126
 51
297.000000000001819
  0
LINE
  5
2F46
  8
0
  6
AUSGEZOGEN
 62
     3
 10
15.2078891711412396
 20
71.5263259846058332
 30
0.0
 11
19.6586236017456102
 21
62.7912678338882202
 31
0.000000000000001
  0
ARC
  5
2F47
  8
0
  6
AUSGEZOGEN
 62
     3
 10
14.3168826469528305
 20
71.0723354848661586
 30
0.0
 40
1.000000000000163
 50
27.0000000000060503
 51
78.6107016166310757
  0
ARC
  5
2F48
  8
0
  6
AUSGEZOGEN
 62
     3
 10
-0.0000000000016393
 20
-0.0000000000077875
 30
0.0
 40
73.5000000000080007
 50
78.6107016166325252
 51
83.3892983833668637
  0
ARC
  5
2F49
  8
0
  6
AUSGEZOGEN
 62
     3
 10
8.3463949603237868
 20
72.0179678355774939
 30
0.0
 40
1.0000000000001279
 50
83.389298383371127
 51
134.9999999999976978
  0
LINE
  5
2F4A
  8
0
  6
AUSGEZOGEN
 62
     3
 10
0.7071067811865624
 20
65.7928932188135036
 30
0.0
 11
7.6392881791371758
 21
72.7250746167641751
 31
0.0000000000000015
  0
ARC
  5
2F4B
  8
0
  6
AUSGEZOGEN
 62
     3
 10
0.0000000000000092
 20
66.5000000000000284
 30
0.0
 40
0.9999999999999879
 50
224.9999999999988063
 51
315.0
  0
LINE
  5
2F4C
  8
0
  6
AUSGEZOGEN
 62
     3
 10
-7.6392881791372149
 20
72.7250746167641751
 30
0.0
 11
-0.7071067811865444
 21
65.7928932188135036
 31
0.0000000000000015
  0
ARC
  5
2F4D
  8
0
  6
AUSGEZOGEN
 62
     3
 10
-8.346394960323769
 20
72.0179678355776502
 30
0.0
 40
0.99999999999999
 50
44.9999999999988489
 51
96.6107016166330368
  0
ARC
  5
2F4E
  8
0
  6
AUSGEZOGEN
 62
     3
 10
0.0000000000010892
 20
-0.0000000000027853
 30
0.0
 40
73.5000000000029843
 50
96.6107016166331931
 51
101.3892983833678016
  0
ARC
  5
2F4F
  8
0
  6
AUSGEZOGEN
 62
     3
 10
-14.3168826469532604
 20
71.072335484866727
 30
0.0
 40
0.999999999999467
 50
101.3892983833503934
 51
153.0000000000082139
  0
LINE
  5
2F50
  8
0
  6
AUSGEZOGEN
 62
     3
 10
-19.658623601745699
 20
62.7912678338882202
 30
-0.0000000000000071
 11
-15.2078891711412201
 21
71.5263259846059043
 31
-0.0000000000000061
  0
ARC
  5
2F51
  8
0
  6
AUSGEZOGEN
 62
     3
 10
-20.5496301259340584
 20
63.2452583336277314
 30
-0.0000000000000071
 40
0.9999999999999252
 50
243.0000000000032969
 51
333.0000000000011937
  0
LINE
  5
2F52
  8
0
  6
AUSGEZOGEN
 62
     3
 10
-29.7386787763912217
 20
66.804986240043803
 30
-0.0000000000000071
 11
-21.0036206256735198
 21
62.3542518094393969
 31
-0.0000000000000052
  0
ARC
  5
2F53
  8
0
  6
AUSGEZOGEN
 62
     3
 10
-30.1926692761307294
 20
65.9139797158553051
 30
-0.0000000000000071
 40
1.000000000000125
 50
63.0000000000055422
 51
114.6107016166347989
  0
ARC
  5
2F54
  8
0
  6
AUSGEZOGEN
 62
     3
 10
0.0000000000211549
 20
-0.0000000000412399
 30
0.0
 40
73.5000000000463842
 50
114.6107016166342021
 51
119.3892983833659969
  0
ARC
  5
2F55
  8
0
  6
AUSGEZOGEN
 62
     3
 10
-35.5787240291591473
 20
63.1696477468172475
 30
-0.0000000000000071
 40
0.9999999999997528
 50
119.3892983833583941
 51
171.0000000000025011
  0
LINE
  5
2F56
  8
0
  6
AUSGEZOGEN
 62
     3
 10
-38.1000309368542887
 20
53.6431956608938592
 30
-0.0000000000000071
 11
-36.5664123697540475
 21
63.3260822118573969
 31
-0.0000000000000068
  0
ARC
  5
2F57
  8
0
  6
AUSGEZOGEN
 62
     3
 10
-39.0877192774494731
 20
53.7996301259341578
 30
-0.0000000000000071
 40
1.000000000000079
 50
260.9999999999988063
 51
350.9999999999969873
  0
LINE
  5
2F58
  8
0
  6
AUSGEZOGEN
 62
     3
 10
-48.9270402934532669
 20
54.3455603524392288
 30
-0.0000000000000142
 11
-39.2441537424897433
 21
52.8119417853389379
 31
-0.0000000000000121
  0
ARC
  5
2F59
  8
0
  6
AUSGEZOGEN
 62
     3
 10
-49.0834747584936366
 20
53.3578720118444423
 30
-0.0000000000000142
 40
0.9999999999996628
 50
80.9999999999886029
 51
132.6107016166423023
  0
ARC
  5
2F5A
  8
0
  6
AUSGEZOGEN
 62
     3
 10
0.0000000000599222
 20
-0.0000000000602824
 30
0.0
 40
73.5000000000849667
 50
132.6107016166351116
 51
137.3892983833644053
  0
ARC
  5
2F5B
  8
0
  6
AUSGEZOGEN
 62
     3
 10
-53.3578720118441012
 20
49.0834747584935087
 30
-0.0000000000000142
 40
1.0000000000000371
 50
137.389298383368299
 51
188.9999999999965041
  0
LINE
  5
2F5C
  8
0
  6
AUSGEZOGEN
 62
     3
 10
-52.8119417853389379
 20
39.2441537424897717
 30
-0.0000000000000142
 11
-54.3455603524392927
 21
48.9270402934533308
 31
-0.0000000000000146
  0
ARC
  5
2F5D
  8
0
  6
AUSGEZOGEN
 62
     3
 10
-53.799630125934172
 20
39.087719277449537
 30
-0.0000000000000142
 40
1.0000000000000211
 50
279.0000000000114824
 51
8.9999999999997993
  0
LINE
  5
2F5E
  8
0
  6
AUSGEZOGEN
 62
     3
 10
-63.326082211857333
 20
36.566412369754012
 30
-0.0000000000000142
 11
-53.6431956608937384
 21
38.1000309368544094
 31
-0.0000000000000121
  0
ARC
  5
2F5F
  8
0
  6
AUSGEZOGEN
 62
     3
 10
-63.169647746817013
 20
35.5787240291588773
 30
-0.0000000000000142
 40
1.00000000000005
 50
99.0000000000046754
 51
150.6107016166355947
  0
ARC
  5
2F60
  8
0
  6
AUSGEZOGEN
 62
     3
 10
-0.0000000000364843
 20
0.0000000000187015
 30
0.0
 40
73.4999999999590159
 50
150.6107016166313031
 51
155.3892983833688106
  0
ARC
  5
2F61
  8
0
  6
AUSGEZOGEN
 62
     3
 10
-65.9139797158554614
 20
30.1926692761306903
 30
-0.0000000000000142
 40
0.9999999999998997
 50
155.3892983833627
 51
206.9999999999974136
  0
LINE
  5
2F62
  8
0
  6
AUSGEZOGEN
 62
     3
 10
-62.3542518094393401
 20
21.0036206256735909
 30
-0.0000000000000142
 11
-66.8049862400437746
 21
29.7386787763912217
 31
-0.0000000000000152
  0
ARC
  5
2F63
  8
0
  6
AUSGEZOGEN
 62
     3
 10
-63.2452583336275183
 20
20.5496301259340193
 30
-0.0000000000000142
 40
0.999999999999874
 50
296.9999999999944862
 51
27.0000000000062101
  0
LINE
  5
2F64
  8
0
  6
AUSGEZOGEN
 62
     3
 10
-71.5263259846058048
 20
15.2078891711412894
 30
-0.0000000000000142
 11
-62.7912678338881065
 21
19.6586236017457203
 31
-0.0000000000000123
  0
ARC
  5
2F65
  8
0
  6
AUSGEZOGEN
 62
     3
 10
-71.0723354848665139
 20
14.3168826469530508
 30
-0.0000000000000142
 40
0.9999999999997672
 50
116.9999999999901945
 51
168.6107016166363906
  0
ARC
  5
2F66
  8
0
  6
AUSGEZOGEN
 62
     3
 10
0.0000000000271235
 20
-0.0000000000033538
 30
0.0
 40
73.5000000000273701
 50
168.6107016166342021
 51
173.3892983833671906
  0
ARC
  5
2F67
  8
0
  6
AUSGEZOGEN
 62
     3
 10
-72.0179678355775508
 20
8.3463949603239485
 30
-0.0000000000000142
 40
1.0000000000000879
 50
173.3892983833740118
 51
225.0000000000046043
  0
LINE
  5
2F68
  8
0
  6
AUSGEZOGEN
 62
     3
 10
-65.7928932188134326
 20
0.7071067811866385
 30
-0.0000000000000142
 11
-72.725074616764104
 21
7.6392881791372806
 31
-0.0000000000000158
  0
ARC
  5
2F69
  8
0
  6
AUSGEZOGEN
 62
     3
 10
-66.4999999999999858
 20
0.0000000000000853
 30
-0.0000000000000142
 40
1.0000000000000071
 50
315.0
 51
44.9999999999999929
  0
LINE
  5
2F6A
  8
0
  6
AUSGEZOGEN
 62
     3
 10
-72.725074616764104
 20
-7.639288179137167
 30
-0.0000000000000142
 11
-65.7928932188134326
 21
-0.707106781186468
 31
-0.0000000000000127
  0
ARC
  5
2F6B
  8
0
  6
AUSGEZOGEN
 62
     3
 10
-72.0179678355774939
 20
-8.3463949603238063
 30
-0.0000000000000142
 40
1.0000000000000639
 50
134.9999999999965041
 51
186.6107016166276082
  0
ARC
  5
2F6C
  8
0
  6
AUSGEZOGEN
 62
     3
 10
-0.0000000000366548
 20
-0.0000000000066223
 30
0.0
 40
73.4999999999627818
 50
186.6107016166307062
 51
191.3892983833679011
  0
ARC
  5
2F6D
  8
0
  6
AUSGEZOGEN
 62
     3
 10
-71.0723354848665139
 20
-14.3168826469529904
 30
-0.0000000000000142
 40
0.9999999999997463
 50
191.3892983833603125
 51
243.0000000000090097
  0
LINE
  5
2F6E
  8
0
  6
AUSGEZOGEN
 62
     3
 10
-62.7912678338882273
 20
-19.6586236017455391
 30
-0.0000000000000142
 11
-71.526325984605819
 21
-15.2078891711412005
 31
-0.0000000000000162
  0
ARC
  5
2F6F
  8
0
  6
AUSGEZOGEN
 62
     3
 10
-63.2452583336278025
 20
-20.5496301259339305
 30
-0.0000000000000142
 40
1.0000000000000391
 50
333.0000000000011937
 51
62.9999999999989768
  0
LINE
  5
2F70
  8
0
  6
AUSGEZOGEN
 62
     3
 10
-66.8049862400437036
 20
-29.7386787763912004
 30
-0.0000000000000142
 11
-62.3542518094393898
 21
-21.0036206256734808
 31
-0.0000000000000132
  0
ARC
  5
2F71
  8
0
  6
AUSGEZOGEN
 62
     3
 10
-65.913979715855632
 20
-30.19266927613074
 30
-0.0000000000000142
 40
0.9999999999997286
 50
152.9999999999922977
 51
204.6107016166398012
  0
ARC
  5
2F72
  8
0
  6
AUSGEZOGEN
 62
     3
 10
0.0000000000857291
 20
0.0000000000440536
 30
0.0
 40
73.5000000000962643
 50
204.6107016166359074
 51
209.3892983833644905
  0
ARC
  5
2F73
  8
0
  6
AUSGEZOGEN
 62
     3
 10
-63.1696477468169633
 20
-35.5787240291587565
 30
-0.0000000000000142
 40
1.0000000000000491
 50
209.3892983833669064
 51
260.9999999999885745
  0
LINE
  5
2F74
  8
0
  6
AUSGEZOGEN
 62
     3
 10
-53.6431956608938592
 20
-38.1000309368542673
 30
-0.0000000000000142
 11
-63.3260822118573898
 21
-36.5664123697539196
 31
-0.0000000000000164
  0
ARC
  5
2F75
  8
0
  6
AUSGEZOGEN
 62
     3
 10
-53.7996301259341223
 20
-39.0877192774494233
 30
-0.0000000000000142
 40
1.000000000000042
 50
351.000000000001819
 51
80.9999999999951541
  0
LINE
  5
2F76
  8
0
  6
AUSGEZOGEN
 62
     3
 10
-54.3455603524392288
 20
-48.9270402934531887
 30
-0.0000000000000142
 11
-52.8119417853389379
 21
-39.2441537424896296
 31
-0.0000000000000139
  0
ARC
  5
2F77
  8
0
  6
AUSGEZOGEN
 62
     3
 10
-53.3578720118443783
 20
-49.0834747584935087
 30
-0.0000000000000142
 40
0.9999999999997239
 50
170.9999999999922977
 51
222.6107016166413075
  0
ARC
  5
2F78
  8
0
  6
AUSGEZOGEN
 62
     3
 10
0.0000000000017145
 20
0.0000000000017906
 30
0.0
 40
73.5000000000024443
 50
222.6107016166326105
 51
227.3892983833673043
  0
ARC
  5
2F79
  8
0
  6
AUSGEZOGEN
 62
     3
 10
-49.0834747584934235
 20
-53.3578720118438028
 30
-0.0000000000000142
 40
1.00000000000022
 50
227.3892983833690096
 51
278.9999999999899956
  0
LINE
  5
2F7A
  8
0
  6
AUSGEZOGEN
 62
     3
 10
-39.2441537424897433
 20
-52.8119417853388313
 30
-0.0000000000000071
 11
-48.9270402934533166
 21
-54.345560352439179
 31
-0.0000000000000093
  0
ARC
  5
2F7B
  8
0
  6
AUSGEZOGEN
 62
     3
 10
-39.0877192774494731
 20
-53.7996301259339873
 30
-0.0000000000000071
 40
0.9999999999999388
 50
9.0000000000024301
 51
99.0000000000021743
  0
LINE
  5
2F7C
  8
0
  6
AUSGEZOGEN
 62
     3
 10
-36.5664123697539409
 20
-63.3260822118573401
 30
-0.0000000000000071
 11
-38.1000309368544023
 21
-53.643195660893717
 31
-0.0000000000000074
  0
ARC
  5
2F7D
  8
0
  6
AUSGEZOGEN
 62
     3
 10
-35.5787240291587565
 20
-63.1696477468171267
 30
-0.0000000000000071
 40
1.0000000000000351
 50
188.9999999999949125
 51
240.6107016166241124
  0
ARC
  5
2F7E
  8
0
  6
AUSGEZOGEN
 62
     3
 10
-0.0000000000181807
 20
-0.0000000000346176
 30
0.0
 40
73.4999999999608633
 50
240.6107016166315873
 51
245.3892983833690948
  0
ARC
  5
2F7F
  8
0
  6
AUSGEZOGEN
 62
     3
 10
-30.1926692761307294
 20
-65.9139797158559304
 30
-0.0000000000000071
 40
0.999999999999445
 50
245.3892983833547135
 51
297.0000000000180194
  0
LINE
  5
2F80
  8
0
  6
AUSGEZOGEN
 62
     3
 10
-21.0036206256736406
 20
-62.3542518094392904
 30
-0.0000000000000071
 11
-29.7386787763911613
 21
-66.8049862400436609
 31
-0.000000000000009
  0
ARC
  5
2F81
  8
0
  6
AUSGEZOGEN
 62
     3
 10
-20.5496301259340584
 20
-63.2452583336274827
 30
-0.0000000000000071
 40
0.9999999999999246
 50
26.9999999999930616
 51
117.0000000000047038
  0
LINE
  5
2F82
  8
0
  6
AUSGEZOGEN
 62
     3
 10
-15.2078891711412201
 20
-71.5263259846057622
 30
0.0
 11
-19.6586236017457097
 21
-62.791267833888071
 31
-0.000000000000001
  0
ARC
  5
2F83
  8
0
  6
AUSGEZOGEN
 62
     3
 10
-14.3168826469527506
 20
-71.0723354848660733
 30
0.0
 40
1.0000000000001461
 50
207.0000000000046043
 51
258.6107016166275798
  0
ARC
  5
2F84
  8
0
  6
AUSGEZOGEN
 62
     3
 10
-0.000000000001014
 20
-0.000000000004917
 30
0.0
 40
73.4999999999949267
 50
258.610701616632582
 51
263.3892983833677022
  0
ARC
  5
2F85
  8
0
  6
AUSGEZOGEN
 62
     3
 10
-8.3463949603238827
 20
-72.0179678355771671
 30
0.0
 40
1.0000000000003291
 50
263.3892983833758876
 51
314.9999999999907914
  0
LINE
  5
2F86
  8
0
  6
AUSGEZOGEN
 62
     3
 10
-0.7071067811866009
 20
-65.7928932188133899
 30
0.0
 11
-7.6392881791372149
 21
-72.7250746167640614
 31
-0.0000000000000015
  0
ARC
  5
2F87
  8
0
  6
AUSGEZOGEN
 62
     3
 10
-0.0000000000000476
 20
-66.4999999999999432
 30
0.0
 40
1.0000000000000071
 50
45.0
 51
135.0
  0
LINE
  5
2F88
  8
0
  6
AUSGEZOGEN
 62
     3
 10
7.6392881791371758
 20
-72.7250746167640614
 30
0.0
 11
0.7071067811865053
 21
-65.7928932188133899
 31
-0.0000000000000015
  0
ARC
  5
2F89
  8
0
  6
AUSGEZOGEN
 62
     3
 10
8.3463949603236731
 20
-72.0179678355776645
 30
0.0
 40
0.9999999999998552
 50
224.9999999999953957
 51
276.6107016166371864
  0
ARC
  5
2F8A
  8
0
  6
AUSGEZOGEN
 62
     3
 10
0.000000000000805
 20
-0.0000000000040359
 30
0.0
 40
73.4999999999958646
 50
276.6107016166324115
 51
281.389298383367418
  0
ARC
  5
2F8B
  8
0
  6
AUSGEZOGEN
 62
     3
 10
14.3168826469527097
 20
-71.0723354848660165
 30
0.0
 40
1.0000000000002569
 50
281.3892983833712265
 51
332.9999999999910756
  0
LINE
  5
2F8C
  8
0
  6
AUSGEZOGEN
 62
     3
 10
19.6586236017456102
 20
-62.791267833888071
 30
0.0000000000000071
 11
15.2078891711412396
 21
-71.526325984605819
 31
0.0000000000000061
  0
ARC
  5
2F8D
  8
0
  6
AUSGEZOGEN
 62
     3
 10
20.5496301259340299
 20
-63.2452583336275325
 30
0.0000000000000071
 40
0.9999999999998749
 50
62.9999999999981881
 51
153.0000000000040075
  0
ARC
  5
2F8E
  8
0
  6
AUSGEZOGEN
 62
     3
 10
0.0000000000001141
 20
-0.0000000000000376
 30
0.0
 40
34.2814676152490918
 50
62.5078015214208804
 51
180.0
  0
ARC
  5
2F8F
  8
0
  6
AUSGEZOGEN
 62
     3
 10
0.0000000000000004
 20
0.0000000000000157
 30
0.0
 40
34.281467615248971
 50
302.5078015214202765
 51
57.4921984785796383
  0
ARC
  5
2F90
  8
0
  6
AUSGEZOGEN
 62
     3
 10
0.0000000000001141
 20
0.0000000000000707
 30
0.0
 40
34.2814676152489568
 50
180.0000000000001137
 51
297.492198478579212
  0
ARC
  5
2F91
  8
0
  6
AUSGEZOGEN
 62
     3
 10
0.000000000000124
 20
0.000000000000061
 30
0.0
 40
34.8999999999999773
 50
62.4633281249755612
 51
180.0
  0
ARC
  5
2F92
  8
0
  6
AUSGEZOGEN
 62
     3
 10
0.000000000000124
 20
0.0000000000000202
 30
0.0
 40
34.8999999999999773
 50
302.4633281249747938
 51
57.5366718750250925
  0
ARC
  5
2F93
  8
0
  6
AUSGEZOGEN
 62
     3
 10
0.000000000000124
 20
-0.0000000000000242
 30
0.0
 40
34.8999999999999631
 50
179.999999999999801
 51
297.5366718750244104
  0
ARC
  5
2F94
  8
0
  6
AUSGEZOGEN
 62
     3
 10
0.0000000000003577
 20
-0.0000000000000793
 30
0.0
 40
57.8686291501018175
 50
99.9398075794213838
 51
170.0601924205803925
  0
ARC
  5
2F95
  8
0
  6
AUSGEZOGEN
 62
     3
 10
0.0000000000003577
 20
0.000000000000482
 30
0.0
 40
57.8686291501012207
 50
61.4853176498722789
 51
80.0601924205787441
  0
ARC
  5
2F96
  8
0
  6
AUSGEZOGEN
 62
     3
 10
0.0000000000000167
 20
-0.00000000000009
 30
0.0
 40
57.8686291501018886
 50
9.9398075794247678
 51
58.5146823501280409
  0
ARC
  5
2F97
  8
0
  6
AUSGEZOGEN
 62
     3
 10
-0.000000000000097
 20
0.0000000000002262
 30
0.0
 40
57.868629150102052
 50
301.4853176498721155
 51
350.0601924205751061
  0
ARC
  5
2F98
  8
0
  6
AUSGEZOGEN
 62
     3
 10
-0.000000000000097
 20
0.0000000000009936
 30
0.0
 40
57.8686291501027128
 50
279.939807579423416
 51
298.5146823501273161
  0
ARC
  5
2F99
  8
0
  6
AUSGEZOGEN
 62
     3
 10
0.000000000000244
 20
0.0000000000000486
 30
0.0
 40
57.8686291501017109
 50
189.9398075794194938
 51
260.0601924205768114
  0
LINE
  5
2F9A
  8
0
  6
AUSGEZOGEN
 62
     3
 10
24.6914264549234517
 20
45.7668051312776782
 30
0.0
 11
17.6914264549234517
 21
33.6424494782956316
 31
-0.0000000000000018
  0
LINE
  5
2F9B
  8
0
  6
AUSGEZOGEN
 62
     3
 10
20.2895026662766007
 20
32.1424494782956316
 30
0.0
 11
17.6914264549233415
 21
33.6424494782956316
 31
-0.0000000000000006
  0
LINE
  5
2F9C
  8
0
  6
AUSGEZOGEN
 62
     3
 10
20.2895026662766007
 20
32.1424494782956316
 30
0.0
 11
27.2895026662766007
 21
44.2668051312776711
 31
0.0000000000000018
  0
LINE
  5
2F9D
  8
0
  6
AUSGEZOGEN
 62
     3
 10
27.2895026662766007
 20
44.2668051312775077
 30
0.0
 11
24.6914264549233415
 21
45.7668051312775006
 31
-0.0000000000000006
  0
LINE
  5
2F9E
  8
0
  6
AUSGEZOGEN
 62
     3
 10
17.6914264549233415
 20
33.6424494782954184
 30
0.0
 11
14.1914264549233398
 21
27.5802716518043489
 31
-0.0000000000000008
  0
LINE
  5
2F9F
  8
0
  6
AUSGEZOGEN
 62
     3
 10
16.7895026662766007
 20
26.0802716518043489
 30
0.0
 11
14.1914264549233398
 21
27.5802716518043489
 31
-0.0000000000000006
  0
LINE
  5
2FA0
  8
0
  6
AUSGEZOGEN
 62
     3
 10
16.7895026662766007
 20
26.0802716518043489
 30
0.0
 11
20.2895026662766007
 21
32.1424494782954184
 31
0.0000000000000008
  0
LINE
  5
2FA1
  8
0
  6
AUSGEZOGEN
 62
     3
 10
30.7895026662766007
 20
50.3289829577685595
 30
0.0
 11
28.1914264549233415
 21
51.8289829577685595
 31
-0.0000000000000006
  0
LINE
  5
2FA2
  8
0
  6
AUSGEZOGEN
 62
     3
 10
28.1914264549232314
 20
51.8289829577685808
 30
0.0
 11
24.6914264549232314
 21
45.7668051312775006
 31
-0.0000000000000008
  0
LINE
  5
2FA3
  8
0
  6
AUSGEZOGEN
 62
     3
 10
27.2895026662766007
 20
44.2668051312775077
 30
0.0
 11
30.7895026662766007
 21
50.3289829577685808
 31
0.0000000000000008
  0
LINE
  5
2FA4
  8
0
  6
AUSGEZOGEN
 62
     3
 10
24.6914264549234517
 20
-45.7668051312775432
 30
0.0
 11
17.6914264549234517
 21
-33.6424494782954895
 31
-0.0000000000000018
  0
LINE
  5
2FA5
  8
0
  6
AUSGEZOGEN
 62
     3
 10
27.2895026662766007
 20
-44.2668051312774793
 30
0.0
 11
24.6914264549233415
 21
-45.7668051312774722
 31
-0.0000000000000006
  0
LINE
  5
2FA6
  8
0
  6
AUSGEZOGEN
 62
     3
 10
20.2895026662766007
 20
-32.1424494782954966
 30
0.0
 11
27.2895026662766007
 21
-44.2668051312775432
 31
0.0000000000000018
  0
LINE
  5
2FA7
  8
0
  6
AUSGEZOGEN
 62
     3
 10
20.2895026662766007
 20
-32.1424494782954966
 30
0.0
 11
17.6914264549233415
 21
-33.6424494782954966
 31
-0.0000000000000006
  0
LINE
  5
2FA8
  8
0
  6
AUSGEZOGEN
 62
     3
 10
17.6914264549233415
 20
-33.6424494782953971
 30
0.0
 11
14.1914264549233398
 21
-27.5802716518043312
 31
-0.0000000000000008
  0
LINE
  5
2FA9
  8
0
  6
AUSGEZOGEN
 62
     3
 10
16.7895026662766007
 20
-26.0802716518043312
 30
0.0
 11
20.2895026662766007
 21
-32.1424494782953971
 31
0.0000000000000008
  0
LINE
  5
2FAA
  8
0
  6
AUSGEZOGEN
 62
     3
 10
16.7895026662766007
 20
-26.0802716518043312
 30
0.0
 11
14.1914264549233398
 21
-27.5802716518043312
 31
-0.0000000000000006
  0
LINE
  5
2FAB
  8
0
  6
AUSGEZOGEN
 62
     3
 10
30.7895026662766007
 20
-50.3289829577684174
 30
0.0
 11
28.1914264549233415
 21
-51.8289829577684102
 31
-0.0000000000000006
  0
LINE
  5
2FAC
  8
0
  6
AUSGEZOGEN
 62
     3
 10
28.1914264549232314
 20
-51.8289829577684387
 30
0.0
 11
24.6914264549232314
 21
-45.7668051312773585
 31
-0.0000000000000008
  0
LINE
  5
2FAD
  8
0
  6
AUSGEZOGEN
 62
     3
 10
27.2895026662766007
 20
-44.2668051312774793
 30
0.0
 11
30.7895026662766007
 21
-50.3289829577685524
 31
0.0000000000000008
  0
CIRCLE
  5
2FAE
  8
0
  6
VERDECKT
 62
     1
 10
0.0
 20
0.0000000000000265
 30
0.0
 40
61.9999999999998792
  0
CIRCLE
  5
2FAF
  8
0
  6
VERDECKT
 62
     1
 10
0.0000000000000028
 20
0.0000000000000272
 30
0.0
 40
63.9999999999999787
  0
LINE
  5
2FB0
  8
0
  6
VERDECKT
 62
     1
 10
-0.0000000000002025
 20
59.0000000000000426
 30
0.0
 11
15.4919333848294194
 21
59.0000000000000426
 31
0.0000000000000034
  0
LINE
  5
2FB1
  8
0
  6
VERDECKT
 62
     1
 10
-15.4919333848298209
 20
59.0000000000000426
 30
0.0
 11
-0.0000000000002025
 21
59.0000000000000426
 31
0.0000000000000034
  0
LINE
  5
2FB2
  8
0
  6
VERDECKT
 62
     1
 10
-0.0000000000002025
 20
-58.9999999999999503
 30
0.0
 11
-15.4919333848298209
 21
-58.9999999999999503
 31
-0.0000000000000034
  0
LINE
  5
2FB3
  8
0
  6
VERDECKT
 62
     1
 10
15.4919333848294194
 20
-58.9999999999999574
 30
0.0
 11
-0.0000000000002025
 21
-58.9999999999999503
 31
-0.0000000000000034
  0
LINE
  5
2FB4
  8
0
  6
VERDECKT
 62
     1
 10
58.999999999999801
 20
0.0000000000000392
 30
0.0000000000000142
 11
58.999999999999801
 21
-15.4919333848296397
 31
0.0000000000000142
  0
LINE
  5
2FB5
  8
0
  6
VERDECKT
 62
     1
 10
58.999999999999801
 20
15.4919333848296592
 30
0.0000000000000142
 11
58.999999999999801
 21
0.0000000000000391
 31
0.0000000000000142
  0
LINE
  5
2FB6
  8
0
  6
VERDECKT
 62
     1
 10
-59.0000000000001918
 20
0.0000000000000392
 30
-0.0000000000000142
 11
-59.0000000000001918
 21
15.4919333848296592
 31
-0.0000000000000142
  0
LINE
  5
2FB7
  8
0
  6
VERDECKT
 62
     1
 10
-59.0000000000001918
 20
-15.4919333848296397
 30
-0.0000000000000142
 11
-59.0000000000001918
 21
0.0000000000000391
 31
-0.0000000000000142
  0
CIRCLE
  5
2FB8
  8
0
  6
VERDECKT
 62
     1
 10
0.000000000000008
 20
0.0000000000000287
 30
0.0
 40
55.2824488652487105
  0
CIRCLE
  5
2FB9
  8
0
  6
VERDECKT
 62
     1
 10
0.000000000000008
 20
0.0000000000000287
 30
0.0
 40
57.4073652161493726
  0
CIRCLE
  5
2FBA
  8
0
  6
VERDECKT
 62
     1
 10
0.0000000000000092
 20
0.0000000000000853
 30
0.0
 40
58.5
  0
ARC
  5
2FBB
  8
0
  6
VERDECKT
 62
     1
 10
0.0000000000006826
 20
0.0000000000012804
 30
0.0
 40
34.2814676152475286
 50
57.4921984785794322
 51
62.5078015214206033
  0
ARC
  5
2FBC
  8
0
  6
VERDECKT
 62
     1
 10
-0.0000000000002269
 20
0.0000000000002146
 30
0.0
 40
34.2814676152492694
 50
297.4921984785797235
 51
302.5078015214206175
  0
ARC
  5
2FBD
  8
0
  6
VERDECKT
 62
     1
 10
0.0000000000026251
 20
0.0000000000046227
 30
0.0
 40
34.8999999999947619
 50
57.5366718750245028
 51
62.4633281249757601
  0
ARC
  5
2FBE
  8
0
  6
VERDECKT
 62
     1
 10
0.0000000000026251
 20
-0.000000000004593
 30
0.0
 40
34.8999999999947619
 50
297.536671875024183
 51
302.4633281249754759
  0
ARC
  5
2FBF
  8
0
  6
VERDECKT
 62
     1
 10
-0.0000000000063498
 20
0.0000000000005477
 30
0.0
 40
57.8686291500951029
 50
170.0601924205799094
 51
180.0000000000005116
  0
ARC
  5
2FC0
  8
0
  6
VERDECKT
 62
     1
 10
0.000000000000244
 20
-0.0000000000000793
 30
0.0
 40
57.868629150101782
 50
80.0601924205787157
 51
99.9398075794212843
  0
ARC
  5
2FC1
  8
0
  6
VERDECKT
 62
     1
 10
0.0000000000230951
 20
0.0000000000402226
 30
0.0
 40
57.8686291500554617
 50
58.5146823501266695
 51
61.4853176498732665
  0
ARC
  5
2FC2
  8
0
  6
VERDECKT
 62
     1
 10
0.0000000000008125
 20
0.0000000000000121
 30
0.0
 40
57.8686291501011212
 50
350.0601924205752198
 51
9.9398075794248193
  0
ARC
  5
2FC3
  8
0
  6
VERDECKT
 62
     1
 10
0.0000000000233225
 20
-0.0000000000394931
 30
0.0
 40
57.868629150055952
 50
298.5146823501261224
 51
301.4853176498727976
  0
ARC
  5
2FC4
  8
0
  6
VERDECKT
 62
     1
 10
0.000000000000244
 20
0.0000000000003257
 30
0.0
 40
57.8686291501019809
 50
260.0601924205769819
 51
279.9398075794231886
  0
ARC
  5
2FC5
  8
0
  6
VERDECKT
 62
     1
 10
-0.0000000000063498
 20
-0.0000000000005079
 30
0.0
 40
57.8686291500951029
 50
179.9999999999994884
 51
189.9398075794200906
  0
CIRCLE
  5
2FC6
  8
0
  6
VERDECKT
 62
     1
 10
0.000000000000124
 20
0.0000000000000184
 30
0.0
 40
36.4999999999999076
  0
CIRCLE
  5
2FC7
  8
0
  6
VERDECKT
 62
     1
 10
0.0000000000000004
 20
0.0000000000000157
 30
0.0
 40
35.887579355318401
  0
LINE
  5
2FC8
  8
0
  6
VERDECKT
 62
     1
 10
29.7895026662766007
 20
48.5969321501997129
 30
0.0
 11
27.1914264549233415
 21
50.09693215019972
 31
-0.0000000000000006
  0
LINE
  5
2FC9
  8
0
  6
VERDECKT
 62
     1
 10
29.7895026662766007
 20
-48.5969321501996916
 30
0.0
 11
27.1914264549233415
 21
-50.0969321501996987
 31
-0.0000000000000006
  0
ENDBLK
  5
2FCB
  8
0
  0
ENDSEC
  0
SECTION
  2
ENTITIES
  0
TEXT
  5
1871
  8
TEXT35
 10
339.4627620700201192
 20
530.8138270605206799
 30
0.0
 40
3.5
  1

 41
0.8
  0
INSERT
  5
2F0D
  8
0
  2
A$C186D7339
 10
0.0
 20
0.0000000000000265
 30
0.0
  0
INSERT
  5
2FCC
  8
0
  2
A$C677821B7
 10
0.0
 20
-112.1699733835367994
 30
0.0
  0
VIEWPORT
  5
28BA
 67
     1
  8
0
 10
6.0082245874362217
 20
7.094490075244674
 30
0.0
 40
27.4489135754702289
 41
14.5413887393860097
 68
     1
 69
     1
1001
ACAD
1000
MVIEW
1002
{
1070
    16
1010
0.0
1020
0.0
1030
0.0
1010
0.0
1020
0.0
1030
1.0
1040
0.0
1040
14.5413887393860097
1040
6.0082245874362217
1040
7.094490075244674
1040
50.0
1040
0.0
1040
0.0
1070
     0
1070
  1500
1070
     1
1070
     1
1070
     0
1070
     0
1070
     0
1070
     0
1040
0.0
1040
0.0
1040
0.0
1040
10.0
1040
10.0
1040
10.0
1040
10.0
1070
     0
1002
{
1002
}
1002
}
  0
ENDSEC
  0
EOF
