  0
SECTION
  2
HEADER
  9
$ACADVER
  1
AC1009
  9
$INSBASE
 10
0.0
 20
0.0
 30
0.0
  9
$EXTMIN
 10
-204.6068420410155966
 20
-184.9558410644530966
 30
136.148681640625
  9
$EXTMAX
 10
-59.6068420410156179
 20
120.0
 30
136.148681640625
  9
$LIMMIN
 10
0.0
 20
0.0
  9
$LIMMAX
 10
419.9999999999998863
 20
594.0
  9
$ORTHOMODE
 70
     1
  9
$REGENMODE
 70
     1
  9
$FILLMODE
 70
     1
  9
$QTEXTMODE
 70
     0
  9
$MIRRTEXT
 70
     1
  9
$DRAGMODE
 70
     2
  9
$LTSCALE
 40
20.0
  9
$OSMODE
 70
  3583
  9
$ATTMODE
 70
     1
  9
$TEXTSIZE
 40
3.5
  9
$TRACEWID
 40
0.5
  9
$TEXTSTYLE
  7
STANDARD
  9
$CLAYER
  8
STEMPEL
  9
$CELTYPE
  6
BYLAYER
  9
$CECOLOR
 62
   256
  9
$DIMSCALE
 40
1.0
  9
$DIMASZ
 40
3.5
  9
$DIMEXO
 40
1.0
  9
$DIMDLI
 40
0.38
  9
$DIMRND
 40
0.0
  9
$DIMDLE
 40
0.0
  9
$DIMEXE
 40
1.0
  9
$DIMTP
 40
0.0
  9
$DIMTM
 40
0.000000001
  9
$DIMTXT
 40
3.5
  9
$DIMCEN
 40
0.09
  9
$DIMTSZ
 40
0.0
  9
$DIMTOL
 70
     0
  9
$DIMLIM
 70
     0
  9
$DIMTIH
 70
     0
  9
$DIMTOH
 70
     0
  9
$DIMSE1
 70
     0
  9
$DIMSE2
 70
     0
  9
$DIMTAD
 70
     1
  9
$DIMZIN
 70
     8
  9
$DIMBLK
  1

  9
$DIMASO
 70
     1
  9
$DIMSHO
 70
     0
  9
$DIMPOST
  1

  9
$DIMAPOST
  1

  9
$DIMALT
 70
     0
  9
$DIMALTD
 70
     2
  9
$DIMALTF
 40
25.3999999999999986
  9
$DIMLFAC
 40
2.0
  9
$DIMTOFL
 70
     1
  9
$DIMTVP
 40
0.0
  9
$DIMTIX
 70
     0
  9
$DIMSOXD
 70
     0
  9
$DIMSAH
 70
     0
  9
$DIMBLK1
  1

  9
$DIMBLK2
  1

  9
$DIMSTYLE
  2
LORO
  9
$DIMCLRD
 70
     0
  9
$DIMCLRE
 70
     0
  9
$DIMCLRT
 70
     1
  9
$DIMTFAC
 40
0.5
  9
$DIMGAP
 40
1.5
  9
$LUNITS
 70
     2
  9
$LUPREC
 70
     2
  9
$SKETCHINC
 40
1.0
  9
$FILLETRAD
 40
0.0
  9
$AUNITS
 70
     0
  9
$AUPREC
 70
     0
  9
$MENU
  1
ACAD
  9
$ELEVATION
 40
0.0
  9
$PELEVATION
 40
0.0
  9
$THICKNESS
 40
0.0
  9
$LIMCHECK
 70
     0
  9
$BLIPMODE
 70
     0
  9
$CHAMFERA
 40
2.0
  9
$CHAMFERB
 40
2.0
  9
$SKPOLY
 70
     0
  9
$TDCREATE
 40
2455397.8646990740671754
  9
$TDUPDATE
 40
2460935.5470486111007631
  9
$TDINDWG
 40
2.1979786343000001
  9
$TDUSRTIMER
 40
2.1979786343000001
  9
$USRTIMER
 70
     1
  9
$ANGBASE
 50
0.0
  9
$ANGDIR
 70
     0
  9
$PDMODE
 70
     0
  9
$PDSIZE
 40
0.0
  9
$PLINEWID
 40
0.0
  9
$COORDS
 70
     1
  9
$SPLFRAME
 70
     0
  9
$SPLINETYPE
 70
     6
  9
$SPLINESEGS
 70
     8
  9
$ATTDIA
 70
     1
  9
$ATTREQ
 70
     1
  9
$HANDLING
 70
     1
  9
$HANDSEED
  5
2265A
  9
$SURFTAB1
 70
     6
  9
$SURFTAB2
 70
     6
  9
$SURFTYPE
 70
     6
  9
$SURFU
 70
     6
  9
$SURFV
 70
     6
  9
$UCSNAME
  2

  9
$UCSORG
 10
0.0
 20
0.0
 30
0.0
  9
$UCSXDIR
 10
1.0
 20
0.0
 30
0.0
  9
$UCSYDIR
 10
0.0
 20
1.0
 30
0.0
  9
$PUCSNAME
  2

  9
$PUCSORG
 10
0.0
 20
0.0
 30
0.0
  9
$PUCSXDIR
 10
1.0
 20
0.0
 30
0.0
  9
$PUCSYDIR
 10
0.0
 20
1.0
 30
0.0
  9
$USERI1
 70
     0
  9
$USERI2
 70
     0
  9
$USERI3
 70
     0
  9
$USERI4
 70
     0
  9
$USERI5
 70
     0
  9
$USERR1
 40
0.0
  9
$USERR2
 40
0.0
  9
$USERR3
 40
0.0
  9
$USERR4
 40
0.0
  9
$USERR5
 40
0.0
  9
$WORLDVIEW
 70
     1
  9
$SHADEDGE
 70
     3
  9
$SHADEDIF
 70
    70
  9
$TILEMODE
 70
     1
  9
$MAXACTVP
 70
    16
  9
$PLIMCHECK
 70
     0
  9
$PEXTMIN
 10
1.0000000000000000E+20
 20
1.0000000000000000E+20
 30
1.0000000000000000E+20
  9
$PEXTMAX
 10
-1.0000000000000000E+20
 20
-1.0000000000000000E+20
 30
-1.0000000000000000E+20
  9
$PLIMMIN
 10
-593.2447509765625
 20
-296.75
  9
$PLIMMAX
 10
-296.2447509765625
 20
123.25
  9
$UNITMODE
 70
     0
  9
$VISRETAIN
 70
     0
  9
$PLINEGEN
 70
     0
  9
$PSLTSCALE
 70
     0
  0
ENDSEC
  0
SECTION
  2
TABLES
  0
TABLE
  2
VPORT
 70
     1
  0
VPORT
  2
*ACTIVE
 70
     0
 10
0.0
 20
0.0
 11
1.0
 21
1.0
 12
-64.5112762451172159
 22
-20.1882705688476598
 13
0.0
 23
0.0
 14
1.0
 24
1.0
 15
10.0
 25
10.0
 16
-0.0000000000002416
 26
0.0
 36
1103.2036235019609194
 17
-67.5955657958984375
 27
-12.2896499633789098
 37
68.0743408203125
 40
306.5386568485246812
 41
1.9004329004328999
 42
49.9999999999997513
 43
0.0
 44
0.0
 50
0.0
 51
0.0
 71
     0
 72
  1500
 73
     1
 74
     0
 75
     0
 76
     0
 77
     0
 78
     0
  0
ENDTAB
  0
TABLE
  2
LTYPE
 70
     3
  0
LTYPE
  2
CONTINUOUS
 70
     0
  3
Solid line
 72
    65
 73
     0
 40
0.0
  0
LTYPE
  2
STRICHPUNKT
 70
     0
  3
__ . __ . __ . __ . __ . __ . __ . __ . __ . __
 72
    65
 73
     4
 40
1.0
 49
0.5
 49
-0.25
 49
0.0
 49
-0.25
  0
LTYPE
  2
VERDECKT
 70
     0
  3
Verdeckt __ __ __ __ __ __ __ __ __ __ __ __ __
 72
    65
 73
     2
 40
0.375
 49
0.25
 49
-0.125
  0
ENDTAB
  0
TABLE
  2
LAYER
 70
     5
  0
LAYER
  2
0
 70
     0
 62
     7
  6
CONTINUOUS
  0
LAYER
  2
VOLL
 70
     0
 62
     1
  6
CONTINUOUS
  0
LAYER
  2
STEMPEL
 70
     0
 62
     3
  6
CONTINUOUS
  0
LAYER
  2
DEFPOINTS
 70
     0
 62
     7
  6
CONTINUOUS
  0
LAYER
  2
ADSK_ASSOC_ENTITY_BACKUPS
 70
     1
 62
    -7
  6
CONTINUOUS
  0
ENDTAB
  0
TABLE
  2
STYLE
 70
     3
  0
STYLE
  2
STANDARD
 70
     0
 40
0.0
 41
0.8
 50
0.0
 71
     0
 42
3.5
  3
simplex.shx
  4

  0
STYLE
  2
GREEKS
 70
     0
 40
0.0
 41
0.8
 50
0.0
 71
     0
 42
2.5
  3
SIMPLEX.shx
  4

  0
STYLE
  2

 70
     1
 40
0.0
 41
1.0
 50
0.0
 71
     0
 42
2.5
  3
ltypeshp.shx
  4

  0
ENDTAB
  0
TABLE
  2
VIEW
 70
     0
  0
ENDTAB
  0
TABLE
  2
UCS
 70
     0
  0
ENDTAB
  0
TABLE
  2
APPID
 70
    30
  0
APPID
  2
ACAD
 70
     0
  0
APPID
  2
ACAD_NAV_VCDISPLAY
 70
     0
  0
APPID
  2
ACAD_MLEADERVER
 70
     0
  0
APPID
  2
ACAD_EXEMPT_FROM_CAD_STANDARDS
 70
     0
  0
APPID
  2
ACAD_PSEXT
 70
     0
  0
APPID
  2
ACAECLAYERSTANDARD
 70
     0
  0
APPID
  2
ACAD_DSTYLE_DIMJAG
 70
     0
  0
APPID
  2
ACAD_DSTYLE_DIMTALN
 70
     0
  0
APPID
  2
ACCMTRANSPARENCY
 70
     0
  0
APPID
  2
ACADANNOMONITORALERTICONDI
 70
     0
  0
APPID
  2
ACAD_DSTYLE_DIMRADIAL_EXTENSION
 70
     0
  0
APPID
  2
GRADIENTCOLOR1ACI
 70
     0
  0
APPID
  2
GRADIENTCOLOR2ACI
 70
     0
  0
APPID
  2
ACAD_OBJECT_CHANGE_GUID
 70
     0
  0
APPID
  2
ACSYNERGY
 70
     0
  0
APPID
  2
SYNERGY_BODY_TBR_ID
 70
     0
  0
APPID
  2
ACAD_VIEW_EDGE_ID
 70
     0
  0
APPID
  2
ACAD_DIMASSOC_CALC_DIMLFAC
 70
     0
  0
APPID
  2
ACAD_DIMASSOC_DIMLFAC
 70
     0
  0
APPID
  2
ACAD_DIMASSOC_OVERRIDDEN_D
 70
     0
  0
APPID
  2
ACSYNERGYSKETCH
 70
     0
  0
APPID
  2
ACAD_MODELDOC_XFORM
 70
     0
  0
APPID
  2
ACDBDYNAMICBLOCKGUID
 70
     0
  0
APPID
  2
ACAD_DSTYLE_DIMBREAK
 70
     0
  0
APPID
  2
ACADANNOPO
 70
     0
  0
APPID
  2
ACAD_STEPID
 70
     0
  0
APPID
  2
SYNERGY_EXCLUDED_FROM_SNAPSHOT
 70
     0
  0
APPID
  2
ACAD_TC
 70
     0
  0
APPID
  2
ACADANNOTATIVE
 70
     0
  0
APPID
  2
PLOTTRANSPARENCY
 70
     0
  0
ENDTAB
  0
TABLE
  2
DIMSTYLE
 70
     2
  0
DIMSTYLE
  2
LORO
 70
     0
  3

  4

  5

  6

  7

 40
1.0
 41
3.5
 42
1.0
 43
0.38
 44
1.0
 45
0.0
 46
0.0
 47
0.0
 48
0.000000001
140
3.5
141
0.09
142
0.0
143
25.3999999999999986
144
1.0
145
0.0
146
0.5
147
1.5
 71
     0
 72
     0
 73
     0
 74
     0
 75
     0
 76
     0
 77
     1
 78
     8
170
     0
171
     2
172
     1
173
     0
174
     0
175
     0
176
     0
177
     0
178
     1
  0
DIMSTYLE
  2
STANDARD
 70
     0
  3

  4

  5

  6

  7

 40
1.0
 41
0.18
 42
0.0625
 43
0.38
 44
0.18
 45
0.0
 46
0.0
 47
0.0
 48
0.0
140
0.18
141
0.09
142
0.0
143
25.3999999999999986
144
1.0
145
0.0
146
1.0
147
0.09
 71
     0
 72
     0
 73
     1
 74
     1
 75
     0
 76
     0
 77
     0
 78
     0
170
     0
171
     2
172
     0
173
     0
174
     0
175
     0
176
     0
177
     0
178
     0
  0
ENDTAB
  0
ENDSEC
  0
SECTION
  2
BLOCKS
  0
BLOCK
  8
0
  2
$MODEL_SPACE
 70
     0
 10
0.0
 20
0.0
 30
0.0
  3
$MODEL_SPACE
  1

  0
ENDBLK
  5
36
  8
0
  0
BLOCK
 67
     1
  8
0
  2
$PAPER_SPACE
 70
     0
 10
0.0
 20
0.0
 30
0.0
  3
$PAPER_SPACE
  1

  0
ENDBLK
  5
34
 67
     1
  8
0
  0
BLOCK
  8
0
  2
*S0
 70
     1
 10
0.0
 20
0.0
 30
0.0
  3
*S0
  1

  0
ENDBLK
  5
18BD
  8
0
  0
BLOCK
  8
0
  2
A$C42A02288
 70
     0
 10
0.0
 20
0.0
 30
0.0
  3
A$C42A02288
  1

  0
LINE
  5
225B2
  8
0
  6
CONTINUOUS
 62
     3
 10
72.5000000000000284
 20
120.0
 30
-0.0000000000000266
 11
-72.4999999999999716
 21
120.0
 31
-0.0000000000000266
210
0.0000000000000002
220
1.0
230
-0.0000000000000002
  0
LINE
  5
225B3
  8
0
  6
CONTINUOUS
 62
     3
 10
-66.4999999999999858
 20
94.0000000000000284
 30
-0.0000000000000209
 11
66.5000000000000142
 21
94.0
 31
-0.0000000000000209
210
0.0000000000000002
220
1.0
230
-0.0000000000000002
  0
LINE
  5
225B4
  8
0
  6
CONTINUOUS
 62
     3
 10
-72.4999999999999716
 20
110.0
 30
-0.0000000000000244
 11
-72.4999999999999716
 21
120.0
 31
-0.0000000000000266
210
0.0000000000000002
220
1.0
230
-0.0000000000000002
  0
LINE
  5
225B5
  8
0
  6
CONTINUOUS
 62
     3
 10
72.5000000000000284
 20
110.0
 30
-0.0000000000000244
 11
72.5000000000000284
 21
120.0
 31
-0.0000000000000266
210
0.0000000000000002
220
1.0
230
-0.0000000000000002
  0
ARC
  5
225B6
  8
0
  6
CONTINUOUS
 62
     3
 10
-71.3899472612445862
 20
98.0547707648316873
 30
0.0
 40
4.8902539866998112
210
0.0
220
-0.0000000000000002
230
-1.0
 50
359.3582747878699024
 51
53.3424273422519235
  0
ARC
  5
225B7
  8
0
  6
CONTINUOUS
 62
     3
 10
71.3899472612446289
 20
98.0547707648316731
 30
0.0
 40
4.8902539866999106
210
0.0
220
-0.0000000000000002
230
-1.0
 50
126.6575726577489007
 51
180.641725212129586
  0
ARC
  5
225B8
  8
0
  6
CONTINUOUS
 62
     3
 10
-62.5000000000000071
 20
110.0
 30
0.0
 40
10.0
210
0.0
220
-0.0000000000000002
230
-1.0
 50
180.0
 51
233.3424273422515114
  0
ARC
  5
225B9
  8
0
  6
CONTINUOUS
 62
     3
 10
62.5000000000000071
 20
110.0
 30
0.0
 40
9.9999999999999645
210
0.0
220
-0.0000000000000002
230
-1.0
 50
306.6575726577484033
 51
0.0000000000001018
  0
LINE
  5
225BA
  8
0
  6
CONTINUOUS
 62
     3
 10
-66.4999999999999858
 20
94.0000000000000284
 30
-0.0000000000000209
 11
-66.4999999999999716
 21
98.0000000000000426
 31
-0.0000000000000218
210
0.0000000000000002
220
1.0
230
-0.0000000000000002
  0
LINE
  5
225BB
  8
0
  6
CONTINUOUS
 62
     3
 10
66.5000000000000142
 20
94.0
 30
-0.0000000000000209
 11
66.5000000000000284
 21
98.0000000000000142
 31
-0.0000000000000218
210
0.0000000000000002
220
1.0
230
-0.0000000000000002
  0
LINE
  5
225BC
  8
0
  6
CONTINUOUS
 62
     3
 10
-66.4999999999999858
 20
94.0000000000000284
 30
-0.0000000000000209
 11
66.5000000000000142
 21
94.0
 31
-0.0000000000000209
210
0.0000000000000002
220
1.0
230
-0.0000000000000002
  0
LINE
  5
225BD
  8
0
  6
CONTINUOUS
 62
     3
 10
-65.5
 20
0.0000000000000145
 30
0.0
 11
0.0000000000000142
 21
0.000000000000004
 31
0.0
210
0.0000000000000002
220
1.0
230
-0.0000000000000002
  0
LINE
  5
225BE
  8
0
  6
CONTINUOUS
 62
     3
 10
0.0000000000000314
 20
0.000000000000004
 30
0.0
 11
65.4999999999999858
 21
-0.0000000000000145
 31
0.0
210
0.0000000000000002
220
1.0
230
-0.0000000000000002
  0
LINE
  5
225BF
  8
0
  6
CONTINUOUS
 62
     3
 10
-65.4999999999999858
 20
0.0000000000000137
 30
0.0
 11
-66.5
 21
10.0000000000000107
 31
-0.0000000000000022
210
0.0000000000000002
220
1.0
230
-0.0000000000000002
  0
LINE
  5
225C0
  8
0
  6
CONTINUOUS
 62
     3
 10
65.4999999999999858
 20
-0.0000000000000154
 30
0.0
 11
66.5
 21
9.9999999999999876
 31
-0.0000000000000022
210
0.0000000000000002
220
1.0
230
-0.0000000000000002
  0
LINE
  5
225C1
  8
0
  6
CONTINUOUS
 62
     3
 10
-66.5
 20
10.0000000000000107
 30
-0.0000000000000022
 11
-66.4999999999999858
 21
94.0000000000000284
 31
-0.0000000000000209
210
0.0000000000000002
220
1.0
230
-0.0000000000000002
  0
LINE
  5
225C2
  8
0
  6
CONTINUOUS
 62
     3
 10
66.5
 20
9.9999999999999876
 30
-0.0000000000000022
 11
66.5000000000000142
 21
94.0
 31
-0.0000000000000209
210
0.0000000000000002
220
1.0
230
-0.0000000000000002
  0
LINE
  5
225C3
  8
0
  6
VERDECKT
 62
     1
 10
-69.9999999999999716
 20
110.0000000000581935
 30
-0.0000000000000244
 11
-69.9999999999999716
 21
120.0
 31
-0.0000000000000266
210
0.0000000000000002
220
1.0
230
-0.0000000000000002
  0
LINE
  5
225C4
  8
0
  6
VERDECKT
 62
     1
 10
70.0000000000000284
 20
110.0000000000581935
 30
-0.0000000000000244
 11
70.0000000000000284
 21
120.0
 31
-0.0000000000000266
210
0.0000000000000002
220
1.0
230
-0.0000000000000002
  0
ARC
  5
225C5
  8
0
  6
VERDECKT
 62
     1
 10
-62.4999999999999574
 20
110.0
 30
0.0
 40
7.500000000000056
210
0.0
220
-0.0000000000000002
230
-1.0
 50
179.9999999995553992
 51
233.3424273422511988
  0
ARC
  5
225C6
  8
0
  6
VERDECKT
 62
     1
 10
62.4999999999999218
 20
110.0
 30
0.0
 40
7.5000000000000471
210
0.0
220
-0.0000000000000002
230
-1.0
 50
306.6575726577489149
 51
0.0000000004445779
  0
ARC
  5
225C7
  8
0
  6
VERDECKT
 62
     1
 10
-71.389947261244572
 20
98.0547707648316873
 30
0.0
 40
7.3902539866997934
210
0.0
220
-0.0000000000000002
230
-1.0
 50
359.4779833439014283
 51
53.3424273422518809
  0
ARC
  5
225C8
  8
0
  6
VERDECKT
 62
     1
 10
71.3899472612446147
 20
98.0547707648316731
 30
0.0
 40
7.3902539866998946
210
0.0
220
-0.0000000000000002
230
-1.0
 50
126.6575726577485028
 51
180.5220166560980886
  0
LINE
  5
225C9
  8
0
  6
VERDECKT
 62
     1
 10
-63.9999999999999787
 20
94.0000000000000284
 30
-0.0000000000000209
 11
-63.9999999999999787
 21
97.9874397618405624
 31
-0.0000000000000218
210
0.0000000000000002
220
1.0
230
-0.0000000000000002
  0
LINE
  5
225CA
  8
0
  6
VERDECKT
 62
     1
 10
64.0000000000000142
 20
94.0
 30
-0.0000000000000209
 11
64.0000000000000284
 21
97.9874397618405197
 31
-0.0000000000000218
210
0.0000000000000002
220
1.0
230
-0.0000000000000002
  0
LINE
  5
225CB
  8
0
  6
VERDECKT
 62
     1
 10
-63.0124070244750101
 20
0.2487592975525102
 30
-0.0000000000000001
 11
0.0000000000000214
 21
0.2487592975525001
 31
-0.0000000000000001
210
0.0000000000000002
220
1.0
230
-0.0000000000000002
  0
LINE
  5
225CC
  8
0
  6
VERDECKT
 62
     1
 10
0.0000000000000369
 20
0.2487592975525001
 30
-0.0000000000000001
 11
63.0124070244750101
 21
0.2487592975524822
 31
-0.0000000000000001
210
0.0000000000000002
220
1.0
230
-0.0000000000000002
  0
LINE
  5
225CD
  8
0
  6
VERDECKT
 62
     1
 10
63.0124070244750101
 20
0.248759297552493
 30
-0.0000000000000001
 11
65.4999999999999858
 21
-0.0000000000000106
 31
0.0
210
0.0000000000000002
220
1.0
230
-0.0000000000000002
  0
LINE
  5
225CE
  8
0
  6
VERDECKT
 62
     1
 10
-63.0124070244750101
 20
0.248759297552521
 30
-0.0000000000000001
 11
-65.4999999999999858
 21
0.0000000000000185
 31
0.0
210
0.0000000000000002
220
1.0
230
-0.0000000000000002
  0
LINE
  5
225CF
  8
0
  6
VERDECKT
 62
     1
 10
-63.0124070244750172
 20
0.2487592975525084
 30
-0.0000000000000001
 11
-64.0000000000000142
 21
10.1246890528022497
 31
-0.0000000000000022
210
0.0000000000000002
220
1.0
230
-0.0000000000000002
  0
LINE
  5
225D0
  8
0
  6
VERDECKT
 62
     1
 10
63.0124070244750172
 20
0.2487592975524804
 30
-0.0000000000000001
 11
64.0000000000000142
 21
10.1246890528022195
 31
-0.0000000000000022
210
0.0000000000000002
220
1.0
230
-0.0000000000000002
  0
LINE
  5
225D1
  8
0
  6
VERDECKT
 62
     1
 10
-64.0
 20
10.1246890528022497
 30
-0.0000000000000022
 11
-63.9999999999999787
 21
94.0000000000000284
 31
-0.0000000000000209
210
0.0000000000000002
220
1.0
230
-0.0000000000000002
  0
LINE
  5
225D2
  8
0
  6
VERDECKT
 62
     1
 10
64.0
 20
10.1246890528022195
 30
-0.0000000000000022
 11
64.0000000000000142
 21
94.0
 31
-0.0000000000000209
210
0.0000000000000002
220
1.0
230
-0.0000000000000002
  0
ENDBLK
  5
225D4
  8
0
  0
BLOCK
  8
0
  2
A$C46D2A8A7
 70
     0
 10
0.0
 20
0.0
 30
0.0
  3
A$C46D2A8A7
  1

  0
CIRCLE
  5
225FD
  8
0
  6
CONTINUOUS
 62
     3
 10
0.0000000000000265
 20
0.0000000000000016
 30
0.0
 40
72.5
  0
CIRCLE
  5
225FE
  8
0
  6
CONTINUOUS
 62
     3
 10
0.0000000000000265
 20
0.0000000000000016
 30
0.0
 40
70.0
  0
CIRCLE
  5
225FF
  8
0
  6
CONTINUOUS
 62
     3
 10
0.0000000000000217
 20
0.0000000000000002
 30
0.0
 40
63.9996932745447467
  0
CIRCLE
  5
22600
  8
0
  6
CONTINUOUS
 62
     3
 10
0.0000000000000001
 20
-0.0000000000000057
 30
0.0
 40
63.0124070244750101
  0
CIRCLE
  5
22601
  8
0
  6
VERDECKT
 62
     1
 10
0.0000000000000216
 20
0.0000000000000002
 30
0.0
 40
64.0
  0
CIRCLE
  5
22602
  8
0
  6
VERDECKT
 62
     1
 10
0.0000000000000216
 20
0.0000000000000002
 30
0.0
 40
66.5
  0
CIRCLE
  5
22603
  8
0
  6
VERDECKT
 62
     1
 10
0.0000000000000217
 20
0.0000000000000002
 30
0.0
 40
66.4996932745447538
  0
CIRCLE
  5
22604
  8
0
  6
VERDECKT
 62
     1
 10
0.0
 20
-0.0000000000000058
 30
0.0
 40
65.4999999999999858
  0
ENDBLK
  5
22606
  8
0
  0
ENDSEC
  0
SECTION
  2
ENTITIES
  0
TEXT
  5
8F
  8
VOLL
 10
78.076754716981128
 20
31.025947764705851
 30
0.0
 40
1.8
  1

  7
GREEKS
  0
INSERT
  5
18BF
  8
ADSK_ASSOC_ENTITY_BACKUPS
  2
*S0
 10
0.0
 20
0.0
 30
0.0
  0
INSERT
  5
225D5
  8
STEMPEL
  2
A$C42A02288
 10
-132.1068420221616861
 20
0.0000000000000293
 30
136.1486754708845979
  0
INSERT
  5
22607
  8
STEMPEL
  2
A$C46D2A8A7
 10
-132.1068420221616861
 20
-112.5
 30
136.1486754708845979
  0
VIEWPORT
  5
C68
 67
     1
  8
0
 10
-444.7447509765623863
 20
-86.75
 30
0.0
 40
802.3246303869141229
 41
422.1799307958477812
 68
     1
 69
     1
1001
ACAD
1000
MVIEW
1002
{
1070
    16
1010
0.0
1020
0.0
1030
0.0
1010
0.0
1020
0.0
1030
1.0
1040
0.0
1040
422.1799307958477812
1040
-444.7447509765623863
1040
-86.75
1040
50.0
1040
0.0
1040
0.0
1070
     0
1070
     0
1070
     1
1070
     1
1070
     0
1070
     0
1070
     0
1070
     0
1040
0.0
1040
0.0
1040
0.0
1040
10.0
1040
10.0
1040
10.0
1040
10.0
1070
     0
1002
{
1002
}
1002
}
  0
TEXT
  5
1986
 67
     1
  8
VOLL
 10
405.6964831740547766
 20
-245.0781761654644981
 30
0.0
 40
3.6000000000000001
  1

  7
GREEKS
  0
ENDSEC
  0
EOF
