  0
SECTION
  2
HEADER
  9
$ACADVER
  1
AC1009
  9
$INSBASE
 10
0.0
 20
0.0
 30
0.0
  9
$EXTMIN
 10
66.873019183275801
 20
-1146.8213958740229828
 30
-85.018494308364609
  9
$EXTMAX
 10
566.8730191832762557
 20
-338.2860868693787211
 30
-85.0184943083644953
  9
$LIMMIN
 10
0.0
 20
0.0
  9
$LIMMAX
 10
420.0
 20
297.0
  9
$ORTHOMODE
 70
     0
  9
$REGENMODE
 70
     1
  9
$FILLMODE
 70
     1
  9
$QTEXTMODE
 70
     0
  9
$MIRRTEXT
 70
     1
  9
$DRAGMODE
 70
     2
  9
$LTSCALE
 40
10.0
  9
$OSMODE
 70
   247
  9
$ATTMODE
 70
     1
  9
$TEXTSIZE
 40
3.5
  9
$TRACEWID
 40
1.0
  9
$TEXTSTYLE
  7
STANDARD
  9
$CLAYER
  8
SCHRAFF
  9
$CELTYPE
  6
BYLAYER
  9
$CECOLOR
 62
   256
  9
$DIMSCALE
 40
1.0
  9
$DIMASZ
 40
3.5
  9
$DIMEXO
 40
1.0
  9
$DIMDLI
 40
7.0
  9
$DIMRND
 40
0.0
  9
$DIMDLE
 40
0.0
  9
$DIMEXE
 40
1.0
  9
$DIMTP
 40
0.0
  9
$DIMTM
 40
0.0
  9
$DIMTXT
 40
3.5
  9
$DIMCEN
 40
1.5
  9
$DIMTSZ
 40
0.0
  9
$DIMTOL
 70
     0
  9
$DIMLIM
 70
     0
  9
$DIMTIH
 70
     0
  9
$DIMTOH
 70
     0
  9
$DIMSE1
 70
     0
  9
$DIMSE2
 70
     0
  9
$DIMTAD
 70
     1
  9
$DIMZIN
 70
     8
  9
$DIMBLK
  1

  9
$DIMASO
 70
     1
  9
$DIMSHO
 70
     0
  9
$DIMPOST
  1

  9
$DIMAPOST
  1

  9
$DIMALT
 70
     0
  9
$DIMALTD
 70
     2
  9
$DIMALTF
 40
25.3999999999999986
  9
$DIMLFAC
 40
1.0
  9
$DIMTOFL
 70
     1
  9
$DIMTVP
 40
0.0
  9
$DIMTIX
 70
     0
  9
$DIMSOXD
 70
     0
  9
$DIMSAH
 70
     0
  9
$DIMBLK1
  1

  9
$DIMBLK2
  1

  9
$DIMSTYLE
  2
STANDARD
  9
$DIMCLRD
 70
     0
  9
$DIMCLRE
 70
     0
  9
$DIMCLRT
 70
     1
  9
$DIMTFAC
 40
0.5142857142857143
  9
$DIMGAP
 40
1.5
  9
$LUNITS
 70
     2
  9
$LUPREC
 70
     2
  9
$SKETCHINC
 40
1.0
  9
$FILLETRAD
 40
0.0
  9
$AUNITS
 70
     0
  9
$AUPREC
 70
     0
  9
$MENU
  1
ACAD
  9
$ELEVATION
 40
0.0
  9
$PELEVATION
 40
0.0
  9
$THICKNESS
 40
0.0
  9
$LIMCHECK
 70
     0
  9
$BLIPMODE
 70
     0
  9
$CHAMFERA
 40
0.0
  9
$CHAMFERB
 40
0.0
  9
$SKPOLY
 70
     0
  9
$TDCREATE
 40
2455397.867048610933125
  9
$TDUPDATE
 40
2460384.4454166670329869
  9
$TDINDWG
 40
0.5626126042
  9
$TDUSRTIMER
 40
0.5626126042
  9
$USRTIMER
 70
     1
  9
$ANGBASE
 50
0.0
  9
$ANGDIR
 70
     0
  9
$PDMODE
 70
     0
  9
$PDSIZE
 40
0.0
  9
$PLINEWID
 40
0.0
  9
$COORDS
 70
     1
  9
$SPLFRAME
 70
     0
  9
$SPLINETYPE
 70
     6
  9
$SPLINESEGS
 70
     8
  9
$ATTDIA
 70
     1
  9
$ATTREQ
 70
     1
  9
$HANDLING
 70
     1
  9
$HANDSEED
  5
DEEE
  9
$SURFTAB1
 70
     6
  9
$SURFTAB2
 70
     6
  9
$SURFTYPE
 70
     6
  9
$SURFU
 70
     6
  9
$SURFV
 70
     6
  9
$UCSNAME
  2

  9
$UCSORG
 10
0.0
 20
0.0
 30
0.0
  9
$UCSXDIR
 10
1.0
 20
0.0
 30
0.0
  9
$UCSYDIR
 10
0.0
 20
1.0
 30
0.0
  9
$PUCSNAME
  2

  9
$PUCSORG
 10
0.0
 20
0.0
 30
0.0
  9
$PUCSXDIR
 10
1.0
 20
0.0
 30
0.0
  9
$PUCSYDIR
 10
0.0
 20
1.0
 30
0.0
  9
$USERI1
 70
     0
  9
$USERI2
 70
     0
  9
$USERI3
 70
     0
  9
$USERI4
 70
     0
  9
$USERI5
 70
     0
  9
$USERR1
 40
0.0
  9
$USERR2
 40
0.0
  9
$USERR3
 40
0.0
  9
$USERR4
 40
0.0
  9
$USERR5
 40
0.0
  9
$WORLDVIEW
 70
     1
  9
$SHADEDGE
 70
     3
  9
$SHADEDIF
 70
    70
  9
$TILEMODE
 70
     1
  9
$MAXACTVP
 70
    16
  9
$PLIMCHECK
 70
     0
  9
$PEXTMIN
 10
1.0000000000000000E+20
 20
1.0000000000000000E+20
 30
1.0000000000000000E+20
  9
$PEXTMAX
 10
-1.0000000000000000E+20
 20
-1.0000000000000000E+20
 30
-1.0000000000000000E+20
  9
$PLIMMIN
 10
479.9138518335494155
 20
-0.9065378755084338
  9
$PLIMMAX
 10
1073.9138518335489607
 20
419.0934621244915093
  9
$UNITMODE
 70
     0
  9
$VISRETAIN
 70
     0
  9
$PLINEGEN
 70
     0
  9
$PSLTSCALE
 70
     0
  0
ENDSEC
  0
SECTION
  2
TABLES
  0
TABLE
  2
VPORT
 70
     1
  0
VPORT
  2
*ACTIVE
 70
     0
 10
0.0
 20
0.0
 11
1.0
 21
1.0
 12
123.7213569238408013
 22
0.0
 13
0.0
 23
0.0
 14
1.0
 24
1.0
 15
10.0
 25
10.0
 16
-0.0000000000005684
 26
0.0
 36
2553.258323130584813
 17
316.8730220969408151
 27
-742.5714088113552407
 37
-85.0184943083645663
 40
920.7627807145363477
 41
1.9783393501805051
 42
49.9999999999981313
 43
0.0
 44
0.0
 50
0.0
 51
0.0
 71
     0
 72
  1500
 73
     1
 74
     0
 75
     0
 76
     0
 77
     0
 78
     0
  0
ENDTAB
  0
TABLE
  2
LTYPE
 70
     4
  0
LTYPE
  2
CONTINUOUS
 70
     0
  3
Solid line
 72
    65
 73
     0
 40
0.0
  0
LTYPE
  2
STRICHPUNKT
 70
     0
  3
__ . __ . __ . __ . __ . __ . __ . __ . __ . __
 72
    65
 73
     4
 40
1.0
 49
0.5
 49
-0.25
 49
0.0
 49
-0.25
  0
LTYPE
  2
PHANTOM2
 70
     0
  3
Phantom (.5x) ___ _ _ ___ _ _ ___ _ _ ___ _ _
 72
    65
 73
     6
 40
1.25
 49
0.625
 49
-0.125
 49
0.125
 49
-0.125
 49
0.125
 49
-0.125
  0
LTYPE
  2
VERDECKT
 70
     0
  3
Verdeckt __ __ __ __ __ __ __ __ __ __ __ __ __
 72
    65
 73
     2
 40
0.375
 49
0.25
 49
-0.125
  0
ENDTAB
  0
TABLE
  2
LAYER
 70
     9
  0
LAYER
  2
0
 70
     0
 62
     7
  6
CONTINUOUS
  0
LAYER
  2
VOLL
 70
     0
 62
     1
  6
CONTINUOUS
  0
LAYER
  2
STEMPEL
 70
     0
 62
     3
  6
CONTINUOUS
  0
LAYER
  2
SCHRAFF
 70
     0
 62
     7
  6
CONTINUOUS
  0
LAYER
  2
DEFPOINTS
 70
     0
 62
     7
  6
CONTINUOUS
  0
LAYER
  2
BLECH
 70
     0
 62
     9
  6
CONTINUOUS
  0
LAYER
  2
ADSK_ASSOC_ENTITY_BACKUPS
 70
     1
 62
    -7
  6
CONTINUOUS
  0
LAYER
  2
MATERIAL__VERZINKT_
 70
     0
 62
   254
  6
CONTINUOUS
  0
LAYER
  2
GUMMI
 70
     0
 62
   250
  6
CONTINUOUS
  0
ENDTAB
  0
TABLE
  2
STYLE
 70
     3
  0
STYLE
  2
STANDARD
 70
     0
 40
0.0
 41
0.8
 50
0.0
 71
     0
 42
3.5
  3
simplex.shx
  4

  0
STYLE
  2
GREEKS
 70
     0
 40
0.0
 41
0.8
 50
0.0
 71
     0
 42
2.5
  3
SIMPLEX.shx
  4

  0
STYLE
  2

 70
     1
 40
0.0
 41
1.0
 50
0.0
 71
     0
 42
2.5
  3
ltypeshp.shx
  4

  0
ENDTAB
  0
TABLE
  2
VIEW
 70
     2
  0
ENDTAB
  0
TABLE
  2
UCS
 70
     0
  0
ENDTAB
  0
TABLE
  2
APPID
 70
    29
  0
APPID
  2
ACAD
 70
     0
  0
APPID
  2
ACAD_NAV_VCDISPLAY
 70
     0
  0
APPID
  2
GRADIENTCOLOR1ACI
 70
     0
  0
APPID
  2
GRADIENTCOLOR2ACI
 70
     0
  0
APPID
  2
ACAD_PSEXT
 70
     0
  0
APPID
  2
ACAD_EXEMPT_FROM_CAD_STANDARDS
 70
     0
  0
APPID
  2
ACAD_MLEADERVER
 70
     0
  0
APPID
  2
ACAECLAYERSTANDARD
 70
     0
  0
APPID
  2
ACCMTRANSPARENCY
 70
     0
  0
APPID
  2
ACAD_OBJECT_CHANGE_GUID
 70
     0
  0
APPID
  2
ACDBDYNAMICBLOCKGUID
 70
     0
  0
APPID
  2
ACADANNOPO
 70
     0
  0
APPID
  2
ACSYNERGY
 70
     0
  0
APPID
  2
SYNERGY_BODY_TBR_ID
 70
     0
  0
APPID
  2
ACAD_VIEW_EDGE_ID
 70
     0
  0
APPID
  2
ACAD_TC
 70
     0
  0
APPID
  2
ACAD_DIMASSOC_CALC_DIMLFAC
 70
     0
  0
APPID
  2
ACAD_DIMASSOC_DIMLFAC
 70
     0
  0
APPID
  2
ACAD_DIMASSOC_OVERRIDDEN_D
 70
     0
  0
APPID
  2
ACAD_DSTYLE_DIMRADIAL_EXTENSION
 70
     0
  0
APPID
  2
ACADANNOMONITORALERTICONDI
 70
     0
  0
APPID
  2
ACAD_DSTYLE_DIMJAG
 70
     0
  0
APPID
  2
ACAD_DSTYLE_DIMBREAK
 70
     0
  0
APPID
  2
ACAD_DSTYLE_DIMTALN
 70
     0
  0
APPID
  2
ACADANNOTATIVE
 70
     0
  0
APPID
  2
ACAD_STEPID
 70
     0
  0
APPID
  2
ACSYNERGYSKETCH
 70
     0
  0
APPID
  2
ACAD_MODELDOC_XFORM
 70
     0
  0
APPID
  2
PLOTTRANSPARENCY
 70
     0
  0
ENDTAB
  0
TABLE
  2
DIMSTYLE
 70
     1
  0
DIMSTYLE
  2
STANDARD
 70
     0
  3

  4

  5

  6

  7

 40
1.0
 41
0.18
 42
0.0625
 43
0.38
 44
0.18
 45
0.0
 46
0.0
 47
0.0
 48
0.0
140
0.18
141
0.09
142
0.0
143
25.3999999999999986
144
1.0
145
0.0
146
1.0
147
0.09
 71
     0
 72
     0
 73
     1
 74
     1
 75
     0
 76
     0
 77
     0
 78
     0
170
     0
171
     2
172
     0
173
     0
174
     0
175
     0
176
     0
177
     0
178
     0
  0
ENDTAB
  0
ENDSEC
  0
SECTION
  2
BLOCKS
  0
BLOCK
  8
0
  2
$MODEL_SPACE
 70
     0
 10
0.0
 20
0.0
 30
0.0
  3
$MODEL_SPACE
  1

  0
ENDBLK
  5
38
  8
0
  0
BLOCK
 67
     1
  8
0
  2
$PAPER_SPACE
 70
     0
 10
0.0
 20
0.0
 30
0.0
  3
$PAPER_SPACE
  1

  0
ENDBLK
  5
36
 67
     1
  8
0
  0
BLOCK
  8
0
  2
*S0
 70
     1
 10
0.0
 20
0.0
 30
0.0
  3
*S0
  1

  0
ENDBLK
  5
32D9
  8
0
  0
BLOCK
  8
0
  2
A$C8280CC1D
 70
     0
 10
0.0
 20
0.0
 30
0.0
  3
A$C8280CC1D
  1

  0
LINE
  5
DCA3
  8
0
  6
CONTINUOUS
 62
     1
 10
157.4456109474191976
 20
158.0099999999999056
 30
-0.0000000000000351
 11
487.4456109474191976
 21
158.0099999999999056
 31
-0.0000000000000351
210
0.0
220
1.0
230
-0.0000000000000002
  0
LINE
  5
DCA4
  8
0
  6
CONTINUOUS
 62
     1
 10
157.4456109474191976
 20
156.5099999999999909
 30
-0.0000000000000348
 11
487.4456109474191976
 21
156.5099999999999909
 31
-0.0000000000000348
210
0.0
220
1.0
230
-0.0000000000000002
  0
LINE
  5
DCA5
  8
0
  6
CONTINUOUS
 62
     1
 10
246.4456109474193113
 20
122.0099999999999056
 30
-0.0000000000000271
 11
398.4456109474193113
 21
122.0099999999999056
 31
-0.0000000000000271
210
0.0
220
1.0
230
-0.0000000000000002
  0
ARC
  5
DCA6
  8
0
  6
CONTINUOUS
 62
     1
 10
-234.9456109474157017
 20
142.4225113364742867
 30
0.0
 40
0.9999999999964472
210
0.0
220
-0.0000000000000002
230
-1.0
 50
359.9999999999836859
 51
10.0000000000179092
  0
ARC
  5
DCA7
  8
0
  6
CONTINUOUS
 62
     1
 10
-409.9456109474222103
 20
142.4225113364742867
 30
0.0
 40
0.9999999999969865
210
0.0
220
-0.0000000000000002
230
-1.0
 50
169.9999999999841975
 51
180.0000000000146088
  0
LINE
  5
DCA8
  8
0
  6
CONTINUOUS
 62
     1
 10
410.9456109474193113
 20
142.4225113364740025
 30
-0.0000000000000316
 11
410.9456109474193113
 21
138.7779491924310094
 31
-0.0000000000000308
210
0.0
220
1.0
230
-0.0000000000000002
  0
LINE
  5
DCA9
  8
0
  6
CONTINUOUS
 62
     1
 10
233.9456109474193113
 20
142.4225113364740025
 30
-0.0000000000000316
 11
233.9456109474193113
 21
138.7779491924310094
 31
-0.0000000000000308
210
0.0
220
1.0
230
-0.0000000000000002
  0
LINE
  5
DCAA
  8
0
  6
CONTINUOUS
 62
     1
 10
409.3048165758286814
 20
151.8154072893321995
 30
-0.0000000000000337
 11
410.9304187004314031
 21
142.596159514140993
 31
-0.0000000000000317
210
0.0
220
1.0
230
-0.0000000000000002
  0
LINE
  5
DCAB
  8
0
  6
CONTINUOUS
 62
     1
 10
235.5864053190097991
 20
151.8154072893321995
 30
-0.0000000000000337
 11
233.9608031944071058
 21
142.596159514140993
 31
-0.0000000000000317
210
0.0
220
1.0
230
-0.0000000000000002
  0
ARC
  5
DCAC
  8
0
  6
CONTINUOUS
 62
     1
 10
-234.9456109474195102
 20
138.7779491924310946
 30
0.0
 40
1.0000000000002189
210
0.0
220
-0.0000000000000002
230
-1.0
 50
330.0000000000054001
 51
359.9999999999984084
  0
ARC
  5
DCAD
  8
0
  6
CONTINUOUS
 62
     1
 10
-409.9456109474202208
 20
138.7779491924308104
 30
0.0
 40
0.9999999999990905
210
0.0
220
-0.0000000000000002
230
-1.0
 50
179.9999999999870113
 51
210.0000000000152909
  0
LINE
  5
DCAE
  8
0
  6
CONTINUOUS
 62
     1
 10
241.3870037703850926
 20
125.6211295515447972
 30
-0.0000000000000279
 11
234.0795855436348063
 21
138.2779491924310094
 31
-0.0000000000000307
210
0.0
220
1.0
230
-0.0000000000000002
  0
LINE
  5
DCAF
  8
0
  6
CONTINUOUS
 62
     1
 10
403.5042181244534163
 20
125.6211295515447972
 30
-0.0000000000000279
 11
410.8116363512036742
 21
138.2779491924310094
 31
-0.0000000000000307
210
0.0
220
1.0
230
-0.0000000000000002
  0
LINE
  5
DCB0
  8
0
  6
CONTINUOUS
 62
     1
 10
487.4456109474191976
 20
158.0099999999999056
 30
-0.0000000000000351
 11
487.4456109474191976
 21
156.5099999999999909
 31
-0.0000000000000348
210
0.0
220
1.0
230
-0.0000000000000002
  0
LINE
  5
DCB1
  8
0
  6
CONTINUOUS
 62
     1
 10
157.4456109474191976
 20
158.0099999999999056
 30
-0.0000000000000351
 11
157.4456109474191976
 21
156.5099999999999909
 31
-0.0000000000000348
210
0.0
220
1.0
230
-0.0000000000000002
  0
ARC
  5
DCB2
  8
0
  6
CONTINUOUS
 62
     1
 10
-231.647174306960892
 20
152.5099999999999909
 30
0.0
 40
4.0
210
0.0
220
-0.0000000000000002
230
-1.0
 50
90.0000000000003979
 51
190.0000000000001137
  0
ARC
  5
DCB3
  8
0
  6
CONTINUOUS
 62
     1
 10
-413.2440475878775032
 20
152.5099999999999909
 30
0.0
 40
3.9999999999999409
210
0.0
220
-0.0000000000000002
230
-1.0
 50
349.9999999999993179
 51
90.00000000000081
  0
ARC
  5
DCB4
  8
0
  6
CONTINUOUS
 62
     1
 10
-247.8821942987684963
 20
129.3711295515452093
 30
0.0
 40
7.500000000000389
210
0.0
220
-0.0000000000000002
230
-1.0
 50
281.0429300845876242
 51
293.7515558867763161
  0
ARC
  5
DCB5
  8
0
  6
CONTINUOUS
 62
     1
 10
-247.8821942987680984
 20
129.3711295515444988
 30
0.0
 40
7.4999999999996261
210
0.0
220
-0.0000000000000002
230
-1.0
 50
307.1069819054433196
 51
330.0000000000006253
  0
ARC
  5
DCB6
  8
0
  6
CONTINUOUS
 62
     1
 10
-397.0090275960702115
 20
129.3711295515448114
 30
0.0
 40
7.4999999999999458
210
0.0
220
-0.0000000000000002
230
-1.0
 50
209.9999999999996874
 51
232.8930180945561119
  0
ARC
  5
DCB7
  8
0
  6
CONTINUOUS
 62
     1
 10
-397.0090275960699842
 20
129.3711295515452093
 30
0.0
 40
7.5000000000004077
210
0.0
220
-0.0000000000000002
230
-1.0
 50
246.2484441132233997
 51
258.9570699154119211
  0
LINE
  5
DCB8
  8
0
  6
CONTINUOUS
 62
     1
 10
572.4456109474192544
 20
158.5000000000001137
 30
-0.0000000000000352
 11
572.4456109474192544
 21
158.1400000000001
 31
-0.0000000000000351
210
0.0
220
1.0
230
-0.0000000000000002
  0
LINE
  5
DCB9
  8
0
  6
CONTINUOUS
 62
     1
 10
72.4456109474192544
 20
158.5000000000001137
 30
-0.0000000000000352
 11
572.4456109474192544
 21
158.5000000000001137
 31
-0.0000000000000352
210
0.0
220
1.0
230
-0.0000000000000002
  0
LINE
  5
DCBA
  8
0
  6
CONTINUOUS
 62
     1
 10
72.4456109474192544
 20
158.5000000000001137
 30
-0.0000000000000352
 11
72.4456109474192544
 21
158.1400000000001
 31
-0.0000000000000351
210
0.0
220
1.0
230
-0.0000000000000002
  0
LINE
  5
DCBB
  8
0
  6
CONTINUOUS
 62
     1
 10
572.4456109474192544
 20
158.1400000000001
 30
-0.0000000000000351
 11
72.4456109474192544
 21
158.1400000000001
 31
-0.0000000000000351
210
0.0
220
1.0
230
-0.0000000000000002
  0
ARC
  5
DCBC
  8
0
  6
CONTINUOUS
 62
     1
 10
-399.8702482193539254
 20
124.500000000000199
 30
0.0
 40
2.0000000000002149
210
0.0
220
-0.0000000000000002
230
-1.0
 50
213.7175539287364927
 51
265.4239082790443831
  0
ARC
  5
DCBD
  8
0
  6
CONTINUOUS
 62
     1
 10
-245.0209736754844982
 20
124.5
 30
0.0
 40
2.0000000000000022
210
0.0
220
-0.0000000000000002
230
-1.0
 50
274.576091720955219
 51
326.28244607126652
  0
ARC
  5
DCBE
  8
0
  6
CONTINUOUS
 62
     1
 10
-408.8230546028821095
 20
156.1399999999995032
 30
0.0
 40
2.0000000000004898
210
0.0
220
-0.0000000000000002
230
-1.0
 50
69.2281449546695029
 51
89.9999999999967457
  0
ARC
  5
DCBF
  8
0
  6
CONTINUOUS
 62
     1
 10
-236.0681672919563994
 20
156.1399999999991905
 30
0.0
 40
2.0000000000007669
210
0.0
220
-0.0000000000000002
230
-1.0
 50
90.0000000000040643
 51
110.7718550453282944
  0
LINE
  5
DCC0
  8
0
  6
CONTINUOUS
 62
     1
 10
242.4456109474191976
 20
121.2526462977116068
 30
-0.0000000000000269
 11
402.4456109474191976
 21
121.2526462977116068
 31
-0.0000000000000269
210
0.0
220
1.0
230
-0.0000000000000002
  0
LINE
  5
DCC1
  8
0
  6
CONTINUOUS
 62
     1
 10
244.8312895602412027
 20
122.0
 30
-0.0000000000000271
 11
400.0599323345973062
 21
122.0
 31
-0.0000000000000271
210
0.0
220
1.0
230
-0.0000000000000002
  0
LINE
  5
DCC2
  8
0
  6
CONTINUOUS
 62
     1
 10
387.852002653345096
 20
0.0
 30
0.0
 11
257.0392192414934129
 21
0.0
 31
0.0
210
0.0
220
1.0
230
-0.0000000000000002
  0
ARC
  5
DCC3
  8
0
  6
CONTINUOUS
 62
     1
 10
-246.4456109474189134
 20
76.705179215736095
 30
0.0
 40
9.5000000000003961
210
0.0
220
-0.0000000000000002
230
-1.0
 50
162.6059628876845125
 51
179.999999999999801
  0
ARC
  5
DCC4
  8
0
  6
CONTINUOUS
 62
     1
 10
-398.4456109474220966
 20
76.7051792157357113
 30
0.0
 40
9.500000000002899
210
0.0
220
-0.0000000000000002
230
-1.0
 50
0.0000000000024936
 51
17.3940371123131889
  0
LINE
  5
DCC5
  8
0
  6
CONTINUOUS
 62
     1
 10
255.5111896761424077
 20
79.5451232844322931
 30
-0.0000000000000177
 11
242.4456109474191976
 21
121.2526462977116068
 31
-0.0000000000000269
210
0.0
220
1.0
230
-0.0000000000000002
  0
LINE
  5
DCC6
  8
0
  6
CONTINUOUS
 62
     1
 10
389.3800322186961012
 20
79.5451232844322931
 30
-0.0000000000000177
 11
402.4456109474191976
 21
121.2526462977116068
 31
-0.0000000000000269
210
0.0
220
1.0
230
-0.0000000000000002
  0
LINE
  5
DCC7
  8
0
  6
CONTINUOUS
 62
     1
 10
255.9456109474193113
 20
12.5436609429136805
 30
-0.0000000000000028
 11
255.9456109474193113
 21
76.7051792157361234
 31
-0.000000000000017
210
0.0
220
1.0
230
-0.0000000000000002
  0
LINE
  5
DCC8
  8
0
  6
CONTINUOUS
 62
     1
 10
388.9456109474193113
 20
12.5436609429136805
 30
-0.0000000000000028
 11
388.9456109474193113
 21
76.7051792157361234
 31
-0.000000000000017
210
0.0
220
1.0
230
-0.0000000000000002
  0
LINE
  5
DCC9
  8
0
  6
CONTINUOUS
 62
     1
 10
400.0599323345973062
 20
122.0
 30
-0.0000000000000271
 11
402.4456109474191976
 21
121.2526462977116068
 31
-0.0000000000000269
210
0.0
220
1.0
230
-0.0000000000000002
  0
LINE
  5
DCCA
  8
0
  6
CONTINUOUS
 62
     1
 10
244.831289560241089
 20
122.0
 30
-0.0000000000000271
 11
242.4456109474191976
 21
121.2526462977116068
 31
-0.0000000000000269
210
0.0
220
1.0
230
-0.0000000000000002
  0
ARC
  5
DCCB
  8
0
  6
CONTINUOUS
 62
     1
 10
-387.9456109474149912
 20
12.5436609429137498
 30
0.0
 40
1.000000000004206
210
0.0
220
-0.0000000000000002
230
-1.0
 50
180.0000000000040927
 51
184.9999999999824922
  0
ARC
  5
DCCC
  8
0
  6
CONTINUOUS
 62
     1
 10
-256.9456109474235177
 20
12.5436609429137498
 30
0.0
 40
1.000000000004206
210
0.0
220
-0.0000000000000002
230
-1.0
 50
355.0000000000173941
 51
359.9999999999959073
  0
LINE
  5
DCCD
  8
0
  6
CONTINUOUS
 62
     1
 10
257.0392192414935266
 20
0.0000000000000098
 30
0.0
 11
255.9494162493274985
 21
12.4565052001660295
 31
-0.0000000000000028
210
0.0
220
1.0
230
-0.0000000000000002
  0
LINE
  5
DCCE
  8
0
  6
CONTINUOUS
 62
     1
 10
387.8520026533449823
 20
0.0000000000000098
 30
0.0
 11
388.9418056455110104
 21
12.4565052001660295
 31
-0.0000000000000028
210
0.0
220
1.0
230
-0.0000000000000002
  0
LINE
  5
DCCF
  8
0
  6
VERDECKT
 62
     3
 10
246.4456109474191976
 20
123.5456486036207053
 30
-0.0000000000000274
 11
398.4456109474193113
 21
123.5456486036207053
 31
-0.0000000000000274
210
0.0
220
1.0
230
-0.0000000000000002
  0
ARC
  5
DCD0
  8
0
  6
VERDECKT
 62
     3
 10
-236.4456109474164975
 20
142.2912783411852047
 30
0.0
 40
0.9999999999972715
210
0.0
220
-0.0000000000000002
230
-1.0
 50
359.9999999999869829
 51
10.0000000000145306
  0
ARC
  5
DCD1
  8
0
  6
VERDECKT
 62
     3
 10
-408.4456109474219261
 20
142.2912783411852047
 30
0.0
 40
0.9999999999973274
210
0.0
220
-0.0000000000000002
230
-1.0
 50
169.9999999999859881
 51
180.0000000000129887
  0
LINE
  5
DCD2
  8
0
  6
VERDECKT
 62
     3
 10
409.4456109474191976
 20
142.2912783411850057
 30
-0.0000000000000316
 11
409.4456109474191976
 21
139.179872981077807
 31
-0.0000000000000309
210
0.0
220
1.0
230
-0.0000000000000002
  0
LINE
  5
DCD3
  8
0
  6
VERDECKT
 62
     3
 10
235.4456109474193113
 20
142.2912783411850057
 30
-0.0000000000000316
 11
235.4456109474193113
 21
139.1798729810776933
 31
-0.0000000000000309
210
0.0
220
1.0
230
-0.0000000000000002
  0
LINE
  5
DCD4
  8
0
  6
VERDECKT
 62
     3
 10
407.8276049463103732
 20
151.5549350228318986
 30
-0.0000000000000337
 11
409.4304187004314031
 21
142.4649265188519109
 31
-0.0000000000000316
210
0.0
220
1.0
230
-0.0000000000000002
  0
LINE
  5
DCD5
  8
0
  6
VERDECKT
 62
     3
 10
237.0636169485281073
 20
151.5549350228318986
 30
-0.0000000000000337
 11
235.4608031944071058
 21
142.4649265188519109
 31
-0.0000000000000316
210
0.0
220
1.0
230
-0.0000000000000002
  0
ARC
  5
DCD6
  8
0
  6
VERDECKT
 62
     3
 10
-236.4456109474191123
 20
139.179872981077807
 30
0.0
 40
0.9999999999998747
210
0.0
220
-0.0000000000000002
230
-1.0
 50
329.9999999999939746
 51
359.9999999999984084
  0
ARC
  5
DCD7
  8
0
  6
VERDECKT
 62
     3
 10
-408.4456109474201071
 20
139.1798729810776081
 30
0.0
 40
0.9999999999990905
210
0.0
220
-0.0000000000000002
230
-1.0
 50
179.9999999999886029
 51
210.000000000016712
  0
LINE
  5
DCD8
  8
0
  6
VERDECKT
 62
     3
 10
242.6860418760616938
 20
126.3711295515447972
 30
-0.0000000000000281
 11
235.5795855436348063
 21
138.6798729810776933
 31
-0.0000000000000308
210
0.0
220
1.0
230
-0.0000000000000002
  0
LINE
  5
DCD9
  8
0
  6
VERDECKT
 62
     3
 10
402.205180018776673
 20
126.3711295515447972
 30
-0.0000000000000281
 11
409.3116363512036173
 21
138.6798729810776933
 31
-0.0000000000000308
210
0.0
220
1.0
230
-0.0000000000000002
  0
ARC
  5
DCDA
  8
0
  6
VERDECKT
 62
     3
 10
-231.647174306960892
 20
152.5099999999999909
 30
0.0
 40
5.5
210
0.0
220
-0.0000000000000002
230
-1.0
 50
90.0
 51
190.0
  0
ARC
  5
DCDB
  8
0
  6
VERDECKT
 62
     3
 10
-413.2440475878775032
 20
152.5099999999999909
 30
0.0
 40
5.4999999999999352
210
0.0
220
-0.0000000000000002
230
-1.0
 50
349.9999999999996021
 51
90.0000000000005969
  0
ARC
  5
DCDC
  8
0
  6
VERDECKT
 62
     3
 10
-247.8821942987682974
 20
129.3711295515448114
 30
0.0
 40
7.4999999999999636
210
0.0
220
-0.0000000000000002
230
-1.0
 50
293.7515558867764867
 51
307.1069819054437744
  0
ARC
  5
DCDD
  8
0
  6
VERDECKT
 62
     3
 10
-397.0090275960699842
 20
129.3711295515450956
 30
0.0
 40
7.5000000000003606
210
0.0
220
-0.0000000000000002
230
-1.0
 50
232.8930180945563109
 51
246.2484441132232007
  0
LINE
  5
DCDE
  8
0
  6
VERDECKT
 62
     3
 10
398.4456109474193113
 20
123.5456486036207053
 30
-0.0000000000000274
 11
398.4456109474193113
 21
122.0099999999999056
 31
-0.0000000000000271
210
0.0
220
1.0
230
-0.0000000000000002
  0
LINE
  5
DCDF
  8
0
  6
VERDECKT
 62
     3
 10
246.4456109474193113
 20
123.5456486036207053
 30
-0.0000000000000274
 11
246.4456109474193113
 21
122.0099999999999056
 31
-0.0000000000000271
210
0.0
220
1.0
230
-0.0000000000000002
  0
ARC
  5
DCE0
  8
0
  6
VERDECKT
 62
     3
 10
-247.882194298768411
 20
129.3711295515448967
 30
0.0
 40
6.0000000000001092
210
0.0
220
-0.0000000000000002
230
-1.0
 50
283.8529339154624154
 51
329.9999999999997158
  0
ARC
  5
DCE1
  8
0
  6
VERDECKT
 62
     3
 10
-397.0090275960702115
 20
129.3711295515446977
 30
0.0
 40
5.9999999999999218
210
0.0
220
-0.0000000000000002
230
-1.0
 50
209.999999999999801
 51
256.147066084538892
  0
LINE
  5
DCE2
  8
0
  6
VERDECKT
 62
     3
 10
252.1456109474191862
 20
146.0000000000001137
 30
-0.0000000000000324
 11
392.7456109474193227
 21
145.9999999999996874
 31
-0.0000000000000324
210
0.0
220
1.0
230
-0.0000000000000002
  0
LINE
  5
DCE3
  8
0
  6
VERDECKT
 62
     3
 10
247.4532506225058057
 20
156.000000000000199
 30
-0.0000000000000346
 11
397.4379712723329021
 21
155.999999999999801
 31
-0.0000000000000346
210
0.0
220
1.0
230
-0.0000000000000002
  0
LINE
  5
DCE4
  8
0
  6
VERDECKT
 62
     3
 10
238.7456109474190953
 20
137.6047404107119121
 30
-0.0000000000000306
 11
406.1456109474192999
 21
137.6047404107114005
 31
-0.0000000000000306
210
0.0
220
1.0
230
-0.0000000000000002
  0
LINE
  5
DCE5
  8
0
  6
VERDECKT
 62
     3
 10
245.4456109474193113
 20
126.000000000000199
 30
-0.000000000000028
 11
399.4456109474193113
 21
125.999999999999801
 31
-0.000000000000028
210
0.0
220
1.0
230
-0.0000000000000002
  0
LINE
  5
DCE6
  8
0
  6
VERDECKT
 62
     3
 10
252.4456109474191123
 20
127.000000000000199
 30
-0.0000000000000282
 11
392.445610947419425
 21
126.999999999999801
 31
-0.0000000000000282
210
0.0
220
1.0
230
-0.0000000000000002
  0
LINE
  5
DCE7
  8
0
  6
VERDECKT
 62
     3
 10
259.1238102097739215
 20
129.000000000000199
 30
-0.0000000000000286
 11
385.7674116850645873
 21
128.999999999999801
 31
-0.0000000000000286
210
0.0
220
1.0
230
-0.0000000000000002
  0
LINE
  5
DCE8
  8
0
  6
VERDECKT
 62
     3
 10
247.4456109474193966
 20
131.000000000000199
 30
-0.0000000000000291
 11
397.4456109474190839
 21
130.999999999999801
 31
-0.0000000000000291
210
0.0
220
1.0
230
-0.0000000000000002
  0
LINE
  5
DCE9
  8
0
  6
VERDECKT
 62
     3
 10
247.4456109474193113
 20
154.000000000000199
 30
-0.0000000000000342
 11
397.4456109474193113
 21
153.999999999999801
 31
-0.0000000000000342
210
0.0
220
1.0
230
-0.0000000000000002
  0
LINE
  5
DCEA
  8
0
  6
VERDECKT
 62
     3
 10
257.1541947037493969
 20
130.6527036446663033
 30
-0.000000000000029
 11
254.8123225799627107
 21
143.9341204441674904
 31
-0.000000000000032
210
0.0
220
1.0
230
-0.0000000000000002
  0
LINE
  5
DCEB
  8
0
  6
VERDECKT
 62
     3
 10
387.7370271910889983
 20
130.6527036446659054
 30
-0.000000000000029
 11
390.0788993148759118
 21
143.9341204441670925
 31
-0.000000000000032
210
0.0
220
1.0
230
-0.0000000000000002
  0
ARC
  5
DCEC
  8
0
  6
VERDECKT
 62
     3
 10
-252.3503031974321118
 20
143.500000000000199
 30
0.0
 40
2.500000000000028
210
0.0
220
-0.0000000000000002
230
-1.0
 50
90.0000000000006253
 51
169.9999999999994884
  0
ARC
  5
DCED
  8
0
  6
VERDECKT
 62
     3
 10
-392.5409186974064255
 20
143.4999999999996874
 30
0.0
 40
2.5000000000000582
210
0.0
220
-0.0000000000000002
230
-1.0
 50
10.0000000000009504
 51
90.0000000000000284
  0
LINE
  5
DCEE
  8
0
  6
VERDECKT
 62
     3
 10
252.145610947419101
 20
146.0000000000001137
 30
-0.0000000000000324
 11
251.4304513603084956
 21
154.1743114854955081
 31
-0.0000000000000342
210
0.0
220
1.0
230
-0.0000000000000002
  0
LINE
  5
DCEF
  8
0
  6
VERDECKT
 62
     3
 10
392.7456109474196069
 20
145.9999999999996874
 30
-0.0000000000000324
 11
393.4607705345301838
 21
154.1743114854949965
 31
-0.0000000000000342
210
0.0
220
1.0
230
-0.0000000000000002
  0
ARC
  5
DCF0
  8
0
  6
VERDECKT
 62
     3
 10
-249.4380619641250121
 20
154.0000000000001137
 30
0.0
 40
2.0000000000001128
210
0.0
220
-0.0000000000000002
230
-1.0
 50
90.00000000000081
 51
174.9999999999971863
  0
ARC
  5
DCF1
  8
0
  6
VERDECKT
 62
     3
 10
-395.4531599307135821
 20
153.999999999999801
 30
0.0
 40
2.0000000000000169
210
0.0
220
-0.0000000000000002
230
-1.0
 50
4.9999999999989386
 51
90.0000000000000284
  0
ARC
  5
DCF2
  8
0
  6
VERDECKT
 62
     3
 10
-247.4532506225060047
 20
154.0
 30
0.0
 40
2.0000000000000888
210
0.0
220
-0.0000000000000002
230
-1.0
 50
5.0000000000036593
 51
89.9999999999959357
  0
ARC
  5
DCF3
  8
0
  6
VERDECKT
 62
     3
 10
-397.4379712723326747
 20
153.9999999999994884
 30
0.0
 40
2.0000000000002269
210
0.0
220
-0.0000000000000002
230
-1.0
 50
90.0000000000048743
 51
174.9999999999949978
  0
LINE
  5
DCF4
  8
0
  6
VERDECKT
 62
     3
 10
399.4303606685163004
 20
154.1743114854949965
 30
-0.0000000000000342
 11
400.350384149562899
 21
143.6583949773616098
 31
-0.0000000000000319
210
0.0
220
1.0
230
-0.0000000000000002
  0
LINE
  5
DCF5
  8
0
  6
VERDECKT
 62
     3
 10
245.4608612263222938
 20
154.1743114854955081
 30
-0.0000000000000342
 11
244.5408377452754962
 21
143.6583949773620077
 31
-0.0000000000000319
210
0.0
220
1.0
230
-0.0000000000000002
  0
ARC
  5
DCF6
  8
0
  6
VERDECKT
 62
     3
 10
-242.5484483490920127
 20
143.8327064628572884
 30
0.0
 40
2.000000000000048
210
0.0
220
-0.0000000000000002
230
-1.0
 50
184.9999999999996021
 51
269.9999999999992042
  0
ARC
  5
DCF7
  8
0
  6
VERDECKT
 62
     3
 10
-242.5484483490920979
 20
143.8327064628578
 30
0.0
 40
2.00000000000054
210
0.0
220
-0.0000000000000002
230
-1.0
 50
270.0000000000032969
 51
284.9999999999986926
  0
ARC
  5
DCF8
  8
0
  6
VERDECKT
 62
     3
 10
-402.3427735457465246
 20
143.8327064628560095
 30
0.0
 40
1.9999999999991671
210
0.0
220
-0.0000000000000002
230
-1.0
 50
254.9999999999940883
 51
270.0000000000017053
  0
ARC
  5
DCF9
  8
0
  6
VERDECKT
 62
     3
 10
-402.3427735457465246
 20
143.8327064628568905
 30
0.0
 40
2.000000000000028
210
0.0
220
-0.0000000000000002
230
-1.0
 50
270.0
 51
355.00000000000108
  0
LINE
  5
DCFA
  8
0
  6
VERDECKT
 62
     3
 10
242.5484483490920127
 20
141.8327064628572884
 30
-0.0000000000000315
 11
402.3427735457465246
 21
141.8327064628568053
 31
-0.0000000000000315
210
0.0
220
1.0
230
-0.0000000000000002
  0
LINE
  5
DCFB
  8
0
  6
VERDECKT
 62
     3
 10
242.0308102588869872
 20
141.9008548102792133
 30
-0.0000000000000315
 11
237.0926585601754084
 21
143.2240285700513027
 31
-0.0000000000000318
210
0.0
220
1.0
230
-0.0000000000000002
  0
LINE
  5
DCFC
  8
0
  6
VERDECKT
 62
     3
 10
402.860411635951607
 20
141.900854810278787
 30
-0.0000000000000315
 11
407.7985633346630721
 21
143.2240285700509048
 31
-0.0000000000000318
210
0.0
220
1.0
230
-0.0000000000000002
  0
ARC
  5
DCFD
  8
0
  6
VERDECKT
 62
     3
 10
-236.4456109474191123
 20
140.8092140043287088
 30
0.0
 40
2.4999999999999991
210
0.0
220
-0.0000000000000002
230
-1.0
 50
284.9999999999992042
 51
90.0
  0
ARC
  5
DCFE
  8
0
  6
VERDECKT
 62
     3
 10
-236.4456109474189986
 20
140.8092140043279983
 30
0.0
 40
2.5000000000006821
210
0.0
220
-0.0000000000000002
230
-1.0
 50
90.0000000000032543
 51
104.9999999999997016
  0
ARC
  5
DCFF
  8
0
  6
VERDECKT
 62
     3
 10
-408.4456109474195955
 20
140.8092140043264067
 30
0.0
 40
2.5000000000017391
210
0.0
220
-0.0000000000000002
230
-1.0
 50
75.0000000000054428
 51
89.9999999999934914
  0
ARC
  5
DD00
  8
0
  6
VERDECKT
 62
     3
 10
-408.445610947419425
 20
140.8092140043281972
 30
0.0
 40
2.5
210
0.0
220
-0.0000000000000002
230
-1.0
 50
89.9999999999987068
 51
255.0000000000013074
  0
LINE
  5
DD01
  8
0
  6
VERDECKT
 62
     3
 10
408.4456109474193113
 20
143.3092140043281972
 30
-0.0000000000000318
 11
236.4456109474191123
 21
143.3092140043287088
 31
-0.0000000000000318
210
0.0
220
1.0
230
-0.0000000000000002
  0
LINE
  5
DD02
  8
0
  6
VERDECKT
 62
     3
 10
238.7456109474190953
 20
137.6047404107119121
 30
-0.0000000000000306
 11
235.7985633346629015
 21
138.3943994386060012
 31
-0.0000000000000307
210
0.0
220
1.0
230
-0.0000000000000002
  0
LINE
  5
DD03
  8
0
  6
VERDECKT
 62
     3
 10
406.1456109474192999
 20
137.6047404107114005
 30
-0.0000000000000306
 11
409.0926585601756074
 21
138.3943994386054896
 31
-0.0000000000000307
210
0.0
220
1.0
230
-0.0000000000000002
  0
LINE
  5
DD04
  8
0
  6
VERDECKT
 62
     3
 10
245.4456109474191976
 20
126.000000000000199
 30
-0.000000000000028
 11
238.74561094741901
 21
137.6047404107119121
 31
-0.0000000000000306
210
0.0
220
1.0
230
-0.0000000000000002
  0
LINE
  5
DD05
  8
0
  6
VERDECKT
 62
     3
 10
399.4456109474193113
 20
125.999999999999801
 30
-0.000000000000028
 11
406.1456109474194136
 21
137.6047404107114005
 31
-0.0000000000000306
210
0.0
220
1.0
230
-0.0000000000000002
  0
LINE
  5
DD06
  8
0
  6
VERDECKT
 62
     3
 10
392.445610947419425
 20
126.999999999999801
 30
-0.0000000000000282
 11
394.1776617549883213
 21
125.999999999999801
 31
-0.000000000000028
210
0.0
220
1.0
230
-0.0000000000000002
  0
LINE
  5
DD07
  8
0
  6
VERDECKT
 62
     3
 10
252.4456109474191976
 20
127.000000000000199
 30
-0.0000000000000282
 11
250.7135601398501876
 21
126.000000000000199
 31
-0.000000000000028
210
0.0
220
1.0
230
-0.0000000000000002
  0
LINE
  5
DD08
  8
0
  6
VERDECKT
 62
     3
 10
384.9456109474193113
 20
128.999999999999801
 30
-0.0000000000000286
 11
384.9456109474193113
 21
126.999999999999801
 31
-0.0000000000000282
210
0.0
220
1.0
230
-0.0000000000000002
  0
LINE
  5
DD09
  8
0
  6
VERDECKT
 62
     3
 10
259.9456109474193113
 20
129.000000000000199
 30
-0.0000000000000286
 11
259.9456109474193113
 21
127.000000000000199
 31
-0.0000000000000282
210
0.0
220
1.0
230
-0.0000000000000002
  0
ARC
  5
DD0A
  8
0
  6
VERDECKT
 62
     3
 10
-259.1238102097738079
 20
131.0000000000001137
 30
0.0
 40
1.9999999999999429
210
0.0
220
-0.0000000000000002
230
-1.0
 50
270.0
 51
350.0000000000026716
  0
ARC
  5
DD0B
  8
0
  6
VERDECKT
 62
     3
 10
-385.7674116850645873
 20
130.999999999999801
 30
0.0
 40
1.999999999999996
210
0.0
220
-0.0000000000000002
230
-1.0
 50
190.0000000000001137
 51
270.0
  0
LINE
  5
DD0C
  8
0
  6
VERDECKT
 62
     3
 10
395.4456109474193113
 20
153.999999999999801
 30
-0.0000000000000342
 11
395.4456109474191976
 21
130.999999999999801
 31
-0.0000000000000291
210
0.0
220
1.0
230
-0.0000000000000002
  0
LINE
  5
DD0D
  8
0
  6
VERDECKT
 62
     3
 10
249.4456109474193113
 20
154.000000000000199
 30
-0.0000000000000342
 11
249.4456109474191976
 21
131.000000000000199
 31
-0.0000000000000291
210
0.0
220
1.0
230
-0.0000000000000002
  0
LINE
  5
DD0E
  8
0
  6
VERDECKT
 62
     3
 10
397.4456109474193113
 20
153.999999999999801
 30
-0.0000000000000342
 11
397.4456109474191976
 21
130.999999999999801
 31
-0.0000000000000291
210
0.0
220
1.0
230
-0.0000000000000002
  0
LINE
  5
DD0F
  8
0
  6
VERDECKT
 62
     3
 10
247.4456109474193113
 20
154.000000000000199
 30
-0.0000000000000342
 11
247.4456109474191976
 21
131.000000000000199
 31
-0.0000000000000291
210
0.0
220
1.0
230
-0.0000000000000002
  0
LINE
  5
DD10
  8
0
  6
VERDECKT
 62
     3
 10
399.8702482193539822
 20
122.5
 30
-0.0000000000000272
 11
245.020973675484413
 21
122.5
 31
-0.0000000000000272
210
0.0
220
1.0
230
-0.0000000000000002
  0
LINE
  5
DD11
  8
0
  6
VERDECKT
 62
     3
 10
399.8702482193255037
 20
122.8599999999999994
 30
-0.0000000000000273
 11
245.0209736755130052
 21
122.8599999999999994
 31
-0.0000000000000273
210
0.0
220
1.0
230
-0.0000000000000002
  0
LINE
  5
DD12
  8
0
  6
VERDECKT
 62
     3
 10
399.8702482193255037
 20
122.8599999999999994
 30
-0.0000000000000273
 11
399.8702482193255037
 21
122.5
 31
-0.0000000000000272
210
0.0
220
1.0
230
-0.0000000000000002
  0
LINE
  5
DD13
  8
0
  6
VERDECKT
 62
     3
 10
245.0209736755130052
 20
122.8599999999999994
 30
-0.0000000000000273
 11
245.0209736755130052
 21
122.5
 31
-0.0000000000000272
210
0.0
220
1.0
230
-0.0000000000000002
  0
ARC
  5
DD14
  8
0
  6
VERDECKT
 62
     3
 10
-399.8702482193559717
 20
124.4999999999987068
 30
0.0
 40
1.999999999997629
210
0.0
220
-0.0000000000000002
230
-1.0
 50
204.9481233890130056
 51
213.7175539287339916
  0
ARC
  5
DD15
  8
0
  6
VERDECKT
 62
     3
 10
-399.8702482193539254
 20
124.5000000000024016
 30
0.0
 40
2.0000000000024549
210
0.0
220
-0.0000000000000002
230
-1.0
 50
265.4239082790496127
 51
269.9999999999968168
  0
ARC
  5
DD16
  8
0
  6
VERDECKT
 62
     3
 10
-245.0209736754846119
 20
124.5000000000027995
 30
0.0
 40
2.0000000000028129
210
0.0
220
-0.0000000000000002
230
-1.0
 50
270.0
 51
274.5760917209472041
  0
ARC
  5
DD17
  8
0
  6
VERDECKT
 62
     3
 10
-245.0209736754835887
 20
124.4999999999996021
 30
0.0
 40
1.9999999999990641
210
0.0
220
-0.0000000000000002
230
-1.0
 50
326.2824460712602104
 51
335.0518766109760236
  0
LINE
  5
DD18
  8
0
  6
VERDECKT
 62
     3
 10
243.2075935524090937
 20
123.6564049969119026
 30
-0.0000000000000275
 11
235.6152385246159042
 21
139.9768261045898896
 31
-0.0000000000000311
210
0.0
220
1.0
230
-0.0000000000000002
  0
LINE
  5
DD19
  8
0
  6
VERDECKT
 62
     3
 10
401.6836283424294152
 20
123.6564049969119026
 30
-0.0000000000000275
 11
409.2759833702226047
 21
139.9768261045898896
 31
-0.0000000000000311
210
0.0
220
1.0
230
-0.0000000000000002
  0
ARC
  5
DD1A
  8
0
  6
VERDECKT
 62
     3
 10
-407.4626032471470012
 20
140.8204211076781007
 30
0.0
 40
2.0000000000002611
210
0.0
220
-0.0000000000000002
230
-1.0
 50
170.0000000000036096
 51
204.9481233890211911
  0
ARC
  5
DD1B
  8
0
  6
VERDECKT
 62
     3
 10
-237.4286186476911951
 20
140.820421107677987
 30
0.0
 40
2.000000000000004
210
0.0
220
-0.0000000000000002
230
-1.0
 50
335.0518766109777857
 51
10.0000000000001794
  0
LINE
  5
DD1C
  8
0
  6
VERDECKT
 62
     3
 10
406.8534390968575849
 20
155.7927036446660907
 30
-0.0000000000000346
 11
409.4322187531716963
 21
141.1677174630119111
 31
-0.0000000000000313
210
0.0
220
1.0
230
-0.0000000000000002
  0
LINE
  5
DD1D
  8
0
  6
VERDECKT
 62
     3
 10
238.0377827979810093
 20
155.7927036446660907
 30
-0.0000000000000346
 11
235.4590031416668126
 21
141.1677174630119111
 31
-0.0000000000000313
210
0.0
220
1.0
230
-0.0000000000000002
  0
ARC
  5
DD1E
  8
0
  6
VERDECKT
 62
     3
 10
-408.8230546028818253
 20
156.1399999999999864
 30
0.0
 40
1.999999999999893
210
0.0
220
-0.0000000000000002
230
-1.0
 50
349.9999999999976126
 51
69.228144954670114
  0
ARC
  5
DD1F
  8
0
  6
VERDECKT
 62
     3
 10
-236.0681672919565131
 20
156.1399999999999864
 30
0.0
 40
2.0000000000000342
210
0.0
220
-0.0000000000000002
230
-1.0
 50
110.7718550453327992
 51
189.9999999999992042
  0
ARC
  5
DD20
  8
0
  6
VERDECKT
 62
     3
 10
-408.8230546028818821
 20
156.1399999999999864
 30
0.0
 40
2.359999999999955
210
0.0
220
-0.0000000000000002
230
-1.0
 50
349.9999999920527785
 51
90.0000000011592363
  0
ARC
  5
DD21
  8
0
  6
VERDECKT
 62
     3
 10
-236.0681672919565131
 20
156.1399999999999864
 30
0.0
 40
2.3600000000000132
210
0.0
220
-0.0000000000000002
230
-1.0
 50
89.9999999988428385
 51
190.0000000079467952
  0
LINE
  5
DD22
  8
0
  6
VERDECKT
 62
     3
 10
406.4989083058241022
 20
155.7301903003827022
 30
-0.0000000000000346
 11
409.0776879621113835
 21
141.1052041187940063
 31
-0.0000000000000313
210
0.0
220
1.0
230
-0.0000000000000002
  0
LINE
  5
DD23
  8
0
  6
VERDECKT
 62
     3
 10
238.392313589014293
 20
155.7301903003827022
 30
-0.0000000000000346
 11
235.813533932727097
 21
141.1052041187940063
 31
-0.0000000000000313
210
0.0
220
1.0
230
-0.0000000000000002
  0
ARC
  5
DD24
  8
0
  6
VERDECKT
 62
     3
 10
-407.4626032471472854
 20
140.820421107677987
 30
0.0
 40
1.6399999999999619
210
0.0
220
-0.0000000000000002
230
-1.0
 50
170.0000000090143999
 51
204.9481234048232068
  0
ARC
  5
DD25
  8
0
  6
VERDECKT
 62
     3
 10
-237.4286186476911951
 20
140.820421107677987
 30
0.0
 40
1.639999999999987
210
0.0
220
-0.0000000000000002
230
-1.0
 50
335.0518765951770774
 51
9.9999999909854651
  0
LINE
  5
DD26
  8
0
  6
VERDECKT
 62
     3
 10
243.5340019747162046
 20
123.8082520972238996
 30
-0.0000000000000275
 11
235.941646946979489
 21
140.1286732047447003
 31
-0.0000000000000311
210
0.0
220
1.0
230
-0.0000000000000002
  0
LINE
  5
DD27
  8
0
  6
VERDECKT
 62
     3
 10
401.3572199201223043
 20
123.8082520972238996
 30
-0.0000000000000275
 11
408.9495749478588777
 21
140.1286732047447003
 31
-0.0000000000000311
210
0.0
220
1.0
230
-0.0000000000000002
  0
ARC
  5
DD28
  8
0
  6
VERDECKT
 62
     3
 10
-399.8702482193539822
 20
124.5
 30
0.0
 40
1.6400000000000881
210
0.0
220
-0.0000000000000002
230
-1.0
 50
204.9481233990086935
 51
270.0000000009948735
  0
ARC
  5
DD29
  8
0
  6
VERDECKT
 62
     3
 10
-245.020973675484413
 20
124.4999999999999005
 30
0.0
 40
1.639999999999957
210
0.0
220
-0.0000000000000002
230
-1.0
 50
269.9999999990021138
 51
335.0518766009927276
  0
LINE
  5
DD2A
  8
0
  6
VERDECKT
 62
     3
 10
247.4456109474193966
 20
131.000000000000199
 30
-0.0000000000000291
 11
397.4456109474190839
 21
130.999999999999801
 31
-0.0000000000000291
210
0.0
220
1.0
230
-0.0000000000000002
  0
LINE
  5
DD2B
  8
0
  6
VERDECKT
 62
     3
 10
247.4456109474193113
 20
154.0000000000001137
 30
-0.0000000000000342
 11
397.4456109474193113
 21
153.999999999999801
 31
-0.0000000000000342
210
0.0
220
1.0
230
-0.0000000000000002
  0
LINE
  5
DD2C
  8
0
  6
VERDECKT
 62
     3
 10
395.4456109474193113
 20
153.999999999999801
 30
-0.0000000000000342
 11
395.4456109474191976
 21
130.999999999999801
 31
-0.0000000000000291
210
0.0
220
1.0
230
-0.0000000000000002
  0
LINE
  5
DD2D
  8
0
  6
VERDECKT
 62
     3
 10
249.4456109474193113
 20
154.000000000000199
 30
-0.0000000000000342
 11
249.4456109474191976
 21
131.000000000000199
 31
-0.0000000000000291
210
0.0
220
1.0
230
-0.0000000000000002
  0
LINE
  5
DD2E
  8
0
  6
VERDECKT
 62
     3
 10
397.4456109474193113
 20
153.999999999999801
 30
-0.0000000000000342
 11
397.4456109474191976
 21
130.999999999999801
 31
-0.0000000000000291
210
0.0
220
1.0
230
-0.0000000000000002
  0
LINE
  5
DD2F
  8
0
  6
VERDECKT
 62
     3
 10
247.4456109474193113
 20
154.000000000000199
 30
-0.0000000000000342
 11
247.4456109474191976
 21
131.000000000000199
 31
-0.0000000000000291
210
0.0
220
1.0
230
-0.0000000000000002
  0
LINE
  5
DD30
  8
0
  6
VERDECKT
 62
     3
 10
385.3615159081157913
 20
0.2178893568691365
 30
0.0
 11
259.5297059867227745
 21
0.2178893568691365
 31
0.0
210
0.0
220
1.0
230
-0.0000000000000002
  0
ARC
  5
DD31
  8
0
  6
VERDECKT
 62
     3
 10
-398.4456109474214145
 20
76.7051792157359387
 30
0.0
 40
12.0000000000020997
210
0.0
220
-0.0000000000000002
230
-1.0
 50
0.0000000000011577
 51
17.3940371123141411
  0
ARC
  5
DD32
  8
0
  6
VERDECKT
 62
     3
 10
-246.4456109474172081
 20
76.7051792157359387
 30
0.0
 40
12.0000000000020997
210
0.0
220
-0.0000000000000002
230
-1.0
 50
162.6059628876857914
 51
179.9999999999988063
  0
LINE
  5
DD33
  8
0
  6
VERDECKT
 62
     3
 10
257.8968682889642992
 20
80.2924769867207857
 30
-0.0000000000000178
 11
244.831289560241089
 21
122.0
 31
-0.0000000000000271
210
0.0
220
1.0
230
-0.0000000000000002
  0
LINE
  5
DD34
  8
0
  6
VERDECKT
 62
     3
 10
386.9943536058742097
 20
80.2924769867207857
 30
-0.0000000000000178
 11
400.0599323345973062
 21
122.0
 31
-0.0000000000000271
210
0.0
220
1.0
230
-0.0000000000000002
  0
LINE
  5
DD35
  8
0
  6
VERDECKT
 62
     3
 10
258.4456109474193113
 20
12.65281330018564
 30
-0.0000000000000028
 11
258.4456109474193113
 21
76.7051792157361803
 31
-0.000000000000017
210
0.0
220
1.0
230
-0.0000000000000002
  0
LINE
  5
DD36
  8
0
  6
VERDECKT
 62
     3
 10
386.4456109474191976
 20
12.65281330018564
 30
-0.0000000000000028
 11
386.4456109474191976
 21
76.7051792157361803
 31
-0.000000000000017
210
0.0
220
1.0
230
-0.0000000000000002
  0
ARC
  5
DD37
  8
0
  6
VERDECKT
 62
     3
 10
-385.4456109474151049
 20
12.6528133001857199
 30
0.0
 40
1.000000000004206
210
0.0
220
-0.0000000000000002
230
-1.0
 50
180.0000000000040927
 51
184.9999999999824922
  0
ARC
  5
DD38
  8
0
  6
VERDECKT
 62
     3
 10
-259.4456109474235177
 20
12.6528133001857199
 30
0.0
 40
1.000000000004206
210
0.0
220
-0.0000000000000002
230
-1.0
 50
355.0000000000173941
 51
359.9999999999959073
  0
LINE
  5
DD39
  8
0
  6
VERDECKT
 62
     3
 10
259.5297059867227745
 20
0.2178893568691356
 30
0.0
 11
258.4494162493274985
 21
12.5656575574379996
 31
-0.0000000000000028
210
0.0
220
1.0
230
-0.0000000000000002
  0
LINE
  5
DD3A
  8
0
  6
VERDECKT
 62
     3
 10
385.3615159081157913
 20
0.2178893568691356
 30
0.0
 11
386.4418056455110104
 21
12.5656575574379996
 31
-0.0000000000000028
210
0.0
220
1.0
230
-0.0000000000000002
  0
LINE
  5
DD3B
  8
0
  6
VERDECKT
 62
     3
 10
385.3615159081157913
 20
0.2178893568691464
 30
0.0
 11
387.852002653345096
 21
0.0000000000000099
 31
0.0
210
0.0
220
1.0
230
-0.0000000000000002
  0
LINE
  5
DD3C
  8
0
  6
VERDECKT
 62
     3
 10
259.5297059867227745
 20
0.2178893568691464
 30
0.0
 11
257.0392192414934129
 21
0.0000000000000099
 31
0.0
210
0.0
220
1.0
230
-0.0000000000000002
  0
ENDBLK
  5
DD3E
  8
0
  0
BLOCK
  8
0
  2
A$CFA445EBF
 70
     0
 10
0.0
 20
0.0
 30
0.0
  3
A$CFA445EBF
  1

  0
CIRCLE
  5
DD43
  8
0
  6
CONTINUOUS
 62
     1
 10
322.4456109474193113
 20
-496.8213852581490073
 30
0.0000000000000853
 40
70.3000000000001108
  0
CIRCLE
  5
DD44
  8
0
  6
CONTINUOUS
 62
     1
 10
322.4456109474193113
 20
-496.8213852581490073
 30
0.0000000000000853
 40
62.5
  0
LINE
  5
DD45
  8
0
  6
CONTINUOUS
 62
     1
 10
572.4456109474192544
 20
-246.8213852581490926
 30
0.0000000000001421
 11
72.4456109474192544
 21
-246.8213852581490926
 31
0.0000000000000295
  0
LINE
  5
DD46
  8
0
  6
CONTINUOUS
 62
     1
 10
572.4456109474192544
 20
-746.821385258149121
 30
0.0000000000001421
 11
572.4456109474192544
 21
-246.8213852581490926
 31
0.0000000000001421
  0
LINE
  5
DD47
  8
0
  6
CONTINUOUS
 62
     1
 10
72.4456109474192971
 20
-746.821385258149121
 30
0.0000000000000284
 11
572.4456109474192544
 21
-746.821385258149121
 31
0.0000000000001411
  0
LINE
  5
DD48
  8
0
  6
CONTINUOUS
 62
     1
 10
72.4456109474192971
 20
-246.8213852581490926
 30
0.0000000000000284
 11
72.4456109474192971
 21
-746.821385258149121
 31
0.0000000000000284
  0
CIRCLE
  5
DD49
  8
0
  6
CONTINUOUS
 62
     1
 10
322.4456109474193113
 20
-496.821385258149121
 30
0.0000000000000853
 40
84.017443655462742
  0
CIRCLE
  5
DD4A
  8
0
  6
VERDECKT
 62
     3
 10
322.4456109474193113
 20
-496.821385258149121
 30
0.0000000000000853
 40
88.4999999999999716
  0
CIRCLE
  5
DD4B
  8
0
  6
VERDECKT
 62
     3
 10
322.4456109474193113
 20
-496.821385258149121
 30
0.0000000000000853
 40
87.0
  0
CIRCLE
  5
DD4C
  8
0
  6
VERDECKT
 62
     3
 10
322.4456109474193113
 20
-496.821385258149121
 30
0.0000000000000853
 40
165.0
  0
CIRCLE
  5
DD4D
  8
0
  6
VERDECKT
 62
     3
 10
322.4456109474193113
 20
-496.821385258149121
 30
0.0000000000000711
 40
76.0000000000000284
  0
CIRCLE
  5
DD4E
  8
0
  6
VERDECKT
 62
     3
 10
322.4456109474193113
 20
-496.821385258149121
 30
0.0000000000000853
 40
85.2984366404583056
  0
CIRCLE
  5
DD4F
  8
0
  6
VERDECKT
 62
     3
 10
322.4456109474193113
 20
-496.821385258149121
 30
0.0000000000000853
 40
86.7984366404583056
  0
CIRCLE
  5
DD50
  8
0
  6
VERDECKT
 62
     3
 10
322.4456109474193113
 20
-496.8213852581490073
 30
0.0000000000000853
 40
83.7000000000001734
  0
CIRCLE
  5
DD51
  8
0
  6
VERDECKT
 62
     3
 10
322.4456109474193113
 20
-496.8213852581490073
 30
0.0000000000000711
 40
76.9999999999999858
  0
CIRCLE
  5
DD52
  8
0
  6
VERDECKT
 62
     3
 10
322.4456109474193113
 20
-496.8213852581490073
 30
0.0000000000000711
 40
71.7320508075690526
  0
CIRCLE
  5
DD53
  8
0
  6
VERDECKT
 62
     3
 10
322.4456109474193113
 20
-496.8213852581490073
 30
0.0000000000000711
 40
70.0000000000001137
  0
CIRCLE
  5
DD54
  8
0
  6
VERDECKT
 62
     3
 10
322.4456109474193113
 20
-496.8213852581490073
 30
0.0000000000000853
 40
73.0000000000000284
  0
CIRCLE
  5
DD55
  8
0
  6
VERDECKT
 62
     3
 10
322.4456109474193113
 20
-496.8213852581490073
 30
0.0000000000000853
 40
75.0000000000000284
  0
CIRCLE
  5
DD56
  8
0
  6
VERDECKT
 62
     3
 10
322.4456109474193113
 20
-496.821385258149121
 30
0.0000000000000711
 40
77.424637271906235
  0
CIRCLE
  5
DD57
  8
0
  6
VERDECKT
 62
     3
 10
322.4456109474193113
 20
-496.821385258149121
 30
0.0000000000000853
 40
87.0169922997280594
  0
CIRCLE
  5
DD58
  8
0
  6
VERDECKT
 62
     3
 10
322.4456109474193113
 20
-496.821385258149121
 30
0.0000000000000853
 40
84.3774436554627414
  0
CIRCLE
  5
DD59
  8
0
  6
VERDECKT
 62
     3
 10
322.4456109474193113
 20
-496.821385258149121
 30
0.0000000000000853
 40
86.6569922997280742
  0
CIRCLE
  5
DD5A
  8
0
  6
VERDECKT
 62
     3
 10
322.4456109474193113
 20
-496.821385258149121
 30
0.0000000000000853
 40
73.0000000000000284
  0
CIRCLE
  5
DD5B
  8
0
  6
VERDECKT
 62
     3
 10
322.4456109474193113
 20
-496.821385258149121
 30
0.0000000000000853
 40
75.0000000000000284
  0
CIRCLE
  5
DD5C
  8
0
  6
VERDECKT
 62
     3
 10
322.4456109474193113
 20
-496.8213852581490073
 30
0.0000000000000711
 40
66.5
  0
CIRCLE
  5
DD5D
  8
0
  6
VERDECKT
 62
     3
 10
322.4456109474193113
 20
-496.8213852581490073
 30
0.0000000000000711
 40
80.0
  0
CIRCLE
  5
DD5E
  8
0
  6
VERDECKT
 62
     3
 10
322.4456109474193113
 20
-496.8213852581490073
 30
0.0000000000000711
 40
64.0
  0
CIRCLE
  5
DD5F
  8
0
  6
VERDECKT
 62
     3
 10
322.4456109474193113
 20
-496.8213852581490073
 30
0.0000000000000711
 40
77.6143213871781086
  0
CIRCLE
  5
DD60
  8
0
  6
VERDECKT
 62
     3
 10
322.4456109474193113
 20
-496.8213852581490073
 30
0.0000000000000726
 40
62.91590496069648
  0
CIRCLE
  5
DD61
  8
0
  6
VERDECKT
 62
     3
 10
322.4456109474193113
 20
-496.8213852581490073
 30
0.0000000000000726
 40
65.4063917059258983
  0
ENDBLK
  5
DD63
  8
0
  0
ENDSEC
  0
SECTION
  2
ENTITIES
  0
TEXT
  5
1DD1
  8
VOLL
 10
926.5066208976237476
 20
-33.2873806271082913
 30
0.0
 40
1.8
  1

  7
GREEKS
  0
TEXT
  5
1DD2
  8
VOLL
 10
1047.9093895668049754
 20
174.0330274181542052
 30
0.0
 40
1.8
  1

  7
GREEKS
  0
TEXT
  5
1DD3
  8
VOLL
 10
1377.7426005312240704
 20
-9.5563966159389793
 30
0.0
 40
1.8
  1

  7
GREEKS
  0
TEXT
  5
1DD4
  8
VOLL
 10
1373.9103240168869888
 20
-20.7602203443998405
 30
0.0
 40
1.8
  1

  7
GREEKS
  0
INSERT
  5
32DB
  8
ADSK_ASSOC_ENTITY_BACKUPS
  2
*S0
 10
0.0
 20
0.0
 30
0.0
  0
INSERT
  5
DD3F
  8
SCHRAFF
  2
A$C8280CC1D
 10
-5.5725917641434526
 20
-496.8213958740233807
 30
-85.0184943083645663
  0
INSERT
  5
DD64
  8
SCHRAFF
  2
A$CFA445EBF
 10
-5.5725917641429561
 20
-400.000010615874487
 30
-85.0184943083646232
  0
VIEWPORT
  5
29E0
 67
     1
  8
0
 10
776.9138518335494155
 20
209.0934621244915945
 30
0.0
 40
835.397942010397287
 41
422.2723174030658129
 68
     1
 69
     1
1001
ACAD
1000
MVIEW
1002
{
1070
    16
1010
0.0
1020
0.0
1030
0.0
1010
0.0
1020
0.0
1030
1.0
1040
0.0
1040
422.2723174030658129
1040
776.9138518335494155
1040
209.0934621244915945
1040
50.0
1040
0.0
1040
0.0
1070
     0
1070
  1500
1070
     1
1070
     1
1070
     0
1070
     0
1070
     0
1070
     0
1040
0.0
1040
0.0
1040
0.0
1040
10.0
1040
10.0
1040
10.0
1040
10.0
1070
     0
1002
{
1002
}
1002
}
  0
ENDSEC
  0
EOF
