  0
SECTION
  2
HEADER
  9
$ACADVER
  1
AC1009
  9
$INSBASE
 10
0.0
 20
0.0
 30
0.0
  9
$EXTMIN
 10
-252.1354530511798941
 20
-1174.0436893261210116
 30
-105.4616375431084947
  9
$EXTMAX
 10
247.8645469488201911
 20
-366.50838032147891
 30
-105.4616375431083952
  9
$LIMMIN
 10
0.0
 20
0.0
  9
$LIMMAX
 10
420.0
 20
297.0
  9
$ORTHOMODE
 70
     0
  9
$REGENMODE
 70
     1
  9
$FILLMODE
 70
     1
  9
$QTEXTMODE
 70
     0
  9
$MIRRTEXT
 70
     1
  9
$DRAGMODE
 70
     2
  9
$LTSCALE
 40
10.0
  9
$OSMODE
 70
   247
  9
$ATTMODE
 70
     1
  9
$TEXTSIZE
 40
3.5
  9
$TRACEWID
 40
1.0
  9
$TEXTSTYLE
  7
STANDARD
  9
$CLAYER
  8
SCHRAFF
  9
$CELTYPE
  6
BYLAYER
  9
$CECOLOR
 62
   256
  9
$DIMSCALE
 40
1.0
  9
$DIMASZ
 40
3.5
  9
$DIMEXO
 40
1.0
  9
$DIMDLI
 40
7.0
  9
$DIMRND
 40
0.0
  9
$DIMDLE
 40
0.0
  9
$DIMEXE
 40
1.0
  9
$DIMTP
 40
0.0
  9
$DIMTM
 40
0.0
  9
$DIMTXT
 40
3.5
  9
$DIMCEN
 40
1.5
  9
$DIMTSZ
 40
0.0
  9
$DIMTOL
 70
     0
  9
$DIMLIM
 70
     0
  9
$DIMTIH
 70
     0
  9
$DIMTOH
 70
     0
  9
$DIMSE1
 70
     0
  9
$DIMSE2
 70
     0
  9
$DIMTAD
 70
     1
  9
$DIMZIN
 70
     8
  9
$DIMBLK
  1

  9
$DIMASO
 70
     1
  9
$DIMSHO
 70
     0
  9
$DIMPOST
  1

  9
$DIMAPOST
  1

  9
$DIMALT
 70
     0
  9
$DIMALTD
 70
     2
  9
$DIMALTF
 40
25.3999999999999986
  9
$DIMLFAC
 40
1.0
  9
$DIMTOFL
 70
     1
  9
$DIMTVP
 40
0.0
  9
$DIMTIX
 70
     0
  9
$DIMSOXD
 70
     0
  9
$DIMSAH
 70
     0
  9
$DIMBLK1
  1

  9
$DIMBLK2
  1

  9
$DIMSTYLE
  2
STANDARD
  9
$DIMCLRD
 70
     0
  9
$DIMCLRE
 70
     0
  9
$DIMCLRT
 70
     1
  9
$DIMTFAC
 40
0.5142857142857143
  9
$DIMGAP
 40
1.5
  9
$LUNITS
 70
     2
  9
$LUPREC
 70
     2
  9
$SKETCHINC
 40
1.0
  9
$FILLETRAD
 40
0.0
  9
$AUNITS
 70
     0
  9
$AUPREC
 70
     0
  9
$MENU
  1
ACAD
  9
$ELEVATION
 40
0.0
  9
$PELEVATION
 40
0.0
  9
$THICKNESS
 40
0.0
  9
$LIMCHECK
 70
     0
  9
$BLIPMODE
 70
     0
  9
$CHAMFERA
 40
0.0
  9
$CHAMFERB
 40
0.0
  9
$SKPOLY
 70
     0
  9
$TDCREATE
 40
2455397.867048610933125
  9
$TDUPDATE
 40
2460384.4420717591419816
  9
$TDINDWG
 40
0.5930755671
  9
$TDUSRTIMER
 40
0.5930755671
  9
$USRTIMER
 70
     1
  9
$ANGBASE
 50
0.0
  9
$ANGDIR
 70
     0
  9
$PDMODE
 70
     0
  9
$PDSIZE
 40
0.0
  9
$PLINEWID
 40
0.0
  9
$COORDS
 70
     1
  9
$SPLFRAME
 70
     0
  9
$SPLINETYPE
 70
     6
  9
$SPLINESEGS
 70
     8
  9
$ATTDIA
 70
     1
  9
$ATTREQ
 70
     1
  9
$HANDLING
 70
     1
  9
$HANDSEED
  5
F4C6
  9
$SURFTAB1
 70
     6
  9
$SURFTAB2
 70
     6
  9
$SURFTYPE
 70
     6
  9
$SURFU
 70
     6
  9
$SURFV
 70
     6
  9
$UCSNAME
  2

  9
$UCSORG
 10
0.0
 20
0.0
 30
0.0
  9
$UCSXDIR
 10
1.0
 20
0.0
 30
0.0
  9
$UCSYDIR
 10
0.0
 20
1.0
 30
0.0
  9
$PUCSNAME
  2

  9
$PUCSORG
 10
0.0
 20
0.0
 30
0.0
  9
$PUCSXDIR
 10
1.0
 20
0.0
 30
0.0
  9
$PUCSYDIR
 10
0.0
 20
1.0
 30
0.0
  9
$USERI1
 70
     0
  9
$USERI2
 70
     0
  9
$USERI3
 70
     0
  9
$USERI4
 70
     0
  9
$USERI5
 70
     0
  9
$USERR1
 40
0.0
  9
$USERR2
 40
0.0
  9
$USERR3
 40
0.0
  9
$USERR4
 40
0.0
  9
$USERR5
 40
0.0
  9
$WORLDVIEW
 70
     1
  9
$SHADEDGE
 70
     3
  9
$SHADEDIF
 70
    70
  9
$TILEMODE
 70
     1
  9
$MAXACTVP
 70
    16
  9
$PLIMCHECK
 70
     0
  9
$PEXTMIN
 10
1.0000000000000000E+20
 20
1.0000000000000000E+20
 30
1.0000000000000000E+20
  9
$PEXTMAX
 10
-1.0000000000000000E+20
 20
-1.0000000000000000E+20
 30
-1.0000000000000000E+20
  9
$PLIMMIN
 10
479.9138518335494155
 20
-0.9065378755084338
  9
$PLIMMAX
 10
1073.9138518335489607
 20
419.0934621244915093
  9
$UNITMODE
 70
     0
  9
$VISRETAIN
 70
     0
  9
$PLINEGEN
 70
     0
  9
$PSLTSCALE
 70
     0
  0
ENDSEC
  0
SECTION
  2
TABLES
  0
TABLE
  2
VPORT
 70
     1
  0
VPORT
  2
*ACTIVE
 70
     0
 10
0.0
 20
0.0
 11
1.0
 21
1.0
 12
50.5742047903817067
 22
-3.428760304675734
 13
0.0
 23
0.0
 14
1.0
 24
1.0
 15
10.0
 25
10.0
 16
-0.0000000000005662
 26
0.0
 36
2550.9743072091591785
 17
-2.1354539688313698
 27
-770.2936887573570175
 37
-105.4616375431084947
 40
949.7664252760156387
 41
1.9783393501805051
 42
49.9999999999979323
 43
0.0
 44
0.0
 50
0.0
 51
0.0
 71
     0
 72
  1500
 73
     1
 74
     0
 75
     0
 76
     0
 77
     0
 78
     0
  0
ENDTAB
  0
TABLE
  2
LTYPE
 70
     4
  0
LTYPE
  2
CONTINUOUS
 70
     0
  3
Solid line
 72
    65
 73
     0
 40
0.0
  0
LTYPE
  2
STRICHPUNKT
 70
     0
  3
__ . __ . __ . __ . __ . __ . __ . __ . __ . __
 72
    65
 73
     4
 40
1.0
 49
0.5
 49
-0.25
 49
0.0
 49
-0.25
  0
LTYPE
  2
PHANTOM2
 70
     0
  3
Phantom (.5x) ___ _ _ ___ _ _ ___ _ _ ___ _ _
 72
    65
 73
     6
 40
1.25
 49
0.625
 49
-0.125
 49
0.125
 49
-0.125
 49
0.125
 49
-0.125
  0
LTYPE
  2
VERDECKT
 70
     0
  3
Verdeckt __ __ __ __ __ __ __ __ __ __ __ __ __
 72
    65
 73
     2
 40
0.375
 49
0.25
 49
-0.125
  0
ENDTAB
  0
TABLE
  2
LAYER
 70
     9
  0
LAYER
  2
0
 70
     0
 62
     7
  6
CONTINUOUS
  0
LAYER
  2
VOLL
 70
     0
 62
     1
  6
CONTINUOUS
  0
LAYER
  2
SCHRAFF
 70
     0
 62
     7
  6
CONTINUOUS
  0
LAYER
  2
DEFPOINTS
 70
     0
 62
     7
  6
CONTINUOUS
  0
LAYER
  2
BLECH
 70
     0
 62
     9
  6
CONTINUOUS
  0
LAYER
  2
ADSK_ASSOC_ENTITY_BACKUPS
 70
     1
 62
    -7
  6
CONTINUOUS
  0
LAYER
  2
MATERIAL__VERZINKT_
 70
     0
 62
   254
  6
CONTINUOUS
  0
LAYER
  2
GUMMI
 70
     0
 62
   250
  6
CONTINUOUS
  0
LAYER
  2
MATERIAL__EDELSTAHL_
 70
     0
 62
   254
  6
CONTINUOUS
  0
ENDTAB
  0
TABLE
  2
STYLE
 70
     3
  0
STYLE
  2
STANDARD
 70
     0
 40
0.0
 41
0.8
 50
0.0
 71
     0
 42
3.5
  3
simplex.shx
  4

  0
STYLE
  2
GREEKS
 70
     0
 40
0.0
 41
0.8
 50
0.0
 71
     0
 42
2.5
  3
SIMPLEX.shx
  4

  0
STYLE
  2

 70
     1
 40
0.0
 41
1.0
 50
0.0
 71
     0
 42
2.5
  3
ltypeshp.shx
  4

  0
ENDTAB
  0
TABLE
  2
VIEW
 70
     1
  0
ENDTAB
  0
TABLE
  2
UCS
 70
     0
  0
ENDTAB
  0
TABLE
  2
APPID
 70
    29
  0
APPID
  2
ACAD
 70
     0
  0
APPID
  2
ACAD_NAV_VCDISPLAY
 70
     0
  0
APPID
  2
GRADIENTCOLOR1ACI
 70
     0
  0
APPID
  2
GRADIENTCOLOR2ACI
 70
     0
  0
APPID
  2
ACAD_PSEXT
 70
     0
  0
APPID
  2
ACAD_EXEMPT_FROM_CAD_STANDARDS
 70
     0
  0
APPID
  2
ACAD_MLEADERVER
 70
     0
  0
APPID
  2
ACAECLAYERSTANDARD
 70
     0
  0
APPID
  2
ACCMTRANSPARENCY
 70
     0
  0
APPID
  2
ACAD_OBJECT_CHANGE_GUID
 70
     0
  0
APPID
  2
ACDBDYNAMICBLOCKGUID
 70
     0
  0
APPID
  2
ACADANNOPO
 70
     0
  0
APPID
  2
ACSYNERGY
 70
     0
  0
APPID
  2
SYNERGY_BODY_TBR_ID
 70
     0
  0
APPID
  2
ACAD_VIEW_EDGE_ID
 70
     0
  0
APPID
  2
ACAD_TC
 70
     0
  0
APPID
  2
ACAD_DIMASSOC_CALC_DIMLFAC
 70
     0
  0
APPID
  2
ACAD_DIMASSOC_DIMLFAC
 70
     0
  0
APPID
  2
ACAD_DIMASSOC_OVERRIDDEN_D
 70
     0
  0
APPID
  2
ACAD_DSTYLE_DIMRADIAL_EXTENSION
 70
     0
  0
APPID
  2
ACADANNOMONITORALERTICONDI
 70
     0
  0
APPID
  2
ACAD_DSTYLE_DIMJAG
 70
     0
  0
APPID
  2
ACAD_DSTYLE_DIMBREAK
 70
     0
  0
APPID
  2
ACAD_DSTYLE_DIMTALN
 70
     0
  0
APPID
  2
ACADANNOTATIVE
 70
     0
  0
APPID
  2
ACAD_STEPID
 70
     0
  0
APPID
  2
ACSYNERGYSKETCH
 70
     0
  0
APPID
  2
ACAD_MODELDOC_XFORM
 70
     0
  0
APPID
  2
PLOTTRANSPARENCY
 70
     0
  0
ENDTAB
  0
TABLE
  2
DIMSTYLE
 70
     1
  0
DIMSTYLE
  2
STANDARD
 70
     0
  3

  4

  5

  6

  7

 40
1.0
 41
0.18
 42
0.0625
 43
0.38
 44
0.18
 45
0.0
 46
0.0
 47
0.0
 48
0.0
140
0.18
141
0.09
142
0.0
143
25.3999999999999986
144
1.0
145
0.0
146
1.0
147
0.09
 71
     0
 72
     0
 73
     1
 74
     1
 75
     0
 76
     0
 77
     0
 78
     0
170
     0
171
     2
172
     0
173
     0
174
     0
175
     0
176
     0
177
     0
178
     0
  0
ENDTAB
  0
ENDSEC
  0
SECTION
  2
BLOCKS
  0
BLOCK
  8
0
  2
$MODEL_SPACE
 70
     0
 10
0.0
 20
0.0
 30
0.0
  3
$MODEL_SPACE
  1

  0
ENDBLK
  5
38
  8
0
  0
BLOCK
 67
     1
  8
0
  2
$PAPER_SPACE
 70
     0
 10
0.0
 20
0.0
 30
0.0
  3
$PAPER_SPACE
  1

  0
ENDBLK
  5
36
 67
     1
  8
0
  0
BLOCK
  8
0
  2
*S0
 70
     1
 10
0.0
 20
0.0
 30
0.0
  3
*S0
  1

  0
ENDBLK
  5
32D9
  8
0
  0
BLOCK
  8
0
  2
A$CE8F7EF3A
 70
     0
 10
0.0
 20
0.0
 30
0.0
  3
A$CE8F7EF3A
  1

  0
LINE
  5
F343
  8
0
  6
CONTINUOUS
 62
     1
 10
250.0
 20
157.5
 30
-0.000000000000035
 11
250.0
 21
157.1400000000001
 31
-0.0000000000000349
210
0.0
220
1.0
230
-0.0000000000000002
  0
LINE
  5
F344
  8
0
  6
CONTINUOUS
 62
     1
 10
-250.0
 20
157.5
 30
-0.000000000000035
 11
250.0
 21
157.5
 31
-0.000000000000035
210
0.0
220
1.0
230
-0.0000000000000002
  0
LINE
  5
F345
  8
0
  6
CONTINUOUS
 62
     1
 10
-250.0
 20
157.5
 30
-0.000000000000035
 11
-250.0
 21
157.1400000000001
 31
-0.0000000000000349
210
0.0
220
1.0
230
-0.0000000000000002
  0
LINE
  5
F346
  8
0
  6
CONTINUOUS
 62
     1
 10
250.0
 20
157.1399999999999864
 30
-0.0000000000000349
 11
-250.0
 21
157.1399999999999864
 31
-0.0000000000000349
210
0.0
220
1.0
230
-0.0000000000000002
  0
ARC
  5
F347
  8
0
  6
CONTINUOUS
 62
     1
 10
-70.8894475149208176
 20
155.1399999999993895
 30
0.0
 40
2.0000000000006231
210
0.0
220
-0.0000000000000002
230
-1.0
 50
68.4348149847619425
 51
89.9999999999967457
  0
ARC
  5
F348
  8
0
  6
CONTINUOUS
 62
     1
 10
70.8894475149208176
 20
155.1399999999993895
 30
0.0
 40
2.0000000000006248
210
0.0
220
-0.0000000000000002
230
-1.0
 50
90.0000000000032543
 51
111.5651850152380007
  0
LINE
  5
F349
  8
0
  6
CONTINUOUS
 62
     1
 10
-126.8283894267972016
 20
157.0
 30
-0.0000000000000349
 11
126.8283894267972016
 21
157.0
 31
-0.0000000000000349
210
0.0
220
1.0
230
-0.0000000000000002
  0
LINE
  5
F34A
  8
0
  6
CONTINUOUS
 62
     1
 10
-137.5
 20
154.9724407751714921
 30
-0.0000000000000344
 11
137.5
 21
154.9724407751714921
 31
-0.0000000000000344
210
0.0
220
1.0
230
-0.0000000000000002
  0
LINE
  5
F34B
  8
0
  6
CONTINUOUS
 62
     1
 10
-137.2137865069350937
 20
153.5
 30
-0.0000000000000341
 11
137.2137865069350937
 21
153.5
 31
-0.0000000000000341
210
0.0
220
1.0
230
-0.0000000000000002
  0
ARC
  5
F34C
  8
0
  6
CONTINUOUS
 62
     1
 10
71.9999999999999432
 20
138.2679491924311037
 30
0.0
 40
1.0000000000000451
210
0.0
220
-0.0000000000000002
230
-1.0
 50
330.0000000000014779
 51
0.0000000000000127
  0
ARC
  5
F34D
  8
0
  6
CONTINUOUS
 62
     1
 10
-71.9999999999999432
 20
138.2679491924311037
 30
0.0
 40
1.000000000000056
210
0.0
220
-0.0000000000000002
230
-1.0
 50
180.0
 51
209.9999999999984936
  0
LINE
  5
F34E
  8
0
  6
CONTINUOUS
 62
     1
 10
73.0
 20
141.9125113364742106
 30
-0.0000000000000315
 11
73.0
 21
138.2679491924311037
 31
-0.0000000000000307
210
0.0
220
1.0
230
-0.0000000000000002
  0
LINE
  5
F34F
  8
0
  6
CONTINUOUS
 62
     1
 10
-73.0
 20
141.9125113364742958
 30
-0.0000000000000315
 11
-73.0
 21
138.2679491924311037
 31
-0.0000000000000307
210
0.0
220
1.0
230
-0.0000000000000002
  0
LINE
  5
F350
  8
0
  6
CONTINUOUS
 62
     1
 10
-65.6084097491467304
 20
125.1973901367912987
 30
-0.0000000000000278
 11
-72.8660254037844339
 21
137.7679491924311037
 31
-0.0000000000000306
210
0.0
220
1.0
230
-0.0000000000000002
  0
LINE
  5
F351
  8
0
  6
CONTINUOUS
 62
     1
 10
65.6084097491467162
 20
125.1973901367912987
 30
-0.0000000000000278
 11
72.8660254037844339
 21
137.7679491924311037
 31
-0.0000000000000306
210
0.0
220
1.0
230
-0.0000000000000002
  0
ARC
  5
F352
  8
0
  6
CONTINUOUS
 62
     1
 10
71.9999999999990479
 20
141.9125113364740969
 30
0.0
 40
1.0000000000009519
210
0.0
220
-0.0000000000000002
230
-1.0
 50
0.0000000000048853
 51
9.9999999999955502
  0
ARC
  5
F353
  8
0
  6
CONTINUOUS
 62
     1
 10
-71.9999999999990479
 20
141.9125113364740969
 30
0.0
 40
1.0000000000009499
210
0.0
220
-0.0000000000000002
230
-1.0
 50
170.0000000000044054
 51
179.9999999999951115
  0
LINE
  5
F354
  8
0
  6
CONTINUOUS
 62
     1
 10
71.964733717718758
 20
147.8712868451648887
 30
-0.0000000000000328
 11
72.9848077530122055
 21
142.086159514141201
 31
-0.0000000000000315
210
0.0
220
1.0
230
-0.0000000000000002
  0
LINE
  5
F355
  8
0
  6
CONTINUOUS
 62
     1
 10
-71.964733717718758
 20
147.8712868451648887
 30
-0.0000000000000328
 11
-72.9848077530122055
 21
142.086159514141201
 31
-0.0000000000000315
210
0.0
220
1.0
230
-0.0000000000000002
  0
ARC
  5
F356
  8
0
  6
CONTINUOUS
 62
     1
 10
126.8283894267971021
 20
154.4999999999990905
 30
0.0
 40
2.5000000000008811
210
0.0
220
-0.0000000000000002
230
-1.0
 50
79.0000000000022311
 51
89.9999999999980531
  0
ARC
  5
F357
  8
0
  6
CONTINUOUS
 62
     1
 10
-126.8283894267971021
 20
154.4999999999990905
 30
0.0
 40
2.5000000000008811
210
0.0
220
-0.0000000000000002
230
-1.0
 50
90.0000000000019753
 51
100.9999999999977973
  0
LINE
  5
F358
  8
0
  6
CONTINUOUS
 62
     1
 10
127.3054119152384942
 20
156.9540679586191914
 30
-0.0000000000000349
 11
137.5
 21
154.9724407751714921
 31
-0.0000000000000344
210
0.0
220
1.0
230
-0.0000000000000002
  0
LINE
  5
F359
  8
0
  6
CONTINUOUS
 62
     1
 10
-127.3054119152384942
 20
156.9540679586191914
 30
-0.0000000000000349
 11
-137.5
 21
154.9724407751714921
 31
-0.0000000000000344
210
0.0
220
1.0
230
-0.0000000000000002
  0
LINE
  5
F35A
  8
0
  6
CONTINUOUS
 62
     1
 10
-137.2137865069350937
 20
153.5000000000001137
 30
-0.0000000000000341
 11
-137.5
 21
154.9724407751714921
 31
-0.0000000000000344
210
0.0
220
1.0
230
-0.0000000000000002
  0
LINE
  5
F35B
  8
0
  6
CONTINUOUS
 62
     1
 10
137.2137865069350937
 20
153.5
 30
-0.0000000000000341
 11
137.5
 21
154.9724407751714921
 31
-0.0000000000000344
210
0.0
220
1.0
230
-0.0000000000000002
  0
ARC
  5
F35C
  8
0
  6
CONTINUOUS
 62
     1
 10
78.365984112298122
 20
149.0
 30
0.0
 40
6.4999999999999947
210
0.0
220
-0.0000000000000002
230
-1.0
 50
136.1869385395968095
 51
190.0
  0
ARC
  5
F35D
  8
0
  6
CONTINUOUS
 62
     1
 10
-78.365984112298122
 20
149.0
 30
0.0
 40
6.4999999999999982
210
0.0
220
-0.0000000000000002
230
-1.0
 50
349.9999999999998863
 51
43.8130614604031905
  0
ARC
  5
F35E
  8
0
  6
CONTINUOUS
 62
     1
 10
59.1132192207634404
 20
128.9473901367913129
 30
0.0
 40
7.4999999999999671
210
0.0
220
-0.0000000000000002
230
-1.0
 50
276.7903909729849943
 51
330.0000000000001137
  0
ARC
  5
F35F
  8
0
  6
CONTINUOUS
 62
     1
 10
-59.1132192207634475
 20
128.9473901367913129
 30
0.0
 40
7.4999999999999671
210
0.0
220
-0.0000000000000002
230
-1.0
 50
209.9999999999996874
 51
263.2096090270151194
  0
LINE
  5
F360
  8
0
  6
CONTINUOUS
 62
     1
 10
50.1251133647408409
 20
0.0
 30
0.0
 11
-50.1251133647408409
 21
0.0
 31
0.0
210
0.0
220
1.0
230
-0.0000000000000002
  0
LINE
  5
F361
  8
0
  6
CONTINUOUS
 62
     1
 10
61.7986015438734668
 20
121.5
 30
-0.000000000000027
 11
-61.7986015438737013
 21
121.5
 31
-0.000000000000027
210
0.0
220
1.0
230
-0.0000000000000002
  0
LINE
  5
F362
  8
0
  6
CONTINUOUS
 62
     1
 10
63.5016894972148904
 20
120.4514336343448946
 30
-0.0000000000000267
 11
-63.501689497215132
 21
120.4514336343448946
 31
-0.0000000000000267
210
0.0
220
1.0
230
-0.0000000000000002
  0
ARC
  5
F363
  8
0
  6
CONTINUOUS
 62
     1
 10
-49.9999999999993392
 20
10.0436609429099697
 30
0.0
 40
1.0000000000006599
210
0.0
220
-0.0000000000000002
230
-1.0
 50
179.9999999999994884
 51
184.9999999999961062
  0
ARC
  5
F364
  8
0
  6
CONTINUOUS
 62
     1
 10
49.9999999999993392
 20
10.0436609429099697
 30
0.0
 40
1.0000000000006599
210
0.0
220
-0.0000000000000002
230
-1.0
 50
355.0000000000038085
 51
0.0000000000005216
  0
LINE
  5
F365
  8
0
  6
CONTINUOUS
 62
     1
 10
-50.125113364740848
 20
0.0
 30
0.0
 11
-50.9961946980917489
 21
9.9565052001623222
 31
-0.0000000000000022
210
0.0
220
1.0
230
-0.0000000000000002
  0
LINE
  5
F366
  8
0
  6
CONTINUOUS
 62
     1
 10
50.125113364740848
 20
0.0
 30
0.0
 11
50.9961946980917489
 21
9.9565052001623222
 31
-0.0000000000000022
210
0.0
220
1.0
230
-0.0000000000000002
  0
LINE
  5
F367
  8
0
  6
CONTINUOUS
 62
     1
 10
-51.0
 20
10.0436609429099803
 30
-0.0000000000000022
 11
-51.0
 21
96.7481925681526747
 31
-0.0000000000000215
210
0.0
220
1.0
230
-0.0000000000000002
  0
LINE
  5
F368
  8
0
  6
CONTINUOUS
 62
     1
 10
51.0
 20
10.0436609429099803
 30
-0.0000000000000022
 11
51.0
 21
96.7481925681526747
 31
-0.0000000000000215
210
0.0
220
1.0
230
-0.0000000000000002
  0
ARC
  5
F369
  8
0
  6
CONTINUOUS
 62
     1
 10
-62.9999999999998224
 20
96.7481925681527031
 30
0.0
 40
11.9999999999998295
210
0.0
220
-0.0000000000000002
230
-1.0
 50
0.0
 51
31.6199999999986012
  0
ARC
  5
F36A
  8
0
  6
CONTINUOUS
 62
     1
 10
62.9999999999999574
 20
96.7481925681527173
 30
0.0
 40
11.99999999999973
210
0.0
220
-0.0000000000000002
230
-1.0
 50
148.3800000000011892
 51
180.0
  0
LINE
  5
F36B
  8
0
  6
CONTINUOUS
 62
     1
 10
-52.7814722799512808
 20
103.0395907620831935
 30
-0.0000000000000229
 11
-63.5016894972151604
 21
120.4514336343448946
 31
-0.0000000000000267
210
0.0
220
1.0
230
-0.0000000000000002
  0
LINE
  5
F36C
  8
0
  6
CONTINUOUS
 62
     1
 10
52.7814722799510605
 20
103.0395907620831935
 30
-0.0000000000000229
 11
63.5016894972149331
 21
120.4514336343448946
 31
-0.0000000000000267
210
0.0
220
1.0
230
-0.0000000000000002
  0
LINE
  5
F36D
  8
0
  6
CONTINUOUS
 62
     1
 10
61.798601543873481
 20
121.5
 30
-0.000000000000027
 11
63.5016894972149117
 21
120.4514336343448946
 31
-0.0000000000000267
210
0.0
220
1.0
230
-0.0000000000000002
  0
LINE
  5
F36E
  8
0
  6
CONTINUOUS
 62
     1
 10
-61.7986015438737084
 20
121.5
 30
-0.000000000000027
 11
-63.501689497215132
 21
120.4514336343448946
 31
-0.0000000000000267
210
0.0
220
1.0
230
-0.0000000000000002
  0
LINE
  5
F36F
  8
0
  6
VERDECKT
 62
     3
 10
60.9753209805878811
 20
122.0
 30
-0.0000000000000271
 11
-60.9753209805878811
 21
122.0
 31
-0.0000000000000271
210
0.0
220
1.0
230
-0.0000000000000002
  0
LINE
  5
F370
  8
0
  6
VERDECKT
 62
     3
 10
60.9753209806512828
 20
122.3599999999999994
 30
-0.0000000000000272
 11
-60.975320980651297
 21
122.3599999999999994
 31
-0.0000000000000272
210
0.0
220
1.0
230
-0.0000000000000002
  0
LINE
  5
F371
  8
0
  6
VERDECKT
 62
     3
 10
60.975320980651297
 20
122.3599999999999994
 30
-0.0000000000000272
 11
60.975320980651297
 21
122.0
 31
-0.0000000000000271
210
0.0
220
1.0
230
-0.0000000000000002
  0
LINE
  5
F372
  8
0
  6
VERDECKT
 62
     3
 10
-60.975320980651297
 20
122.3599999999999994
 30
-0.0000000000000272
 11
-60.975320980651297
 21
122.0
 31
-0.0000000000000271
210
0.0
220
1.0
230
-0.0000000000000002
  0
ARC
  5
F373
  8
0
  6
VERDECKT
 62
     3
 10
-60.9753209805878669
 20
124.0
 30
0.0
 40
2.0000000000000111
210
0.0
220
-0.0000000000000002
230
-1.0
 50
208.3604213249095096
 51
269.9999999999997726
  0
ARC
  5
F374
  8
0
  6
VERDECKT
 62
     3
 10
60.9753209805878669
 20
124.0
 30
0.0
 40
2.000000000000028
210
0.0
220
-0.0000000000000002
230
-1.0
 50
270.0000000000003979
 51
331.6395786750898083
  0
LINE
  5
F375
  8
0
  6
VERDECKT
 62
     3
 10
-62.7352748081872207
 20
123.049967092823394
 30
-0.0000000000000273
 11
-71.2855709727765543
 21
138.8895515412174859
 31
-0.0000000000000308
210
0.0
220
1.0
230
-0.0000000000000002
  0
LINE
  5
F376
  8
0
  6
VERDECKT
 62
     3
 10
62.7352748081872065
 20
123.049967092823394
 30
-0.0000000000000273
 11
71.2855709727765543
 21
138.8895515412174859
 31
-0.0000000000000308
210
0.0
220
1.0
230
-0.0000000000000002
  0
ARC
  5
F377
  8
0
  6
VERDECKT
 62
     3
 10
-69.5256171451770939
 20
139.8395844483941062
 30
0.0
 40
2.0000000000001439
210
0.0
220
-0.0000000000000002
230
-1.0
 50
170.0000000000013074
 51
208.3604213249082022
  0
ARC
  5
F378
  8
0
  6
VERDECKT
 62
     3
 10
69.5256171451770939
 20
139.8395844483941062
 30
0.0
 40
2.0000000000001501
210
0.0
220
-0.0000000000000002
230
-1.0
 50
331.6395786750916841
 51
9.9999999999986322
  0
LINE
  5
F379
  8
0
  6
VERDECKT
 62
     3
 10
68.9198320088962788
 20
154.7927036446660907
 30
-0.0000000000000344
 11
71.4952326512016185
 21
140.1868808037280019
 31
-0.0000000000000311
210
0.0
220
1.0
230
-0.0000000000000002
  0
LINE
  5
F37A
  8
0
  6
VERDECKT
 62
     3
 10
-68.9198320088962646
 20
154.7927036446662044
 30
-0.0000000000000344
 11
-71.4952326512016327
 21
140.1868808037280019
 31
-0.0000000000000311
210
0.0
220
1.0
230
-0.0000000000000002
  0
ARC
  5
F37B
  8
0
  6
VERDECKT
 62
     3
 10
-70.889447514920704
 20
155.1399999999999864
 30
0.0
 40
2.0
210
0.0
220
-0.0000000000000002
230
-1.0
 50
350.0000000000014211
 51
68.4348149847583755
  0
ARC
  5
F37C
  8
0
  6
VERDECKT
 62
     3
 10
70.889447514920704
 20
155.1399999999999864
 30
0.0
 40
2.0000000000000311
210
0.0
220
-0.0000000000000002
230
-1.0
 50
111.5651850152416955
 51
189.9999999999984084
  0
ARC
  5
F37D
  8
0
  6
VERDECKT
 62
     3
 10
-70.889447514920704
 20
155.1399999999999864
 30
0.0
 40
2.360000000000007
210
0.0
220
-0.0000000000000002
230
-1.0
 50
349.9999999913741249
 51
90.0000000001814726
  0
ARC
  5
F37E
  8
0
  6
VERDECKT
 62
     3
 10
70.889447514920704
 20
155.1399999999999864
 30
0.0
 40
2.3600000000000132
210
0.0
220
-0.0000000000000002
230
-1.0
 50
89.9999999998185132
 51
190.0000000086257899
  0
LINE
  5
F37F
  8
0
  6
VERDECKT
 62
     3
 10
68.565301217859087
 20
154.7301903003535983
 30
-0.0000000000000344
 11
71.1407018601312302
 21
140.1243674596771882
 31
-0.0000000000000311
210
0.0
220
1.0
230
-0.0000000000000002
  0
LINE
  5
F380
  8
0
  6
VERDECKT
 62
     3
 10
-68.565301217859087
 20
154.7301903003535983
 30
-0.0000000000000344
 11
-71.1407018601312302
 21
140.1243674596771882
 31
-0.0000000000000311
210
0.0
220
1.0
230
-0.0000000000000002
  0
ARC
  5
F381
  8
0
  6
VERDECKT
 62
     3
 10
-69.5256171451772502
 20
139.8395844483941062
 30
0.0
 40
1.639999999999989
210
0.0
220
-0.0000000000000002
230
-1.0
 50
170.0000000032048888
 51
208.360421328838413
  0
ARC
  5
F382
  8
0
  6
VERDECKT
 62
     3
 10
69.5256171451772502
 20
139.8395844483941062
 30
0.0
 40
1.6399999999999819
210
0.0
220
-0.0000000000000002
230
-1.0
 50
331.6395786711614733
 51
9.9999999967950988
  0
LINE
  5
F383
  8
0
  6
VERDECKT
 62
     3
 10
-62.4184831191814666
 20
123.220973016170305
 30
-0.0000000000000274
 11
-70.9687792837212328
 21
139.0605574644287117
 31
-0.0000000000000309
210
0.0
220
1.0
230
-0.0000000000000002
  0
LINE
  5
F384
  8
0
  6
VERDECKT
 62
     3
 10
62.4184831191814666
 20
123.220973016170305
 30
-0.0000000000000274
 11
70.9687792837212328
 21
139.0605574644287117
 31
-0.0000000000000309
210
0.0
220
1.0
230
-0.0000000000000002
  0
ARC
  5
F385
  8
0
  6
VERDECKT
 62
     3
 10
-60.9753209805878811
 20
124.0
 30
0.0
 40
1.6399999999999959
210
0.0
220
-0.0000000000000002
230
-1.0
 50
208.3604213238428997
 51
269.9999999977841867
  0
ARC
  5
F386
  8
0
  6
VERDECKT
 62
     3
 10
60.9753209805878811
 20
124.0
 30
0.0
 40
1.6399999999999999
210
0.0
220
-0.0000000000000002
230
-1.0
 50
270.0000000022158133
 51
331.6395786761571003
  0
LINE
  5
F387
  8
0
  6
VERDECKT
 62
     3
 10
-126.8283894267971021
 20
155.5
 30
-0.0000000000000345
 11
126.8283894267971021
 21
155.5
 31
-0.0000000000000345
210
0.0
220
1.0
230
-0.0000000000000002
  0
LINE
  5
F388
  8
0
  6
VERDECKT
 62
     3
 10
-60.0000000000000071
 20
123.0132836455345
 30
-0.0000000000000273
 11
60.0000000000000071
 21
123.0132836455345
 31
-0.0000000000000273
210
0.0
220
1.0
230
-0.0000000000000002
  0
ARC
  5
F389
  8
0
  6
VERDECKT
 62
     3
 10
70.4999999999999432
 20
138.6698729810777877
 30
0.0
 40
1.0000000000000591
210
0.0
220
-0.0000000000000002
230
-1.0
 50
330.0000000000001137
 51
359.9999999999984084
  0
ARC
  5
F38A
  8
0
  6
VERDECKT
 62
     3
 10
-70.4999999999999432
 20
138.6698729810777877
 30
0.0
 40
1.000000000000056
210
0.0
220
-0.0000000000000002
230
-1.0
 50
180.0000000000015064
 51
209.9999999999998863
  0
LINE
  5
F38B
  8
0
  6
VERDECKT
 62
     3
 10
71.5
 20
141.7812783411854127
 30
-0.0000000000000315
 11
71.5
 21
138.6698729810777877
 31
-0.0000000000000308
210
0.0
220
1.0
230
-0.0000000000000002
  0
LINE
  5
F38C
  8
0
  6
VERDECKT
 62
     3
 10
-71.5
 20
141.7812783411854127
 30
-0.0000000000000315
 11
-71.5
 21
138.6698729810777877
 31
-0.0000000000000308
210
0.0
220
1.0
230
-0.0000000000000002
  0
LINE
  5
F38D
  8
0
  6
VERDECKT
 62
     3
 10
-64.309371643470044
 20
125.9473901367912987
 30
-0.000000000000028
 11
-71.3660254037844339
 21
138.1698729810777877
 31
-0.0000000000000307
210
0.0
220
1.0
230
-0.0000000000000002
  0
LINE
  5
F38E
  8
0
  6
VERDECKT
 62
     3
 10
64.3093716434700582
 20
125.9473901367912987
 30
-0.000000000000028
 11
71.3660254037844339
 21
138.1698729810777877
 31
-0.0000000000000307
210
0.0
220
1.0
230
-0.0000000000000002
  0
ARC
  5
F38F
  8
0
  6
VERDECKT
 62
     3
 10
70.4999999999998579
 20
141.781278341185299
 30
0.0
 40
1.0000000000001421
210
0.0
220
-0.0000000000000002
230
-1.0
 50
0.0000000000032569
 51
10.0000000000003908
  0
ARC
  5
F390
  8
0
  6
VERDECKT
 62
     3
 10
-70.4999999999993605
 20
141.781278341185299
 30
0.0
 40
1.0000000000006419
210
0.0
220
-0.0000000000000002
230
-1.0
 50
170.0000000000013074
 51
179.9999999999951115
  0
LINE
  5
F391
  8
0
  6
VERDECKT
 62
     3
 10
70.4875220882004641
 20
147.6108145786645878
 30
-0.0000000000000328
 11
71.4848077530122055
 21
141.9549265188522895
 31
-0.0000000000000315
210
0.0
220
1.0
230
-0.0000000000000002
  0
LINE
  5
F392
  8
0
  6
VERDECKT
 62
     3
 10
-70.4875220882004498
 20
147.6108145786645878
 30
-0.0000000000000328
 11
-71.4848077530122055
 21
141.9549265188522895
 31
-0.0000000000000315
210
0.0
220
1.0
230
-0.0000000000000002
  0
LINE
  5
F393
  8
0
  6
VERDECKT
 62
     3
 10
127.0191984221737016
 20
155.4816271834476993
 30
-0.0000000000000345
 11
137.2137865069350937
 21
153.5
 31
-0.0000000000000341
210
0.0
220
1.0
230
-0.0000000000000002
  0
LINE
  5
F394
  8
0
  6
VERDECKT
 62
     3
 10
-127.0191984221737016
 20
155.4816271834476993
 30
-0.0000000000000345
 11
-137.2137865069350937
 21
153.5
 31
-0.0000000000000341
210
0.0
220
1.0
230
-0.0000000000000002
  0
ARC
  5
F395
  8
0
  6
VERDECKT
 62
     3
 10
126.8283894267973011
 20
154.5000000000013074
 30
0.0
 40
0.9999999999986933
210
0.0
220
-0.0000000000000002
230
-1.0
 50
78.9999999999946994
 51
90.000000000008967
  0
ARC
  5
F396
  8
0
  6
VERDECKT
 62
     3
 10
-126.8283894267973011
 20
154.5000000000013074
 30
0.0
 40
0.9999999999986926
210
0.0
220
-0.0000000000000002
230
-1.0
 50
89.999999999991033
 51
101.0000000000053006
  0
ARC
  5
F397
  8
0
  6
VERDECKT
 62
     3
 10
78.365984112298122
 20
149.0
 30
0.0
 40
6.5
210
0.0
220
-0.0000000000000002
230
-1.0
 50
90.0
 51
136.1869385395968095
  0
ARC
  5
F398
  8
0
  6
VERDECKT
 62
     3
 10
-78.365984112298122
 20
149.0
 30
0.0
 40
6.4999999999999947
210
0.0
220
-0.0000000000000002
230
-1.0
 50
43.8130614604031834
 51
90.0
  0
LINE
  5
F399
  8
0
  6
VERDECKT
 62
     3
 10
60.0
 20
123.0132836455345
 30
-0.0000000000000273
 11
60.0
 21
121.5
 31
-0.000000000000027
210
0.0
220
1.0
230
-0.0000000000000002
  0
LINE
  5
F39A
  8
0
  6
VERDECKT
 62
     3
 10
-60.0
 20
123.0132836455345
 30
-0.0000000000000273
 11
-60.0
 21
121.5
 31
-0.000000000000027
210
0.0
220
1.0
230
-0.0000000000000002
  0
ARC
  5
F39B
  8
0
  6
VERDECKT
 62
     3
 10
59.1132192207634404
 20
128.9473901367913129
 30
0.0
 40
5.9999999999999698
210
0.0
220
-0.0000000000000002
230
-1.0
 50
278.499269210822888
 51
330.0000000000002274
  0
ARC
  5
F39C
  8
0
  6
VERDECKT
 62
     3
 10
-59.1132192207634475
 20
128.9473901367913129
 30
0.0
 40
5.9999999999999671
210
0.0
220
-0.0000000000000002
230
-1.0
 50
209.9999999999996874
 51
261.5007307891772257
  0
ARC
  5
F39D
  8
0
  6
VERDECKT
 62
     3
 10
78.3659841122981078
 20
149.0
 30
0.0
 40
8.0
210
0.0
220
-0.0000000000000002
230
-1.0
 50
89.9999999999999147
 51
190.000000000000199
  0
ARC
  5
F39E
  8
0
  6
VERDECKT
 62
     3
 10
-78.3659841122981078
 20
149.0
 30
0.0
 40
7.999999999999992
210
0.0
220
-0.0000000000000002
230
-1.0
 50
350.0
 51
90.0000000000001137
  0
LINE
  5
F39F
  8
0
  6
VERDECKT
 62
     3
 10
-60.0
 20
153.0
 30
-0.000000000000034
 11
60.0
 21
153.0
 31
-0.000000000000034
210
0.0
220
1.0
230
-0.0000000000000002
  0
LINE
  5
F3A0
  8
0
  6
VERDECKT
 62
     3
 10
-60.0
 20
130.0000000000001137
 30
-0.0000000000000289
 11
60.0
 21
130.0000000000001137
 31
-0.0000000000000289
210
0.0
220
1.0
230
-0.0000000000000002
  0
LINE
  5
F3A1
  8
0
  6
VERDECKT
 62
     3
 10
60.0
 20
153.0
 30
-0.000000000000034
 11
60.0
 21
130.0000000000001137
 31
-0.0000000000000289
210
0.0
220
1.0
230
-0.0000000000000002
  0
LINE
  5
F3A2
  8
0
  6
VERDECKT
 62
     3
 10
-60.0
 20
153.0
 30
-0.000000000000034
 11
-60.0
 21
130.0000000000001137
 31
-0.0000000000000289
210
0.0
220
1.0
230
-0.0000000000000002
  0
LINE
  5
F3A3
  8
0
  6
VERDECKT
 62
     3
 10
58.0
 20
153.0
 30
-0.000000000000034
 11
58.0
 21
130.0000000000001137
 31
-0.0000000000000289
210
0.0
220
1.0
230
-0.0000000000000002
  0
LINE
  5
F3A4
  8
0
  6
VERDECKT
 62
     3
 10
-58.0
 20
153.0
 30
-0.000000000000034
 11
-58.0
 21
130.0000000000001137
 31
-0.0000000000000289
210
0.0
220
1.0
230
-0.0000000000000002
  0
LINE
  5
F3A5
  8
0
  6
VERDECKT
 62
     3
 10
-68.7096566224504386
 20
136.6214661714253964
 30
-0.0000000000000303
 11
68.7096566224504386
 21
136.6214661714253964
 31
-0.0000000000000303
210
0.0
220
1.0
230
-0.0000000000000002
  0
LINE
  5
F3A6
  8
0
  6
VERDECKT
 62
     3
 10
-62.0
 20
125.0
 30
-0.0000000000000278
 11
62.0
 21
125.0
 31
-0.0000000000000278
210
0.0
220
1.0
230
-0.0000000000000002
  0
LINE
  5
F3A7
  8
0
  6
VERDECKT
 62
     3
 10
-54.5
 20
126.0000000000000995
 30
-0.000000000000028
 11
54.5
 21
126.0000000000000995
 31
-0.000000000000028
210
0.0
220
1.0
230
-0.0000000000000002
  0
LINE
  5
F3A8
  8
0
  6
VERDECKT
 62
     3
 10
-48.3218007376453826
 20
128.0000000000001137
 30
-0.0000000000000284
 11
48.3218007376453826
 21
128.0000000000001137
 31
-0.0000000000000284
210
0.0
220
1.0
230
-0.0000000000000002
  0
LINE
  5
F3A9
  8
0
  6
VERDECKT
 62
     3
 10
-55.3000906917923203
 20
145.0
 30
-0.0000000000000322
 11
55.3000906917923203
 21
145.0
 31
-0.0000000000000322
210
0.0
220
1.0
230
-0.0000000000000002
  0
LINE
  5
F3AA
  8
0
  6
VERDECKT
 62
     3
 10
-59.9923603249133066
 20
155.0000000000001137
 30
-0.0000000000000344
 11
59.9923603249133066
 21
155.0000000000001137
 31
-0.0000000000000344
210
0.0
220
1.0
230
-0.0000000000000002
  0
LINE
  5
F3AB
  8
0
  6
VERDECKT
 62
     3
 10
-60.0
 20
153.0
 30
-0.000000000000034
 11
60.0
 21
153.0
 31
-0.000000000000034
210
0.0
220
1.0
230
-0.0000000000000002
  0
LINE
  5
F3AC
  8
0
  6
VERDECKT
 62
     3
 10
-60.0
 20
130.0000000000001137
 30
-0.0000000000000289
 11
60.0
 21
130.0000000000001137
 31
-0.0000000000000289
210
0.0
220
1.0
230
-0.0000000000000002
  0
ARC
  5
F3AD
  8
0
  6
VERDECKT
 62
     3
 10
70.5000000000000142
 20
139.6893776846395099
 30
0.0
 40
2.4999999999999201
210
0.0
220
-0.0000000000000002
230
-1.0
 50
285.0
 51
90.0000000000003268
  0
ARC
  5
F3AE
  8
0
  6
VERDECKT
 62
     3
 10
70.4999999999998153
 20
139.689377684640391
 30
0.0
 40
2.4999999999989191
210
0.0
220
-0.0000000000000002
230
-1.0
 50
89.9999999999961062
 51
105.0000000000024016
  0
ARC
  5
F3AF
  8
0
  6
VERDECKT
 62
     3
 10
-70.499999999999801
 20
139.6893776846407036
 30
0.0
 40
2.4999999999986611
210
0.0
220
-0.0000000000000002
230
-1.0
 50
74.9999999999969731
 51
90.0000000000045759
  0
ARC
  5
F3B0
  8
0
  6
VERDECKT
 62
     3
 10
-70.5000000000000142
 20
139.6893776846395099
 30
0.0
 40
2.4999999999999138
210
0.0
220
-0.0000000000000002
230
-1.0
 50
89.9999999999996874
 51
255.0
  0
LINE
  5
F3B1
  8
0
  6
VERDECKT
 62
     3
 10
70.5
 20
142.1893776846393962
 30
-0.0000000000000316
 11
-70.5
 21
142.1893776846393962
 31
-0.0000000000000316
210
0.0
220
1.0
230
-0.0000000000000002
  0
LINE
  5
F3B2
  8
0
  6
VERDECKT
 62
     3
 10
-68.7096566224504386
 20
136.6214661714253964
 30
-0.0000000000000303
 11
-71.1470476127562961
 21
137.2745631189168876
 31
-0.0000000000000305
210
0.0
220
1.0
230
-0.0000000000000002
  0
LINE
  5
F3B3
  8
0
  6
VERDECKT
 62
     3
 10
68.7096566224504386
 20
136.6214661714253964
 30
-0.0000000000000303
 11
71.1470476127562819
 21
137.2745631189168876
 31
-0.0000000000000305
210
0.0
220
1.0
230
-0.0000000000000002
  0
LINE
  5
F3B4
  8
0
  6
VERDECKT
 62
     3
 10
-62.0
 20
125.0
 30
-0.0000000000000278
 11
-68.7096566224504386
 21
136.6214661714253964
 31
-0.0000000000000303
210
0.0
220
1.0
230
-0.0000000000000002
  0
LINE
  5
F3B5
  8
0
  6
VERDECKT
 62
     3
 10
62.0
 20
125.0
 30
-0.0000000000000278
 11
68.7096566224504386
 21
136.6214661714253964
 31
-0.0000000000000303
210
0.0
220
1.0
230
-0.0000000000000002
  0
LINE
  5
F3B6
  8
0
  6
VERDECKT
 62
     3
 10
54.5
 20
126.0000000000000995
 30
-0.000000000000028
 11
56.2320508075690668
 21
125.0
 31
-0.0000000000000278
210
0.0
220
1.0
230
-0.0000000000000002
  0
LINE
  5
F3B7
  8
0
  6
VERDECKT
 62
     3
 10
-54.5
 20
126.0000000000000995
 30
-0.000000000000028
 11
-56.2320508075690668
 21
125.0
 31
-0.0000000000000278
210
0.0
220
1.0
230
-0.0000000000000002
  0
LINE
  5
F3B8
  8
0
  6
VERDECKT
 62
     3
 10
48.0
 20
128.0000000000001137
 30
-0.0000000000000284
 11
48.0
 21
126.0000000000000995
 31
-0.000000000000028
210
0.0
220
1.0
230
-0.0000000000000002
  0
LINE
  5
F3B9
  8
0
  6
VERDECKT
 62
     3
 10
-48.0
 20
128.0000000000001137
 30
-0.0000000000000284
 11
-48.0
 21
126.0000000000000995
 31
-0.000000000000028
210
0.0
220
1.0
230
-0.0000000000000002
  0
ARC
  5
F3BA
  8
0
  6
VERDECKT
 62
     3
 10
48.3218007376454324
 20
130.0
 30
0.0
 40
1.9999999999999429
210
0.0
220
-0.0000000000000002
230
-1.0
 50
270.0
 51
350.0000000000023874
  0
ARC
  5
F3BB
  8
0
  6
VERDECKT
 62
     3
 10
-48.3218007376454324
 20
130.0
 30
0.0
 40
1.9999999999999509
210
0.0
220
-0.0000000000000002
230
-1.0
 50
189.9999999999986926
 51
270.0000000000011937
  0
LINE
  5
F3BC
  8
0
  6
VERDECKT
 62
     3
 10
-50.2914162436698007
 20
129.6527036446661896
 30
-0.0000000000000288
 11
-52.6332883674563234
 21
142.9341204441672915
 31
-0.0000000000000317
210
0.0
220
1.0
230
-0.0000000000000002
  0
LINE
  5
F3BD
  8
0
  6
VERDECKT
 62
     3
 10
50.2914162436698007
 20
129.6527036446661896
 30
-0.0000000000000288
 11
52.6332883674563234
 21
142.9341204441672915
 31
-0.0000000000000317
210
0.0
220
1.0
230
-0.0000000000000002
  0
ARC
  5
F3BE
  8
0
  6
VERDECKT
 62
     3
 10
55.0953077499868584
 20
142.5
 30
0.0
 40
2.500000000000056
210
0.0
220
-0.0000000000000002
230
-1.0
 50
89.9999999999993463
 51
169.9999999999988916
  0
ARC
  5
F3BF
  8
0
  6
VERDECKT
 62
     3
 10
-55.0953077499868726
 20
142.5
 30
0.0
 40
2.5000000000000369
210
0.0
220
-0.0000000000000002
230
-1.0
 50
10.0000000000010303
 51
90.0000000000004832
  0
LINE
  5
F3C0
  8
0
  6
VERDECKT
 62
     3
 10
-55.3000906917923203
 20
145.0
 30
-0.0000000000000322
 11
-56.0152502789030677
 21
153.1743114854953944
 31
-0.000000000000034
210
0.0
220
1.0
230
-0.0000000000000002
  0
LINE
  5
F3C1
  8
0
  6
VERDECKT
 62
     3
 10
55.3000906917923203
 20
145.0
 30
-0.0000000000000322
 11
56.0152502789030677
 21
153.1743114854953944
 31
-0.000000000000034
210
0.0
220
1.0
230
-0.0000000000000002
  0
ARC
  5
F3C2
  8
0
  6
VERDECKT
 62
     3
 10
58.0076396750864802
 20
153.000000000000199
 30
0.0
 40
1.9999999999999141
210
0.0
220
-0.0000000000000002
230
-1.0
 50
90.0000000000003979
 51
175.0000000000015916
  0
ARC
  5
F3C3
  8
0
  6
VERDECKT
 62
     3
 10
-58.0076396750864802
 20
153.000000000000199
 30
0.0
 40
1.9999999999999161
210
0.0
220
-0.0000000000000002
230
-1.0
 50
4.9999999999983791
 51
89.9999999999996021
  0
ARC
  5
F3C4
  8
0
  6
VERDECKT
 62
     3
 10
59.992360324913399
 20
153.0000000000001137
 30
0.0
 40
2.0000000000000111
210
0.0
220
-0.0000000000000002
230
-1.0
 50
5.0000000000014051
 51
90.0000000000028564
  0
ARC
  5
F3C5
  8
0
  6
VERDECKT
 62
     3
 10
-59.992360324913399
 20
153.0000000000001137
 30
0.0
 40
2.0
210
0.0
220
-0.0000000000000002
230
-1.0
 50
89.9999999999971436
 51
174.9999999999986073
  0
LINE
  5
F3C6
  8
0
  6
VERDECKT
 62
     3
 10
61.9847497210967617
 20
153.1743114854953944
 30
-0.000000000000034
 11
62.9035645959956398
 21
142.6722094088470101
 31
-0.0000000000000317
210
0.0
220
1.0
230
-0.0000000000000002
  0
LINE
  5
F3C7
  8
0
  6
VERDECKT
 62
     3
 10
-61.9847497210967617
 20
153.1743114854953944
 30
-0.000000000000034
 11
-62.9035645959956398
 21
142.6722094088470101
 31
-0.0000000000000317
210
0.0
220
1.0
230
-0.0000000000000002
  0
ARC
  5
F3C8
  8
0
  6
VERDECKT
 62
     3
 10
64.8959539921790736
 20
142.8465208943422908
 30
0.0
 40
1.9999999999998901
210
0.0
220
-0.0000000000000002
230
-1.0
 50
184.9999999999992042
 51
270.0000000000003979
  0
ARC
  5
F3C9
  8
0
  6
VERDECKT
 62
     3
 10
64.8959539921790309
 20
142.8465208943428877
 30
0.0
 40
2.0000000000005111
210
0.0
220
-0.0000000000000002
230
-1.0
 50
270.0
 51
284.9999999999964757
  0
ARC
  5
F3CA
  8
0
  6
VERDECKT
 62
     3
 10
-64.8959539921790309
 20
142.8465208943428877
 30
0.0
 40
2.0000000000005111
210
0.0
220
-0.0000000000000002
230
-1.0
 50
255.0000000000013927
 51
269.9999999999980105
  0
ARC
  5
F3CB
  8
0
  6
VERDECKT
 62
     3
 10
-64.8959539921790736
 20
142.8465208943422908
 30
0.0
 40
1.9999999999998861
210
0.0
220
-0.0000000000000002
230
-1.0
 50
270.0
 51
355.0000000000011937
  0
LINE
  5
F3CC
  8
0
  6
VERDECKT
 62
     3
 10
-64.895953992179102
 20
140.8465208943424045
 30
-0.0000000000000313
 11
64.895953992179102
 21
140.8465208943424045
 31
-0.0000000000000313
210
0.0
220
1.0
230
-0.0000000000000002
  0
LINE
  5
F3CD
  8
0
  6
VERDECKT
 62
     3
 10
-65.4135920823841843
 20
140.9146692417641873
 30
-0.0000000000000313
 11
-69.8529523872437039
 21
142.1041922503621038
 31
-0.0000000000000316
210
0.0
220
1.0
230
-0.0000000000000002
  0
LINE
  5
F3CE
  8
0
  6
VERDECKT
 62
     3
 10
65.4135920823841843
 20
140.9146692417641873
 30
-0.0000000000000313
 11
69.8529523872437039
 21
142.1041922503621038
 31
-0.0000000000000316
210
0.0
220
1.0
230
-0.0000000000000002
  0
LINE
  5
F3CF
  8
0
  6
VERDECKT
 62
     3
 10
60.0
 20
153.0
 30
-0.000000000000034
 11
60.0
 21
130.0000000000001137
 31
-0.0000000000000289
210
0.0
220
1.0
230
-0.0000000000000002
  0
LINE
  5
F3D0
  8
0
  6
VERDECKT
 62
     3
 10
-60.0
 20
153.0
 30
-0.000000000000034
 11
-60.0
 21
130.0000000000001137
 31
-0.0000000000000289
210
0.0
220
1.0
230
-0.0000000000000002
  0
LINE
  5
F3D1
  8
0
  6
VERDECKT
 62
     3
 10
58.0
 20
153.0
 30
-0.000000000000034
 11
58.0
 21
130.0000000000001137
 31
-0.0000000000000289
210
0.0
220
1.0
230
-0.0000000000000002
  0
LINE
  5
F3D2
  8
0
  6
VERDECKT
 62
     3
 10
-58.0
 20
153.0
 30
-0.000000000000034
 11
-58.0
 21
130.0000000000001137
 31
-0.0000000000000289
210
0.0
220
1.0
230
-0.0000000000000002
  0
LINE
  5
F3D3
  8
0
  6
VERDECKT
 62
     3
 10
48.1327239685572223
 20
0.1743114854953092
 30
0.0
 11
-48.1327239685572223
 21
0.1743114854953092
 31
0.0
210
0.0
220
1.0
230
-0.0000000000000002
  0
ARC
  5
F3D4
  8
0
  6
VERDECKT
 62
     3
 10
-47.9999999999993392
 20
10.1309828287242993
 30
0.0
 40
1.0000000000006599
210
0.0
220
-0.0000000000000002
230
-1.0
 50
179.9999999999994884
 51
184.9999999999961062
  0
ARC
  5
F3D5
  8
0
  6
VERDECKT
 62
     3
 10
47.9999999999993392
 20
10.1309828287242993
 30
0.0
 40
1.0000000000006599
210
0.0
220
-0.0000000000000002
230
-1.0
 50
355.0000000000038085
 51
0.0000000000005216
  0
LINE
  5
F3D6
  8
0
  6
VERDECKT
 62
     3
 10
-49.0
 20
10.13098282872431
 30
-0.0000000000000022
 11
-49.0
 21
96.7481925681526747
 31
-0.0000000000000215
210
0.0
220
1.0
230
-0.0000000000000002
  0
LINE
  5
F3D7
  8
0
  6
VERDECKT
 62
     3
 10
49.0
 20
10.13098282872431
 30
-0.0000000000000022
 11
49.0
 21
96.7481925681526747
 31
-0.0000000000000215
210
0.0
220
1.0
230
-0.0000000000000002
  0
LINE
  5
F3D8
  8
0
  6
VERDECKT
 62
     3
 10
-48.1327239685572223
 20
0.1743114854953092
 30
0.0
 11
-48.9961946980917489
 21
10.0438270859766501
 31
-0.0000000000000022
210
0.0
220
1.0
230
-0.0000000000000002
  0
LINE
  5
F3D9
  8
0
  6
VERDECKT
 62
     3
 10
48.1327239685572223
 20
0.1743114854953092
 30
0.0
 11
48.9961946980917489
 21
10.0438270859766501
 31
-0.0000000000000022
210
0.0
220
1.0
230
-0.0000000000000002
  0
LINE
  5
F3DA
  8
0
  6
VERDECKT
 62
     3
 10
-51.0783843266100632
 20
104.0881571277385973
 30
-0.0000000000000231
 11
-61.7986015438737297
 21
121.5
 31
-0.000000000000027
210
0.0
220
1.0
230
-0.0000000000000002
  0
LINE
  5
F3DB
  8
0
  6
VERDECKT
 62
     3
 10
51.0783843266098287
 20
104.0881571277385973
 30
-0.0000000000000231
 11
61.7986015438735024
 21
121.5
 31
-0.000000000000027
210
0.0
220
1.0
230
-0.0000000000000002
  0
ARC
  5
F3DC
  8
0
  6
VERDECKT
 62
     3
 10
-63.0000000000006324
 20
96.7481925681523336
 30
0.0
 40
14.0000000000006892
210
0.0
220
-0.0000000000000002
230
-1.0
 50
0.0000000000014631
 51
31.6199999999998091
  0
ARC
  5
F3DD
  8
0
  6
VERDECKT
 62
     3
 10
63.0000000000008029
 20
96.748192568152362
 30
0.0
 40
14.0000000000006306
210
0.0
220
-0.0000000000000002
230
-1.0
 50
148.3800000000001091
 51
179.9999999999986073
  0
LINE
  5
F3DE
  8
0
  6
VERDECKT
 62
     3
 10
48.1327239685572223
 20
0.1743114854953092
 30
0.0
 11
50.125113364740848
 21
0.0
 31
0.0
210
0.0
220
1.0
230
-0.0000000000000002
  0
LINE
  5
F3DF
  8
0
  6
VERDECKT
 62
     3
 10
-48.1327239685572223
 20
0.1743114854953092
 30
0.0
 11
-50.125113364740848
 21
0.0
 31
0.0
210
0.0
220
1.0
230
-0.0000000000000002
  0
ENDBLK
  5
F3E1
  8
0
  0
BLOCK
  8
0
  2
A$C380A7D9F
 70
     0
 10
0.0
 20
0.0
 30
0.0
  3
A$C380A7D9F
  1

  0
LINE
  5
F3E5
  8
0
  6
CONTINUOUS
 62
     1
 10
157.9369592306397863
 20
-75.7843486717084716
 30
0.0000000000000568
 11
157.9369592306397863
 21
424.2156513282914716
 31
0.0000000000000568
  0
LINE
  5
F3E6
  8
0
  6
CONTINUOUS
 62
     1
 10
-342.0630407693602137
 20
-75.7843486717084716
 30
-0.0000000000000568
 11
157.9369592306397863
 21
-75.7843486717084716
 31
0.0000000000000541
  0
LINE
  5
F3E7
  8
0
  6
CONTINUOUS
 62
     1
 10
-342.0630407693602137
 20
424.2156513282914716
 30
-0.0000000000000568
 11
-342.0630407693602137
 21
-75.7843486717084716
 31
-0.0000000000000568
  0
LINE
  5
F3E8
  8
0
  6
CONTINUOUS
 62
     1
 10
157.9369592306397863
 20
424.2156513282914716
 30
0.0000000000000568
 11
-342.0630407693602137
 21
424.2156513282914716
 31
-0.0000000000000541
  0
CIRCLE
  5
F3E9
  8
0
  6
CONTINUOUS
 62
     1
 10
-92.0630407693601853
 20
174.2156513282915
 30
0.0
 40
68.5294475149206903
  0
CIRCLE
  5
F3EA
  8
0
  6
CONTINUOUS
 62
     1
 10
-92.0630407693601853
 20
174.2156513282915
 30
0.0
 40
48.0
  0
CIRCLE
  5
F3EB
  8
0
  6
CONTINUOUS
 62
     1
 10
-92.0630407693601853
 20
174.2156513282915
 30
0.0
 40
55.3000906917923203
  0
CIRCLE
  5
F3EC
  8
0
  6
VERDECKT
 62
     3
 10
-92.0630407693601853
 20
174.2156513282915
 30
0.0
 40
60.975320980651297
  0
CIRCLE
  5
F3ED
  8
0
  6
VERDECKT
 62
     3
 10
-92.0630407693601853
 20
174.2156513282915
 30
0.0
 40
71.5256171451772502
  0
CIRCLE
  5
F3EE
  8
0
  6
VERDECKT
 62
     3
 10
-92.0630407693601853
 20
174.2156513282915
 30
0.0
 40
68.889447514920704
  0
CIRCLE
  5
F3EF
  8
0
  6
VERDECKT
 62
     3
 10
-92.0630407693601853
 20
174.2156513282915
 30
0.0
 40
71.1656171451772366
  0
CIRCLE
  5
F3F0
  8
0
  6
VERDECKT
 62
     3
 10
-92.0630407693601853
 20
174.2156513282915
 30
0.0
 40
73.0
  0
CIRCLE
  5
F3F1
  8
0
  6
VERDECKT
 62
     3
 10
-92.0630407693601853
 20
174.2156513282915
 30
0.0
 40
71.5
  0
CIRCLE
  5
F3F2
  8
0
  6
VERDECKT
 62
     3
 10
-92.0630407693601853
 20
174.2156513282915
 30
0.0
 40
137.5
  0
CIRCLE
  5
F3F3
  8
0
  6
VERDECKT
 62
     3
 10
-92.0630407693601853
 20
174.2156513282915
 30
0.0
 40
137.2137865069350937
  0
CIRCLE
  5
F3F4
  8
0
  6
VERDECKT
 62
     3
 10
-92.0630407693601853
 20
174.2156513282915
 30
0.0
 40
71.865984112298122
  0
CIRCLE
  5
F3F5
  8
0
  6
VERDECKT
 62
     3
 10
-92.0630407693601853
 20
174.2156513282915
 30
0.0
 40
70.365984112298122
  0
CIRCLE
  5
F3F6
  8
0
  6
VERDECKT
 62
     3
 10
-92.0630407693601853
 20
174.2156513282915
 30
0.0
 40
58.0
  0
CIRCLE
  5
F3F7
  8
0
  6
VERDECKT
 62
     3
 10
-92.0630407693601853
 20
174.2156513282915
 30
0.0
 40
60.0
  0
CIRCLE
  5
F3F8
  8
0
  6
VERDECKT
 62
     3
 10
-92.0630407693601853
 20
174.2156513282915
 30
0.0
 40
68.7096566224504386
  0
CIRCLE
  5
F3F9
  8
0
  6
VERDECKT
 62
     3
 10
-92.0630407693601853
 20
174.2156513282915
 30
0.0
 40
62.0
  0
CIRCLE
  5
F3FA
  8
0
  6
VERDECKT
 62
     3
 10
-92.0630407693601853
 20
174.2156513282915
 30
0.0
 40
56.2320508075690668
  0
CIRCLE
  5
F3FB
  8
0
  6
VERDECKT
 62
     3
 10
-92.0630407693601853
 20
174.2156513282915
 30
0.0
 40
54.5
  0
CIRCLE
  5
F3FC
  8
0
  6
VERDECKT
 62
     3
 10
-92.0630407693601853
 20
174.2156513282915
 30
0.0
 40
58.0
  0
CIRCLE
  5
F3FD
  8
0
  6
VERDECKT
 62
     3
 10
-92.0630407693601853
 20
174.2156513282915
 30
0.0
 40
60.0
  0
CIRCLE
  5
F3FE
  8
0
  6
VERDECKT
 62
     3
 10
-92.063040769360299
 20
174.2156513282915
 30
0.0
 40
49.0
  0
CIRCLE
  5
F3FF
  8
0
  6
VERDECKT
 62
     3
 10
-92.0630407693602137
 20
174.2156513282915
 30
0.0
 40
48.1327239685572223
  0
CIRCLE
  5
F400
  8
0
  6
VERDECKT
 62
     3
 10
-92.0630407693602137
 20
174.2156513282915
 30
0.0
 40
50.125113364740848
  0
CIRCLE
  5
F401
  8
0
  6
VERDECKT
 62
     3
 10
-92.063040769360299
 20
174.2156513282915
 30
0.0
 40
51.0
  0
CIRCLE
  5
F402
  8
0
  6
VERDECKT
 62
     3
 10
-92.063040769360299
 20
174.2156513282915
 30
0.0
 40
61.7986015438735876
  0
CIRCLE
  5
F403
  8
0
  6
VERDECKT
 62
     3
 10
-92.063040769360299
 20
174.2156513282915
 30
0.0
 40
63.5016894972150112
  0
ENDBLK
  5
F405
  8
0
  0
ENDSEC
  0
SECTION
  2
ENTITIES
  0
TEXT
  5
1DD1
  8
VOLL
 10
926.5066208976237476
 20
-33.2873806271082913
 30
0.0
 40
1.8
  1

  7
GREEKS
  0
TEXT
  5
1DD2
  8
VOLL
 10
1047.9093895668049754
 20
174.0330274181542052
 30
0.0
 40
1.8
  1

  7
GREEKS
  0
TEXT
  5
1DD3
  8
VOLL
 10
1377.7426005312240704
 20
-9.5563966159389793
 30
0.0
 40
1.8
  1

  7
GREEKS
  0
TEXT
  5
1DD4
  8
VOLL
 10
1373.9103240168869888
 20
-20.7602203443998405
 30
0.0
 40
1.8
  1

  7
GREEKS
  0
INSERT
  5
32DB
  8
ADSK_ASSOC_ENTITY_BACKUPS
  2
*S0
 10
0.0
 20
0.0
 30
0.0
  0
INSERT
  5
F3E2
  8
SCHRAFF
  2
A$CE8F7EF3A
 10
-2.1354530511798369
 20
-524.0436893261214664
 30
-105.4616375431084947
  0
INSERT
  5
F406
  8
SCHRAFF
  2
A$C380A7D9F
 10
89.927587718180348
 20
-1098.2593406544131085
 30
-105.4616375431084947
  0
VIEWPORT
  5
29E0
 67
     1
  8
0
 10
776.9138518335494155
 20
209.0934621244915945
 30
0.0
 40
835.397942010397287
 41
422.2723174030658129
 68
     1
 69
     1
1001
ACAD
1000
MVIEW
1002
{
1070
    16
1010
0.0
1020
0.0
1030
0.0
1010
0.0
1020
0.0
1030
1.0
1040
0.0
1040
422.2723174030658129
1040
776.9138518335494155
1040
209.0934621244915945
1040
50.0
1040
0.0
1040
0.0
1070
     0
1070
  1500
1070
     1
1070
     1
1070
     0
1070
     0
1070
     0
1070
     0
1040
0.0
1040
0.0
1040
0.0
1040
10.0
1040
10.0
1040
10.0
1040
10.0
1070
     0
1002
{
1002
}
1002
}
  0
ENDSEC
  0
EOF
