  0
SECTION
  2
HEADER
  9
$ACADVER
  1
AC1009
  9
$INSBASE
 10
0.0
 20
0.0
 30
0.0
  9
$EXTMIN
 10
-250.0000011837350939
 20
-550.000000818857643
 30
-0.0000000116415251
  9
$EXTMAX
 10
249.9999996298915903
 20
160.1222096797378072
 30
-0.0000000116415251
  9
$LIMMIN
 10
0.0
 20
0.0
  9
$LIMMAX
 10
594.0
 20
840.0
  9
$ORTHOMODE
 70
     1
  9
$REGENMODE
 70
     1
  9
$FILLMODE
 70
     1
  9
$QTEXTMODE
 70
     0
  9
$MIRRTEXT
 70
     1
  9
$DRAGMODE
 70
     2
  9
$LTSCALE
 40
10.0
  9
$OSMODE
 70
   511
  9
$ATTMODE
 70
     1
  9
$TEXTSIZE
 40
3.5
  9
$TRACEWID
 40
1.0
  9
$TEXTSTYLE
  7
STANDARD
  9
$CLAYER
  8
STEMPEL
  9
$CELTYPE
  6
BYLAYER
  9
$CECOLOR
 62
   256
  9
$DIMSCALE
 40
1.0
  9
$DIMASZ
 40
3.5
  9
$DIMEXO
 40
1.0
  9
$DIMDLI
 40
0.38
  9
$DIMRND
 40
0.0
  9
$DIMDLE
 40
0.0
  9
$DIMEXE
 40
1.0
  9
$DIMTP
 40
0.0
  9
$DIMTM
 40
0.000000001
  9
$DIMTXT
 40
3.5
  9
$DIMCEN
 40
0.09
  9
$DIMTSZ
 40
0.0
  9
$DIMTOL
 70
     0
  9
$DIMLIM
 70
     0
  9
$DIMTIH
 70
     0
  9
$DIMTOH
 70
     0
  9
$DIMSE1
 70
     0
  9
$DIMSE2
 70
     0
  9
$DIMTAD
 70
     1
  9
$DIMZIN
 70
     8
  9
$DIMBLK
  1

  9
$DIMASO
 70
     1
  9
$DIMSHO
 70
     0
  9
$DIMPOST
  1

  9
$DIMAPOST
  1

  9
$DIMALT
 70
     0
  9
$DIMALTD
 70
     2
  9
$DIMALTF
 40
25.3999999999999986
  9
$DIMLFAC
 40
2.0
  9
$DIMTOFL
 70
     1
  9
$DIMTVP
 40
0.0
  9
$DIMTIX
 70
     0
  9
$DIMSOXD
 70
     0
  9
$DIMSAH
 70
     0
  9
$DIMBLK1
  1

  9
$DIMBLK2
  1

  9
$DIMSTYLE
  2
LORO
  9
$DIMCLRD
 70
     0
  9
$DIMCLRE
 70
     0
  9
$DIMCLRT
 70
     1
  9
$DIMTFAC
 40
0.5
  9
$DIMGAP
 40
1.5
  9
$LUNITS
 70
     2
  9
$LUPREC
 70
     2
  9
$SKETCHINC
 40
1.0
  9
$FILLETRAD
 40
0.5
  9
$AUNITS
 70
     0
  9
$AUPREC
 70
     0
  9
$MENU
  1
ACAD
  9
$ELEVATION
 40
0.0
  9
$PELEVATION
 40
0.0
  9
$THICKNESS
 40
0.0
  9
$LIMCHECK
 70
     0
  9
$BLIPMODE
 70
     0
  9
$CHAMFERA
 40
0.0
  9
$CHAMFERB
 40
0.0
  9
$SKPOLY
 70
     0
  9
$TDCREATE
 40
2455397.867048610933125
  9
$TDUPDATE
 40
2460662.4435995370149612
  9
$TDINDWG
 40
1.8158974769
  9
$TDUSRTIMER
 40
1.8158974769
  9
$USRTIMER
 70
     1
  9
$ANGBASE
 50
0.0
  9
$ANGDIR
 70
     0
  9
$PDMODE
 70
     0
  9
$PDSIZE
 40
0.0
  9
$PLINEWID
 40
0.0
  9
$COORDS
 70
     1
  9
$SPLFRAME
 70
     0
  9
$SPLINETYPE
 70
     6
  9
$SPLINESEGS
 70
     8
  9
$ATTDIA
 70
     1
  9
$ATTREQ
 70
     1
  9
$HANDLING
 70
     1
  9
$HANDSEED
  5
14CB3
  9
$SURFTAB1
 70
     6
  9
$SURFTAB2
 70
     6
  9
$SURFTYPE
 70
     6
  9
$SURFU
 70
     6
  9
$SURFV
 70
     6
  9
$UCSNAME
  2

  9
$UCSORG
 10
0.0
 20
0.0
 30
0.0
  9
$UCSXDIR
 10
1.0
 20
0.0
 30
0.0
  9
$UCSYDIR
 10
0.0
 20
1.0
 30
0.0
  9
$PUCSNAME
  2

  9
$PUCSORG
 10
0.0
 20
0.0
 30
0.0
  9
$PUCSXDIR
 10
1.0
 20
0.0
 30
0.0
  9
$PUCSYDIR
 10
0.0
 20
1.0
 30
0.0
  9
$USERI1
 70
     0
  9
$USERI2
 70
     0
  9
$USERI3
 70
     0
  9
$USERI4
 70
     0
  9
$USERI5
 70
     0
  9
$USERR1
 40
0.0
  9
$USERR2
 40
0.0
  9
$USERR3
 40
0.0
  9
$USERR4
 40
0.0
  9
$USERR5
 40
0.0
  9
$WORLDVIEW
 70
     1
  9
$SHADEDGE
 70
     3
  9
$SHADEDIF
 70
    70
  9
$TILEMODE
 70
     1
  9
$MAXACTVP
 70
    16
  9
$PLIMCHECK
 70
     0
  9
$PEXTMIN
 10
-0.0000000000001137
 20
-0.0000000000001188
 30
-0.0000000000009095
  9
$PEXTMAX
 10
419.5
 20
593.5000000000001137
 30
0.0000000000000932
  9
$PLIMMIN
 10
-0.2499982752988217
 20
-0.2499991551693483
  9
$PLIMMAX
 10
419.7500017247011215
 20
593.7500008448306517
  9
$UNITMODE
 70
     0
  9
$VISRETAIN
 70
     0
  9
$PLINEGEN
 70
     0
  9
$PSLTSCALE
 70
     0
  0
ENDSEC
  0
SECTION
  2
TABLES
  0
TABLE
  2
VPORT
 70
     1
  0
VPORT
  2
*ACTIVE
 70
     0
 10
0.0
 20
0.0
 11
1.0
 21
1.0
 12
-0.0000007769217518
 22
-195.6888955695598895
 13
0.0
 23
0.0
 14
1.0
 24
1.0
 15
10.0
 25
10.0
 16
-0.0000000000004071
 26
0.0
 36
1833.2958620872909705
 17
0.0
 27
0.75
 37
0.0
 40
713.7826342640521489
 41
1.8847807394668961
 42
50.0
 43
0.0
 44
0.0
 50
0.0
 51
0.0
 71
     0
 72
  1500
 73
     1
 74
     0
 75
     0
 76
     0
 77
     0
 78
     0
  0
ENDTAB
  0
TABLE
  2
LTYPE
 70
     3
  0
LTYPE
  2
CONTINUOUS
 70
     0
  3
Solid line
 72
    65
 73
     0
 40
0.0
  0
LTYPE
  2
STRICHPUNKT
 70
     0
  3
__ . __ . __ . __ . __ . __ . __ . __ . __ . __
 72
    65
 73
     4
 40
1.0
 49
0.5
 49
-0.25
 49
0.0
 49
-0.25
  0
LTYPE
  2
VERDECKT
 70
     0
  3
Verdeckt __ __ __ __ __ __ __ __ __ __ __ __ __
 72
    65
 73
     2
 40
0.375
 49
0.25
 49
-0.125
  0
ENDTAB
  0
TABLE
  2
LAYER
 70
     7
  0
LAYER
  2
0
 70
     0
 62
     7
  6
CONTINUOUS
  0
LAYER
  2
STEMPEL
 70
     0
 62
     3
  6
CONTINUOUS
  0
LAYER
  2
ADSK_ASSOC_ENTITY_BACKUPS
 70
     1
 62
    -7
  6
CONTINUOUS
  0
ENDTAB
  0
TABLE
  2
STYLE
 70
     2
  0
STYLE
  2
STANDARD
 70
     0
 40
0.0
 41
0.8
 50
0.0
 71
     0
 42
3.5
  3
simplex.shx
  4

  0
ENDTAB
  0
TABLE
  2
VIEW
 70
     0
  0
ENDTAB
  0
TABLE
  2
UCS
 70
     0
  0
ENDTAB
  0
TABLE
  2
APPID
 70
    30
  0
APPID
  2
ACAD
 70
     0
  0
APPID
  2
ACAECLAYERSTANDARD
 70
     0
  0
APPID
  2
ACCMTRANSPARENCY
 70
     0
  0
APPID
  2
ACAD_NAV_VCDISPLAY
 70
     0
  0
APPID
  2
ACAD_PSEXT
 70
     0
  0
APPID
  2
ACAD_STEPID
 70
     0
  0
APPID
  2
ACAD_EXEMPT_FROM_CAD_STANDARDS
 70
     0
  0
APPID
  2
ACSYNERGY
 70
     0
  0
APPID
  2
SYNERGY_BODY_TBR_ID
 70
     0
  0
APPID
  2
ACAD_VIEW_EDGE_ID
 70
     0
  0
APPID
  2
GRADIENTCOLOR1ACI
 70
     0
  0
APPID
  2
GRADIENTCOLOR2ACI
 70
     0
  0
APPID
  2
ACAD_DSTYLE_DIMRADIAL_EXTENSION
 70
     0
  0
APPID
  2
ACADANNOMONITORALERTICONDI
 70
     0
  0
APPID
  2
ACAD_MLEADERVER
 70
     0
  0
APPID
  2
ACSYNERGYSKETCH
 70
     0
  0
APPID
  2
ACAD_MODELDOC_XFORM
 70
     0
  0
APPID
  2
ACDBDYNAMICBLOCKGUID
 70
     0
  0
APPID
  2
ACAD_DSTYLE_DIMJAG
 70
     0
  0
APPID
  2
ACAD_DSTYLE_DIMBREAK
 70
     0
  0
APPID
  2
ACAD_DSTYLE_DIMTALN
 70
     0
  0
APPID
  2
ACADANNOPO
 70
     0
  0
APPID
  2
PLOTTRANSPARENCY
 70
     0
  0
APPID
  2
ACADANNOTATIVE
 70
     0
  0
APPID
  2
ACAD_DIMASSOC_CALC_DIMLFAC
 70
     0
  0
APPID
  2
ACAD_DIMASSOC_DIMLFAC
 70
     0
  0
APPID
  2
ACAD_DIMASSOC_OVERRIDDEN_D
 70
     0
  0
APPID
  2
ACADANNOAV
 70
     0
  0
APPID
  2
ACAUTHENVIRON
 70
     0
  0
APPID
  2
ACDBDYNAMICBLOCKTRUENAME
 70
     0
  0
ENDTAB
  0
TABLE
  2
DIMSTYLE
 70
     1
  0
DIMSTYLE
  2
LORO
 70
     0
  3

  4

  5

  6

  7

 40
1.0
 41
3.5
 42
1.0
 43
0.38
 44
1.0
 45
0.0
 46
0.0
 47
0.0
 48
0.000000001
140
3.5
141
0.09
142
0.0
143
25.3999999999999986
144
2.0
145
0.0
146
0.5
147
1.5
 71
     0
 72
     0
 73
     0
 74
     0
 75
     0
 76
     0
 77
     1
 78
     8
170
     0
171
     2
172
     1
173
     0
174
     0
175
     0
176
     0
177
     0
178
     1
  0
ENDTAB
  0
ENDSEC
  0
SECTION
  2
BLOCKS
  0
BLOCK
  8
0
  2
$MODEL_SPACE
 70
     0
 10
0.0
 20
0.0
 30
0.0
  3
$MODEL_SPACE
  1

  0
ENDBLK
  5
38
  8
0
  0
BLOCK
 67
     1
  8
0
  2
$PAPER_SPACE
 70
     0
 10
0.0
 20
0.0
 30
0.0
  3
$PAPER_SPACE
  1

  0
ENDBLK
  5
36
 67
     1
  8
0
  0
BLOCK
  8
0
  2
*S0
 70
     1
 10
0.0
 20
0.0
 30
0.0
  3
*S0
  1

  0
ENDBLK
  5
7128
  8
0
  0
BLOCK
  8
0
  2
A$CB397F7B6
 70
     0
 10
0.0
 20
0.0
 30
0.0
  3
A$CB397F7B6
  1

  0
LINE
  5
14AEB
  8
0
  6
CONTINUOUS
 62
     3
 10
-250.0
 20
-250.0
 30
-0.0000000000000568
 11
250.0
 21
-250.0
 31
0.0000000000000542
  0
LINE
  5
14AEC
  8
0
  6
CONTINUOUS
 62
     3
 10
250.0
 20
250.0
 30
0.0000000000000568
 11
-250.0
 21
250.0
 31
-0.0000000000000542
  0
LINE
  5
14AED
  8
0
  6
CONTINUOUS
 62
     3
 10
250.0
 20
-250.0
 30
0.0000000000000568
 11
250.0
 21
250.0
 31
0.0000000000000568
  0
LINE
  5
14AEE
  8
0
  6
CONTINUOUS
 62
     3
 10
-250.0
 20
-250.0
 30
-0.0000000000000568
 11
-250.0
 21
250.0
 31
-0.0000000000000568
  0
CIRCLE
  5
14AEF
  8
0
  6
CONTINUOUS
 62
     3
 10
0.00000000000004
 20
-0.000000000000002
 30
0.0
 40
83.3788868248699941
  0
CIRCLE
  5
14AF0
  8
0
  6
CONTINUOUS
 62
     3
 10
0.000000000000049
 20
-0.0000000000000015
 30
0.0
 40
62.5
  0
CIRCLE
  5
14AF1
  8
0
  6
CONTINUOUS
 62
     3
 10
0.0000000000000528
 20
0.0000000000000037
 30
0.0
 40
70.3000000000001819
  0
CIRCLE
  5
14AF2
  8
0
  6
CONTINUOUS
 62
     3
 10
0.0000000000000522
 20
0.0000000000000029
 30
0.0
 40
80.8776168465819865
  0
CIRCLE
  5
14AF3
  8
0
  6
VERDECKT
 62
     1
 10
0.0000000000004356
 20
-0.000000000000001
 30
0.0
 40
88.4999999999999716
  0
CIRCLE
  5
14AF4
  8
0
  6
VERDECKT
 62
     1
 10
0.0000000000004391
 20
0.0
 30
0.0
 40
165.0
  0
CIRCLE
  5
14AF5
  8
0
  6
VERDECKT
 62
     1
 10
0.0000000000004314
 20
-0.0000000000000021
 30
0.0
 40
76.0000000000000284
  0
CIRCLE
  5
14AF6
  8
0
  6
VERDECKT
 62
     1
 10
0.0000000000004379
 20
-0.0000000000000003
 30
0.0
 40
85.2984366404583056
  0
CIRCLE
  5
14AF7
  8
0
  6
VERDECKT
 62
     1
 10
0.0000000000004379
 20
-0.0000000000000003
 30
0.0
 40
86.7984366404583056
  0
CIRCLE
  5
14AF8
  8
0
  6
VERDECKT
 62
     1
 10
0.0000000000002477
 20
0.0000000000000005
 30
0.0
 40
63.0124070244751167
  0
CIRCLE
  5
14AF9
  8
0
  6
VERDECKT
 62
     1
 10
0.0000000000002647
 20
-0.0000000000000179
 30
0.0
 40
64.0
  0
CIRCLE
  5
14AFA
  8
0
  6
VERDECKT
 62
     1
 10
0.0000000000002477
 20
0.0
 30
0.0
 40
65.5
  0
CIRCLE
  5
14AFB
  8
0
  6
VERDECKT
 62
     1
 10
0.0000000000002647
 20
-0.0000000000000179
 30
0.0
 40
66.5
  0
CIRCLE
  5
14AFC
  8
0
  6
VERDECKT
 62
     1
 10
0.0000000000002746
 20
-0.0000000000000152
 30
0.0
 40
80.0
  0
CIRCLE
  5
14AFD
  8
0
  6
VERDECKT
 62
     1
 10
0.0000000000002748
 20
-0.0000000000000151
 30
0.0
 40
77.6143213871781086
  0
CIRCLE
  5
14AFE
  8
0
  6
VERDECKT
 62
     1
 10
0.0000000000000341
 20
-0.00000000000001
 30
0.0
 40
70.5
  0
CIRCLE
  5
14AFF
  8
0
  6
VERDECKT
 62
     1
 10
0.0000000000000378
 20
-0.000000000000005
 30
0.0
 40
85.0
  0
CIRCLE
  5
14B00
  8
0
  6
VERDECKT
 62
     1
 10
0.0000000000000378
 20
-0.000000000000005
 30
0.0
 40
87.0
  0
CIRCLE
  5
14B01
  8
0
  6
VERDECKT
 62
     1
 10
0.00000000000004
 20
-0.000000000000002
 30
0.0
 40
85.3788868248698947
  0
CIRCLE
  5
14B02
  8
0
  6
VERDECKT
 62
     1
 10
0.0000000000000483
 20
-0.0000000000000024
 30
0.0
 40
71.7320508075690668
  0
CIRCLE
  5
14B03
  8
0
  6
VERDECKT
 62
     1
 10
0.0000000000000486
 20
-0.0000000000000021
 30
0.0
 40
70.0
  0
CIRCLE
  5
14B04
  8
0
  6
VERDECKT
 62
     1
 10
0.000000000000052
 20
0.0000000000000027
 30
0.0
 40
85.0
  0
CIRCLE
  5
14B05
  8
0
  6
VERDECKT
 62
     1
 10
0.0000000000000546
 20
0.0000000000000062
 30
0.0
 40
73.0
  0
CIRCLE
  5
14B06
  8
0
  6
VERDECKT
 62
     1
 10
0.0000000000000546
 20
0.0000000000000062
 30
0.0
 40
75.0
  0
CIRCLE
  5
14B07
  8
0
  6
VERDECKT
 62
     1
 10
0.0000000000000546
 20
0.0
 30
0.0
 40
73.0
  0
CIRCLE
  5
14B08
  8
0
  6
VERDECKT
 62
     1
 10
0.0000000000000546
 20
0.0
 30
0.0
 40
75.0
  0
ENDBLK
  5
14B0A
  8
0
  0
BLOCK
  8
0
  2
A$CAF4A5D20
 70
     0
 10
0.0
 20
0.0
 30
0.0
  3
A$CAF4A5D20
  1

  0
LINE
  5
14BB7
  8
0
  6
CONTINUOUS
 62
     3
 10
-164.999999999999801
 20
156.5099999999999909
 30
-0.0000000000000348
 11
165.0000000000001137
 21
156.5099999999999909
 31
-0.0000000000000348
210
0.0
220
1.0
230
-0.0000000000000002
  0
LINE
  5
14BB8
  8
0
  6
CONTINUOUS
 62
     3
 10
-75.9999999999998579
 20
122.0099999999999056
 30
-0.0000000000000271
 11
76.0000000000001705
 21
122.0099999999999056
 31
-0.0000000000000271
210
0.0
220
1.0
230
-0.0000000000000002
  0
ARC
  5
14BB9
  8
0
  6
CONTINUOUS
 62
     3
 10
87.4999999999996589
 20
142.4225113364738888
 30
0.0
 40
1.0000000000001561
210
0.0
220
-0.0000000000000002
230
-1.0
 50
0.0000000000032569
 51
10.0000000000001901
  0
ARC
  5
14BBA
  8
0
  6
CONTINUOUS
 62
     3
 10
-87.4999999999994742
 20
142.4225113364738888
 30
0.0
 40
1.0000000000006559
210
0.0
220
-0.0000000000000002
230
-1.0
 50
170.0000000000013927
 51
179.9999999999951115
  0
LINE
  5
14BBB
  8
0
  6
CONTINUOUS
 62
     3
 10
88.5000000000001279
 20
142.4225113364740025
 30
-0.0000000000000316
 11
88.5000000000001279
 21
138.7779491924310094
 31
-0.0000000000000308
210
0.0
220
1.0
230
-0.0000000000000002
  0
LINE
  5
14BBC
  8
0
  6
CONTINUOUS
 62
     3
 10
-88.4999999999998153
 20
142.4225113364740025
 30
-0.0000000000000316
 11
-88.4999999999998153
 21
138.7779491924310094
 31
-0.0000000000000308
210
0.0
220
1.0
230
-0.0000000000000002
  0
LINE
  5
14BBD
  8
0
  6
CONTINUOUS
 62
     3
 10
86.8592056284096401
 20
151.8154072893321995
 30
-0.0000000000000337
 11
88.4848077530123334
 21
142.5961595141409077
 31
-0.0000000000000317
210
0.0
220
1.0
230
-0.0000000000000002
  0
LINE
  5
14BBE
  8
0
  6
CONTINUOUS
 62
     3
 10
-86.8592056284093132
 20
151.8154072893321995
 30
-0.0000000000000337
 11
-88.4848077530120349
 21
142.5961595141409077
 31
-0.0000000000000317
210
0.0
220
1.0
230
-0.0000000000000002
  0
ARC
  5
14BBF
  8
0
  6
CONTINUOUS
 62
     3
 10
87.4999999999997442
 20
138.7779491924310094
 30
0.0
 40
1.0000000000000571
210
0.0
220
-0.0000000000000002
230
-1.0
 50
330.0000000000018758
 51
0.0
  0
ARC
  5
14BC0
  8
0
  6
CONTINUOUS
 62
     3
 10
-87.5000000000000568
 20
138.7779491924310094
 30
0.0
 40
1.0000000000000711
210
0.0
220
-0.0000000000000002
230
-1.0
 50
180.0
 51
209.9999999999980957
  0
LINE
  5
14BC1
  8
0
  6
CONTINUOUS
 62
     3
 10
-81.0586071770340055
 20
125.6211295515446977
 30
-0.0000000000000279
 11
-88.3660254037842492
 21
138.2779491924310094
 31
-0.0000000000000307
210
0.0
220
1.0
230
-0.0000000000000002
  0
LINE
  5
14BC2
  8
0
  6
CONTINUOUS
 62
     3
 10
81.0586071770343466
 20
125.6211295515446977
 30
-0.0000000000000279
 11
88.3660254037845476
 21
138.2779491924310094
 31
-0.0000000000000307
210
0.0
220
1.0
230
-0.0000000000000002
  0
LINE
  5
14BC3
  8
0
  6
CONTINUOUS
 62
     3
 10
165.0000000000001137
 20
158.0099999999999056
 30
-0.0000000000000351
 11
165.0000000000001137
 21
156.5099999999999909
 31
-0.0000000000000348
210
0.0
220
1.0
230
-0.0000000000000002
  0
LINE
  5
14BC4
  8
0
  6
CONTINUOUS
 62
     3
 10
-164.999999999999801
 20
158.0099999999999056
 30
-0.0000000000000351
 11
-164.999999999999801
 21
156.5099999999999909
 31
-0.0000000000000348
210
0.0
220
1.0
230
-0.0000000000000002
  0
ARC
  5
14BC5
  8
0
  6
CONTINUOUS
 62
     3
 10
90.7984366404581493
 20
152.5099999999999056
 30
0.0
 40
4.0000000000000284
210
0.0
220
-0.0000000000000002
230
-1.0
 50
90.0000000000001847
 51
189.9999999999992895
  0
ARC
  5
14BC6
  8
0
  6
CONTINUOUS
 62
     3
 10
-90.7984366404584762
 20
152.5099999999999056
 30
0.0
 40
4.0000000000000151
210
0.0
220
-0.0000000000000002
230
-1.0
 50
350.0000000000006253
 51
89.9999999999998153
  0
ARC
  5
14BC7
  8
0
  6
CONTINUOUS
 62
     3
 10
74.5634166486507723
 20
129.3711295515446977
 30
0.0
 40
7.49999999999996
210
0.0
220
-0.0000000000000002
230
-1.0
 50
281.0429300845872831
 51
330.0000000000001137
  0
ARC
  5
14BC8
  8
0
  6
CONTINUOUS
 62
     3
 10
-74.563416648651085
 20
129.3711295515446977
 30
0.0
 40
7.49999999999996
210
0.0
220
-0.0000000000000002
230
-1.0
 50
210.0
 51
258.9570699154127169
  0
LINE
  5
14BC9
  8
0
  6
CONTINUOUS
 62
     3
 10
65.5
 20
0.0
 30
0.0
 11
-65.5
 21
0.0
 31
0.0
210
0.0
220
1.0
230
-0.0000000000000002
  0
LINE
  5
14BCA
  8
0
  6
CONTINUOUS
 62
     3
 10
-80.0
 20
121.2526462977117063
 30
-0.0000000000000269
 11
80.0
 21
121.2526462977117063
 31
-0.0000000000000269
210
0.0
220
1.0
230
-0.0000000000000002
  0
LINE
  5
14BCB
  8
0
  6
CONTINUOUS
 62
     3
 10
-77.6143213871780375
 20
122.0
 30
-0.0000000000000271
 11
77.6143213871780375
 21
122.0
 31
-0.0000000000000271
210
0.0
220
1.0
230
-0.0000000000000002
  0
ARC
  5
14BCC
  8
0
  6
CONTINUOUS
 62
     3
 10
-65.5000000000046185
 20
10.0498756211206697
 30
0.0
 40
0.9999999999953814
210
0.0
220
-0.0000000000000002
230
-1.0
 50
179.9999999999886029
 51
185.7105931375153034
  0
ARC
  5
14BCD
  8
0
  6
CONTINUOUS
 62
     3
 10
65.5000000000046185
 20
10.0498756211206697
 30
0.0
 40
0.9999999999953816
210
0.0
220
-0.0000000000000002
230
-1.0
 50
354.289406862484725
 51
0.0000000000113991
  0
LINE
  5
14BCE
  8
0
  6
CONTINUOUS
 62
     3
 10
-65.5
 20
0.0
 30
0.0
 11
-66.4950371902099846
 21
9.9503719020998602
 31
-0.0000000000000022
210
0.0
220
1.0
230
-0.0000000000000002
  0
LINE
  5
14BCF
  8
0
  6
CONTINUOUS
 62
     3
 10
65.5
 20
0.0
 30
0.0
 11
66.4950371902099846
 21
9.9503719020998602
 31
-0.0000000000000022
210
0.0
220
1.0
230
-0.0000000000000002
  0
LINE
  5
14BD0
  8
0
  6
CONTINUOUS
 62
     3
 10
-66.5
 20
10.0498756211208704
 30
-0.0000000000000022
 11
-66.5
 21
76.7051792157361234
 31
-0.000000000000017
210
0.0
220
1.0
230
-0.0000000000000002
  0
LINE
  5
14BD1
  8
0
  6
CONTINUOUS
 62
     3
 10
66.5
 20
10.0498756211208704
 30
-0.0000000000000022
 11
66.5
 21
76.7051792157361234
 31
-0.000000000000017
210
0.0
220
1.0
230
-0.0000000000000002
  0
ARC
  5
14BD2
  8
0
  6
CONTINUOUS
 62
     3
 10
75.9999999999994742
 20
76.7051792157362087
 30
0.0
 40
9.4999999999994689
210
0.0
220
-0.0000000000000002
230
-1.0
 50
162.6059628876836882
 51
180.0000000000007958
  0
ARC
  5
14BD3
  8
0
  6
CONTINUOUS
 62
     3
 10
-75.9999999999994742
 20
76.7051792157362087
 30
0.0
 40
9.4999999999994742
210
0.0
220
-0.0000000000000002
230
-1.0
 50
359.9999999999992042
 51
17.3940371123163011
  0
LINE
  5
14BD4
  8
0
  6
CONTINUOUS
 62
     3
 10
-66.9344212712768609
 20
79.5451232844322789
 30
-0.0000000000000177
 11
-80.0
 21
121.2526462977117063
 31
-0.0000000000000269
210
0.0
220
1.0
230
-0.0000000000000002
  0
LINE
  5
14BD5
  8
0
  6
CONTINUOUS
 62
     3
 10
66.9344212712768609
 20
79.5451232844322789
 30
-0.0000000000000177
 11
80.0
 21
121.2526462977117063
 31
-0.0000000000000269
210
0.0
220
1.0
230
-0.0000000000000002
  0
LINE
  5
14BD6
  8
0
  6
CONTINUOUS
 62
     3
 10
77.6143213871780517
 20
122.0
 30
-0.0000000000000271
 11
80.0
 21
121.2526462977117063
 31
-0.0000000000000269
210
0.0
220
1.0
230
-0.0000000000000002
  0
LINE
  5
14BD7
  8
0
  6
CONTINUOUS
 62
     3
 10
-77.6143213871781086
 20
122.0
 30
-0.0000000000000271
 11
-80.0
 21
121.2526462977117063
 31
-0.0000000000000269
210
0.0
220
1.0
230
-0.0000000000000002
  0
LINE
  5
14BD8
  8
0
  6
CONTINUOUS
 62
     3
 10
-250.000000000000199
 20
158.009999999999792
 30
-0.0000000000000351
 11
-250.000000000000199
 21
160.0099999999999056
 31
-0.0000000000000355
210
0.0
220
1.0
230
-0.0000000000000002
  0
LINE
  5
14BD9
  8
0
  6
CONTINUOUS
 62
     3
 10
249.999999999999801
 20
158.009999999999792
 30
-0.0000000000000351
 11
-250.000000000000199
 21
158.009999999999792
 31
-0.0000000000000351
210
0.0
220
1.0
230
-0.0000000000000002
  0
LINE
  5
14BDA
  8
0
  6
CONTINUOUS
 62
     3
 10
249.999999999999801
 20
160.0099999999999056
 30
-0.0000000000000355
 11
249.999999999999801
 21
158.009999999999792
 31
-0.0000000000000351
210
0.0
220
1.0
230
-0.0000000000000002
  0
LINE
  5
14BDB
  8
0
  6
CONTINUOUS
 62
     3
 10
-250.000000000000199
 20
160.0099999999999056
 30
-0.0000000000000355
 11
249.999999999999801
 21
160.0099999999999056
 31
-0.0000000000000355
210
0.0
220
1.0
230
-0.0000000000000002
  0
LINE
  5
14BDC
  8
0
  6
VERDECKT
 62
     1
 10
-75.9999999999998579
 20
123.5456486036206059
 30
-0.0000000000000274
 11
76.000000000000199
 21
123.5456486036206059
 31
-0.0000000000000274
210
0.0
220
1.0
230
-0.0000000000000002
  0
ARC
  5
14BDD
  8
0
  6
VERDECKT
 62
     1
 10
85.9999999999988631
 20
142.291278341184892
 30
0.0
 40
1.0000000000009659
210
0.0
220
-0.0000000000000002
230
-1.0
 50
0.0000000000048853
 51
9.9999999999952358
  0
ARC
  5
14BDE
  8
0
  6
VERDECKT
 62
     1
 10
-85.99999999999919
 20
142.291278341184892
 30
0.0
 40
1.0000000000009639
210
0.0
220
-0.0000000000000002
230
-1.0
 50
170.0000000000046896
 51
179.9999999999951115
  0
LINE
  5
14BDF
  8
0
  6
VERDECKT
 62
     1
 10
87.0000000000001563
 20
142.2912783411850057
 30
-0.0000000000000316
 11
87.0000000000001563
 21
139.1798729810776933
 31
-0.0000000000000309
210
0.0
220
1.0
230
-0.0000000000000002
  0
LINE
  5
14BE0
  8
0
  6
VERDECKT
 62
     1
 10
-86.9999999999998437
 20
142.2912783411850057
 30
-0.0000000000000316
 11
-86.9999999999998437
 21
139.1798729810776933
 31
-0.0000000000000309
210
0.0
220
1.0
230
-0.0000000000000002
  0
LINE
  5
14BE1
  8
0
  6
VERDECKT
 62
     1
 10
85.3819939988912751
 20
151.5549350228318133
 30
-0.0000000000000337
 11
86.9848077530123618
 21
142.4649265188519109
 31
-0.0000000000000316
210
0.0
220
1.0
230
-0.0000000000000002
  0
LINE
  5
14BE2
  8
0
  6
VERDECKT
 62
     1
 10
-85.3819939988909766
 20
151.5549350228318133
 30
-0.0000000000000337
 11
-86.9848077530120349
 21
142.4649265188519109
 31
-0.0000000000000316
210
0.0
220
1.0
230
-0.0000000000000002
  0
ARC
  5
14BE3
  8
0
  6
VERDECKT
 62
     1
 10
85.9999999999997868
 20
139.179872981077807
 30
0.0
 40
1.0000000000000711
210
0.0
220
-0.0000000000000002
230
-1.0
 50
330.0000000000009095
 51
359.9999999999984084
  0
ARC
  5
14BE4
  8
0
  6
VERDECKT
 62
     1
 10
-86.0000000000000853
 20
139.179872981077807
 30
0.0
 40
1.0000000000000711
210
0.0
220
-0.0000000000000002
230
-1.0
 50
180.0000000000015916
 51
209.9999999999992042
  0
LINE
  5
14BE5
  8
0
  6
VERDECKT
 62
     1
 10
-79.7595690713573759
 20
126.3711295515446977
 30
-0.0000000000000281
 11
-86.866025403784306
 21
138.6798729810776933
 31
-0.0000000000000308
210
0.0
220
1.0
230
-0.0000000000000002
  0
LINE
  5
14BE6
  8
0
  6
VERDECKT
 62
     1
 10
79.7595690713577028
 20
126.3711295515446977
 30
-0.0000000000000281
 11
86.8660254037846045
 21
138.6798729810776933
 31
-0.0000000000000308
210
0.0
220
1.0
230
-0.0000000000000002
  0
ARC
  5
14BE7
  8
0
  6
VERDECKT
 62
     1
 10
90.7984366404581351
 20
152.5099999999999056
 30
0.0
 40
5.5
210
0.0
220
-0.0000000000000002
230
-1.0
 50
89.9999999999998437
 51
190.0000000000001137
  0
ARC
  5
14BE8
  8
0
  6
VERDECKT
 62
     1
 10
-90.7984366404584335
 20
152.5099999999999056
 30
0.0
 40
5.4999999999999858
210
0.0
220
-0.0000000000000002
230
-1.0
 50
349.9999999999997726
 51
90.0000000000001705
  0
LINE
  5
14BE9
  8
0
  6
VERDECKT
 62
     1
 10
76.0000000000001705
 20
123.5456486036206059
 30
-0.0000000000000274
 11
76.0000000000001705
 21
122.0099999999999056
 31
-0.0000000000000271
210
0.0
220
1.0
230
-0.0000000000000002
  0
LINE
  5
14BEA
  8
0
  6
VERDECKT
 62
     1
 10
-75.9999999999998579
 20
123.5456486036206059
 30
-0.0000000000000274
 11
-75.9999999999998579
 21
122.0099999999999056
 31
-0.0000000000000271
210
0.0
220
1.0
230
-0.0000000000000002
  0
ARC
  5
14BEB
  8
0
  6
VERDECKT
 62
     1
 10
74.5634166486507013
 20
129.3711295515448114
 30
0.0
 40
6.0000000000000711
210
0.0
220
-0.0000000000000002
230
-1.0
 50
283.8529339154619038
 51
329.9999999999998863
  0
ARC
  5
14BEC
  8
0
  6
VERDECKT
 62
     1
 10
-74.5634166486510139
 20
129.3711295515448114
 30
0.0
 40
6.0000000000000639
210
0.0
220
-0.0000000000000002
230
-1.0
 50
210.0
 51
256.1470660845380962
  0
LINE
  5
14BED
  8
0
  6
VERDECKT
 62
     1
 10
63.0124070244751096
 20
0.2487592975525104
 30
-0.0000000000000001
 11
-63.0124070244751096
 21
0.2487592975525104
 31
-0.0000000000000001
210
0.0
220
1.0
230
-0.0000000000000002
  0
ARC
  5
14BEE
  8
0
  6
VERDECKT
 62
     1
 10
-62.9999999999989129
 20
10.1745646739221201
 30
0.0
 40
1.0000000000010869
210
0.0
220
-0.0000000000000002
230
-1.0
 50
180.0000000000048885
 51
185.7105931374989041
  0
ARC
  5
14BEF
  8
0
  6
VERDECKT
 62
     1
 10
62.9999999999989129
 20
10.1745646739221201
 30
0.0
 40
1.0000000000010869
210
0.0
220
-0.0000000000000002
230
-1.0
 50
354.2894068625009822
 51
359.9999999999951115
  0
LINE
  5
14BF0
  8
0
  6
VERDECKT
 62
     1
 10
-63.0124070244751167
 20
0.2487592975525104
 30
-0.0000000000000001
 11
-63.9950371902099775
 21
10.0750609549010193
 31
-0.0000000000000022
210
0.0
220
1.0
230
-0.0000000000000002
  0
LINE
  5
14BF1
  8
0
  6
VERDECKT
 62
     1
 10
63.0124070244751167
 20
0.2487592975525104
 30
-0.0000000000000001
 11
63.9950371902099775
 21
10.0750609549010193
 31
-0.0000000000000022
210
0.0
220
1.0
230
-0.0000000000000002
  0
LINE
  5
14BF2
  8
0
  6
VERDECKT
 62
     1
 10
-64.0
 20
10.1745646739220295
 30
-0.0000000000000023
 11
-64.0
 21
76.7051792157361803
 31
-0.000000000000017
210
0.0
220
1.0
230
-0.0000000000000002
  0
LINE
  5
14BF3
  8
0
  6
VERDECKT
 62
     1
 10
64.0
 20
10.1745646739220295
 30
-0.0000000000000023
 11
64.0
 21
76.7051792157361803
 31
-0.000000000000017
210
0.0
220
1.0
230
-0.0000000000000002
  0
LINE
  5
14BF4
  8
0
  6
VERDECKT
 62
     1
 10
63.0124070244751167
 20
0.2487592975525104
 30
-0.0000000000000001
 11
65.5
 21
0.0
 31
0.0
210
0.0
220
1.0
230
-0.0000000000000002
  0
LINE
  5
14BF5
  8
0
  6
VERDECKT
 62
     1
 10
-63.0124070244751167
 20
0.2487592975525104
 30
-0.0000000000000001
 11
-65.5
 21
0.0
 31
0.0
210
0.0
220
1.0
230
-0.0000000000000002
  0
ARC
  5
14BF6
  8
0
  6
VERDECKT
 62
     1
 10
-76.0000000000000853
 20
76.7051792157361803
 30
0.0
 40
12.0000000000000799
210
0.0
220
-0.0000000000000002
230
-1.0
 50
0.0
 51
17.3940371123162407
  0
ARC
  5
14BF7
  8
0
  6
VERDECKT
 62
     1
 10
75.9999999999997726
 20
76.7051792157362087
 30
0.0
 40
11.9999999999997708
210
0.0
220
-0.0000000000000002
230
-1.0
 50
162.6059628876836882
 51
180.0
  0
LINE
  5
14BF8
  8
0
  6
VERDECKT
 62
     1
 10
-64.5487426584549837
 20
80.2924769867207857
 30
-0.0000000000000178
 11
-77.6143213871781086
 21
122.0
 31
-0.0000000000000271
210
0.0
220
1.0
230
-0.0000000000000002
  0
LINE
  5
14BF9
  8
0
  6
VERDECKT
 62
     1
 10
64.5487426584549837
 20
80.2924769867207857
 30
-0.0000000000000178
 11
77.6143213871781086
 21
122.0
 31
-0.0000000000000271
210
0.0
220
1.0
230
-0.0000000000000002
  0
LINE
  5
14BFA
  8
0
  6
VERDECKT
 62
     1
 10
-74.6905989232418506
 20
126.2253903091735054
 30
-0.000000000000028
 11
74.6905989232413958
 21
126.2253903091735054
 31
-0.000000000000028
210
0.0
220
1.0
230
-0.0000000000000002
  0
LINE
  5
14BFB
  8
0
  6
VERDECKT
 62
     1
 10
-85.0000000000002274
 20
140.0817967697242921
 30
-0.0000000000000311
 11
84.9999999999997584
 21
140.0817967697242921
 31
-0.0000000000000311
210
0.0
220
1.0
230
-0.0000000000000002
  0
LINE
  5
14BFC
  8
0
  6
VERDECKT
 62
     1
 10
-85.0000000000002274
 20
142.6600453458962932
 30
-0.0000000000000317
 11
84.9999999999997584
 21
142.6600453458962932
 31
-0.0000000000000317
210
0.0
220
1.0
230
-0.0000000000000002
  0
LINE
  5
14BFD
  8
0
  6
VERDECKT
 62
     1
 10
-87.0000000000002132
 20
142.8350226729480994
 30
-0.0000000000000317
 11
86.9999999999997584
 21
142.8350226729480994
 31
-0.0000000000000317
210
0.0
220
1.0
230
-0.0000000000000002
  0
LINE
  5
14BFE
  8
0
  6
VERDECKT
 62
     1
 10
-87.0000000000002132
 20
139.5458983848621131
 30
-0.000000000000031
 11
86.9999999999997584
 21
139.5458983848621131
 31
-0.000000000000031
210
0.0
220
1.0
230
-0.0000000000000002
  0
LINE
  5
14BFF
  8
0
  6
VERDECKT
 62
     1
 10
-74.6905989232418506
 20
124.2253903091736049
 30
-0.0000000000000276
 11
74.6905989232413958
 21
124.2253903091736049
 31
-0.0000000000000276
210
0.0
220
1.0
230
-0.0000000000000002
  0
LINE
  5
14C00
  8
0
  6
VERDECKT
 62
     1
 10
70.4999999999997442
 20
126.2253903091735054
 30
-0.000000000000028
 11
70.4999999999997442
 21
124.2253903091736049
 31
-0.0000000000000276
210
0.0
220
1.0
230
-0.0000000000000002
  0
LINE
  5
14C01
  8
0
  6
VERDECKT
 62
     1
 10
-70.5000000000002416
 20
126.2253903091735054
 30
-0.000000000000028
 11
-70.5000000000002416
 21
124.2253903091736049
 31
-0.0000000000000276
210
0.0
220
1.0
230
-0.0000000000000002
  0
ARC
  5
14C02
  8
0
  6
VERDECKT
 62
     1
 10
74.6905989232417795
 20
130.2253903091738891
 30
0.0
 40
4.000000000000397
210
0.0
220
-0.0000000000000002
230
-1.0
 50
270.0
 51
329.9999999999953957
  0
ARC
  5
14C03
  8
0
  6
VERDECKT
 62
     1
 10
-74.6905989232412963
 20
130.2253903091738891
 30
0.0
 40
4.0000000000004041
210
0.0
220
-0.0000000000000002
230
-1.0
 50
210.000000000002899
 51
269.9999999999988063
  0
LINE
  5
14C04
  8
0
  6
VERDECKT
 62
     1
 10
-78.1547005383797568
 20
128.2253903091734912
 30
-0.0000000000000285
 11
-85.0000000000002274
 21
140.0817967697242921
 31
-0.0000000000000311
210
0.0
220
1.0
230
-0.0000000000000002
  0
LINE
  5
14C05
  8
0
  6
VERDECKT
 62
     1
 10
78.1547005383792737
 20
128.2253903091734912
 30
-0.0000000000000285
 11
84.9999999999997442
 21
140.0817967697242921
 31
-0.0000000000000311
210
0.0
220
1.0
230
-0.0000000000000002
  0
LINE
  5
14C06
  8
0
  6
VERDECKT
 62
     1
 10
84.9999999999997584
 20
142.6600453458962932
 30
-0.0000000000000317
 11
84.9999999999997584
 21
140.0817967697242921
 31
-0.0000000000000311
210
0.0
220
1.0
230
-0.0000000000000002
  0
LINE
  5
14C07
  8
0
  6
VERDECKT
 62
     1
 10
-85.0000000000002416
 20
142.6600453458962932
 30
-0.0000000000000317
 11
-85.0000000000002416
 21
140.0817967697242921
 31
-0.0000000000000311
210
0.0
220
1.0
230
-0.0000000000000002
  0
LINE
  5
14C08
  8
0
  6
VERDECKT
 62
     1
 10
83.4928286772780979
 20
151.2076386674980029
 30
-0.0000000000000336
 11
84.9999999999997584
 21
142.6600453458962932
 31
-0.0000000000000317
210
0.0
220
1.0
230
-0.0000000000000002
  0
LINE
  5
14C09
  8
0
  6
VERDECKT
 62
     1
 10
-83.492828677278581
 20
151.2076386674980029
 30
-0.0000000000000336
 11
-85.0000000000002416
 21
142.6600453458962932
 31
-0.0000000000000317
210
0.0
220
1.0
230
-0.0000000000000002
  0
ARC
  5
14C0A
  8
0
  6
VERDECKT
 62
     1
 10
90.8788868248700652
 20
152.5099999999999056
 30
0.0
 40
7.4999999999998277
210
0.0
220
-0.0000000000000002
230
-1.0
 50
90.0
 51
190.0000000000001137
  0
ARC
  5
14C0B
  8
0
  6
VERDECKT
 62
     1
 10
-90.878886824869582
 20
152.5099999999999056
 30
0.0
 40
7.499999999999825
210
0.0
220
-0.0000000000000002
230
-1.0
 50
349.9999999999997726
 51
90.0000000000000284
  0
ARC
  5
14C0C
  8
0
  6
VERDECKT
 62
     1
 10
90.8788868248698236
 20
152.5099999999999056
 30
0.0
 40
5.4999999999997149
210
0.0
220
-0.0000000000000002
230
-1.0
 50
89.9999999999976268
 51
190.000000000000199
  0
ARC
  5
14C0D
  8
0
  6
VERDECKT
 62
     1
 10
-90.8788868248693547
 20
152.5099999999999056
 30
0.0
 40
5.4999999999997007
210
0.0
220
-0.0000000000000002
230
-1.0
 50
349.9999999999997726
 51
90.0000000000023732
  0
LINE
  5
14C0E
  8
0
  6
VERDECKT
 62
     1
 10
85.4624441833026225
 20
151.5549350228318133
 30
-0.0000000000000337
 11
86.9999999999998579
 21
142.8350226729480994
 31
-0.0000000000000317
210
0.0
220
1.0
230
-0.0000000000000002
  0
LINE
  5
14C0F
  8
0
  6
VERDECKT
 62
     1
 10
-85.4624441833031057
 20
151.5549350228318133
 30
-0.0000000000000337
 11
-87.0000000000003553
 21
142.8350226729480994
 31
-0.0000000000000317
210
0.0
220
1.0
230
-0.0000000000000002
  0
LINE
  5
14C10
  8
0
  6
VERDECKT
 62
     1
 10
86.9999999999997584
 20
142.8350226729480994
 30
-0.0000000000000317
 11
86.9999999999997584
 21
139.5458983848621131
 31
-0.000000000000031
210
0.0
220
1.0
230
-0.0000000000000002
  0
LINE
  5
14C11
  8
0
  6
VERDECKT
 62
     1
 10
-87.0000000000002416
 20
142.8350226729480994
 30
-0.0000000000000317
 11
-87.0000000000002416
 21
139.5458983848621131
 31
-0.000000000000031
210
0.0
220
1.0
230
-0.0000000000000002
  0
LINE
  5
14C12
  8
0
  6
VERDECKT
 62
     1
 10
-79.8867513459484258
 20
127.2253903091736049
 30
-0.0000000000000282
 11
-87.0000000000002558
 21
139.5458983848621131
 31
-0.000000000000031
210
0.0
220
1.0
230
-0.0000000000000002
  0
LINE
  5
14C13
  8
0
  6
VERDECKT
 62
     1
 10
79.8867513459479426
 20
127.2253903091736049
 30
-0.0000000000000282
 11
86.9999999999997726
 21
139.5458983848621131
 31
-0.000000000000031
210
0.0
220
1.0
230
-0.0000000000000002
  0
ARC
  5
14C14
  8
0
  6
VERDECKT
 62
     1
 10
74.6905989232419074
 20
130.225390309173207
 30
0.0
 40
5.9999999999996021
210
0.0
220
-0.0000000000000002
230
-1.0
 50
270.0
 51
330.000000000002899
  0
ARC
  5
14C15
  8
0
  6
VERDECKT
 62
     1
 10
-74.6905989232414242
 20
130.225390309173207
 30
0.0
 40
5.9999999999996136
210
0.0
220
-0.0000000000000002
230
-1.0
 50
209.9999999999971863
 51
270.0000000000003979
  0
LINE
  5
14C16
  8
0
  6
VERDECKT
 62
     1
 10
-74.6905989232418506
 20
126.2253903091735054
 30
-0.000000000000028
 11
74.6905989232413958
 21
126.2253903091735054
 31
-0.000000000000028
210
0.0
220
1.0
230
-0.0000000000000002
  0
LINE
  5
14C17
  8
0
  6
VERDECKT
 62
     1
 10
-70.0000000000002274
 20
127.2253903091735054
 30
-0.0000000000000282
 11
69.9999999999997726
 21
127.2253903091735054
 31
-0.0000000000000282
210
0.0
220
1.0
230
-0.0000000000000002
  0
LINE
  5
14C18
  8
0
  6
VERDECKT
 62
     1
 10
-63.3218007376453897
 20
129.2253903091734912
 30
-0.0000000000000287
 11
63.3218007376449421
 21
129.2253903091734912
 31
-0.0000000000000287
210
0.0
220
1.0
230
-0.0000000000000002
  0
LINE
  5
14C19
  8
0
  6
VERDECKT
 62
     1
 10
-70.3000000000004093
 20
146.2253903091736049
 30
-0.0000000000000325
 11
70.2999999999999545
 21
146.2253903091736049
 31
-0.0000000000000325
210
0.0
220
1.0
230
-0.0000000000000002
  0
LINE
  5
14C1A
  8
0
  6
VERDECKT
 62
     1
 10
-74.992360324913534
 20
156.2253903091734912
 30
-0.0000000000000347
 11
74.9923603249130792
 21
156.2253903091734912
 31
-0.0000000000000347
210
0.0
220
1.0
230
-0.0000000000000002
  0
LINE
  5
14C1B
  8
0
  6
VERDECKT
 62
     1
 10
-80.8776168465821996
 20
143.5885664397154073
 30
-0.0000000000000319
 11
80.8776168465817449
 21
143.5885664397154073
 31
-0.0000000000000319
210
0.0
220
1.0
230
-0.0000000000000002
  0
LINE
  5
14C1C
  8
0
  6
VERDECKT
 62
     1
 10
-85.0000000000002274
 20
142.6600453458962079
 30
-0.0000000000000317
 11
84.9999999999997584
 21
142.6600453458962079
 31
-0.0000000000000317
210
0.0
220
1.0
230
-0.0000000000000002
  0
LINE
  5
14C1D
  8
0
  6
VERDECKT
 62
     1
 10
-85.0000000000002274
 20
140.0817967697242921
 30
-0.0000000000000311
 11
84.9999999999997584
 21
140.0817967697242921
 31
-0.0000000000000311
210
0.0
220
1.0
230
-0.0000000000000002
  0
LINE
  5
14C1E
  8
0
  6
VERDECKT
 62
     1
 10
-75.0000000000002274
 20
131.2253903091734912
 30
-0.0000000000000291
 11
74.9999999999997726
 21
131.2253903091734912
 31
-0.0000000000000291
210
0.0
220
1.0
230
-0.0000000000000002
  0
LINE
  5
14C1F
  8
0
  6
VERDECKT
 62
     1
 10
-75.0000000000002274
 20
154.2253903091734912
 30
-0.0000000000000342
 11
74.9999999999997726
 21
154.2253903091734912
 31
-0.0000000000000342
210
0.0
220
1.0
230
-0.0000000000000002
  0
LINE
  5
14C20
  8
0
  6
VERDECKT
 62
     1
 10
69.9999999999997868
 20
127.2253903091736049
 30
-0.0000000000000282
 11
71.7320508075688537
 21
126.2253903091735054
 31
-0.000000000000028
210
0.0
220
1.0
230
-0.0000000000000002
  0
LINE
  5
14C21
  8
0
  6
VERDECKT
 62
     1
 10
-70.0000000000002416
 20
127.2253903091736049
 30
-0.0000000000000282
 11
-71.7320508075693084
 21
126.2253903091735054
 31
-0.000000000000028
210
0.0
220
1.0
230
-0.0000000000000002
  0
LINE
  5
14C22
  8
0
  6
VERDECKT
 62
     1
 10
62.4999999999997726
 20
129.2253903091734912
 30
-0.0000000000000287
 11
62.4999999999997726
 21
127.2253903091735054
 31
-0.0000000000000282
210
0.0
220
1.0
230
-0.0000000000000002
  0
LINE
  5
14C23
  8
0
  6
VERDECKT
 62
     1
 10
-62.5000000000002274
 20
129.2253903091734912
 30
-0.0000000000000287
 11
-62.5000000000002274
 21
127.2253903091735054
 31
-0.0000000000000282
210
0.0
220
1.0
230
-0.0000000000000002
  0
ARC
  5
14C24
  8
0
  6
VERDECKT
 62
     1
 10
63.3218007376455887
 20
131.2253903091736049
 30
0.0
 40
2.0000000000001421
210
0.0
220
-0.0000000000000002
230
-1.0
 50
270.0
 51
350.000000000004718
  0
ARC
  5
14C25
  8
0
  6
VERDECKT
 62
     1
 10
-63.3218007376451411
 20
131.2253903091736049
 30
0.0
 40
2.0000000000001381
210
0.0
220
-0.0000000000000002
230
-1.0
 50
190.0000000000009948
 51
270.0000000000059117
  0
LINE
  5
14C26
  8
0
  6
VERDECKT
 62
     1
 10
-65.2914162436700281
 20
130.8780939538397092
 30
-0.0000000000000291
 11
-67.6332883674567711
 21
144.1595107533408111
 31
-0.000000000000032
210
0.0
220
1.0
230
-0.0000000000000002
  0
LINE
  5
14C27
  8
0
  6
VERDECKT
 62
     1
 10
65.2914162436695733
 20
130.8780939538397092
 30
-0.0000000000000291
 11
67.6332883674563163
 21
144.1595107533408111
 31
-0.000000000000032
210
0.0
220
1.0
230
-0.0000000000000002
  0
ARC
  5
14C28
  8
0
  6
VERDECKT
 62
     1
 10
70.0953077499877537
 20
143.725390309173406
 30
0.0
 40
2.5000000000004832
210
0.0
220
-0.0000000000000002
230
-1.0
 50
90.0000000000097771
 51
170.0000000000013927
  0
ARC
  5
14C29
  8
0
  6
VERDECKT
 62
     1
 10
-70.0953077499873132
 20
143.725390309173406
 30
0.0
 40
2.500000000000473
210
0.0
220
-0.0000000000000002
230
-1.0
 50
9.9999999999985398
 51
89.9999999999902371
  0
LINE
  5
14C2A
  8
0
  6
VERDECKT
 62
     1
 10
-70.300000000000523
 20
146.2253903091736049
 30
-0.0000000000000325
 11
-71.0151595871112704
 21
154.3997017946689994
 31
-0.0000000000000343
210
0.0
220
1.0
230
-0.0000000000000002
  0
LINE
  5
14C2B
  8
0
  6
VERDECKT
 62
     1
 10
70.3000000000000682
 20
146.2253903091736049
 30
-0.0000000000000325
 11
71.0151595871108157
 21
154.3997017946689994
 31
-0.0000000000000343
210
0.0
220
1.0
230
-0.0000000000000002
  0
ARC
  5
14C2C
  8
0
  6
VERDECKT
 62
     1
 10
73.0075489832949955
 20
154.2253903091732923
 30
0.0
 40
2.000000000000369
210
0.0
220
-0.0000000000000002
230
-1.0
 50
90.0000000000065086
 51
174.9999999999903935
  0
ARC
  5
14C2D
  8
0
  6
VERDECKT
 62
     1
 10
-73.007548983294555
 20
154.2253903091732923
 30
0.0
 40
2.0000000000003921
210
0.0
220
-0.0000000000000002
230
-1.0
 50
5.0000000000096003
 51
89.9999999999934914
  0
ARC
  5
14C2E
  8
0
  6
VERDECKT
 62
     1
 10
74.9923603249137329
 20
154.2253903091736902
 30
0.0
 40
1.9999999999998661
210
0.0
220
-0.0000000000000002
230
-1.0
 50
4.9999999999957101
 51
90.0000000000057128
  0
ARC
  5
14C2F
  8
0
  6
VERDECKT
 62
     1
 10
-74.9923603249132782
 20
154.2253903091736902
 30
0.0
 40
1.999999999999857
210
0.0
220
-0.0000000000000002
230
-1.0
 50
89.9999999999942872
 51
175.0000000000042917
  0
LINE
  5
14C30
  8
0
  6
VERDECKT
 62
     1
 10
76.9847497210969323
 20
154.3997017946689141
 30
-0.0000000000000343
 11
77.9118460028423669
 21
143.802942804040697
 31
-0.0000000000000319
210
0.0
220
1.0
230
-0.0000000000000002
  0
LINE
  5
14C31
  8
0
  6
VERDECKT
 62
     1
 10
-76.984749721097387
 20
154.3997017946689141
 30
-0.0000000000000343
 11
-77.9118460028428217
 21
143.802942804040697
 31
-0.0000000000000319
210
0.0
220
1.0
230
-0.0000000000000002
  0
ARC
  5
14C32
  8
0
  6
VERDECKT
 62
     1
 10
78.4894636570447375
 20
143.8177554290261071
 30
0.0
 40
0.5778075530007216
210
0.0
220
-0.0000000000000002
230
-1.0
 50
181.4689906342011909
 51
214.181062715157708
  0
ARC
  5
14C33
  8
0
  6
VERDECKT
 62
     1
 10
-78.4894636570442827
 20
143.8177554290261071
 30
0.0
 40
0.5778075530007213
210
0.0
220
-0.0000000000000002
230
-1.0
 50
325.8189372848423204
 51
358.5310093657988091
  0
ARC
  5
14C34
  8
0
  6
VERDECKT
 62
     1
 10
78.9330164086040327
 20
144.1189793047088017
 30
0.0
 40
1.1139743803008539
210
0.0
220
-0.0000000000000002
230
-1.0
 50
214.1810627152541997
 51
238.6197200379320975
  0
ARC
  5
14C35
  8
0
  6
VERDECKT
 62
     1
 10
-78.9330164086035637
 20
144.1189793047088017
 30
0.0
 40
1.1139743803008479
210
0.0
220
-0.0000000000000002
230
-1.0
 50
301.3802799620673909
 51
325.8189372847458003
  0
ARC
  5
14C36
  8
0
  6
VERDECKT
 62
     1
 10
79.2259949874586624
 20
144.5993269518025954
 30
0.0
 40
1.6766201922788091
210
0.0
220
-0.0000000000000002
230
-1.0
 50
238.6197200379513106
 51
255.8214067751885921
  0
ARC
  5
14C37
  8
0
  6
VERDECKT
 62
     1
 10
-79.2259949874582077
 20
144.5993269518025954
 30
0.0
 40
1.6766201922788091
210
0.0
220
-0.0000000000000002
230
-1.0
 50
284.1785932248113795
 51
301.3802799620486894
  0
ARC
  5
14C38
  8
0
  6
VERDECKT
 62
     1
 10
79.4183356254008714
 20
145.3606457215960006
 30
0.0
 40
2.461859767340826
210
0.0
220
-0.0000000000000002
230
-1.0
 50
255.8214067751854088
 51
269.9999999999956799
  0
ARC
  5
14C39
  8
0
  6
VERDECKT
 62
     1
 10
79.4183356254004735
 20
145.3606457215965122
 30
0.0
 40
2.4618597673413372
210
0.0
220
-0.0000000000000002
230
-1.0
 50
270.0
 51
284.1785932247971118
  0
ARC
  5
14C3A
  8
0
  6
VERDECKT
 62
     1
 10
-79.4183356254000188
 20
145.3606457215965122
 30
0.0
 40
2.461859767341334
210
0.0
220
-0.0000000000000002
230
-1.0
 50
255.8214067751979997
 51
269.9999999999949978
  0
ARC
  5
14C3B
  8
0
  6
VERDECKT
 62
     1
 10
-79.4183356254004593
 20
145.3606457215963133
 30
0.0
 40
2.4618597673411671
210
0.0
220
-0.0000000000000002
230
-1.0
 50
270.0
 51
284.1785932248081963
  0
LINE
  5
14C3C
  8
0
  6
VERDECKT
 62
     1
 10
-79.4183356254006867
 20
142.898785954255203
 30
-0.0000000000000317
 11
79.4183356254002319
 21
142.898785954255203
 31
-0.0000000000000317
210
0.0
220
1.0
230
-0.0000000000000002
  0
ARC
  5
14C3D
  8
0
  6
VERDECKT
 62
     1
 10
79.6106762633422562
 20
144.5993269518025954
 30
0.0
 40
1.6766201922788091
210
0.0
220
-0.0000000000000002
230
-1.0
 50
284.1785932248113795
 51
301.3802799620486894
  0
ARC
  5
14C3E
  8
0
  6
VERDECKT
 62
     1
 10
-79.6106762633418015
 20
144.5993269518025954
 30
0.0
 40
1.6766201922788091
210
0.0
220
-0.0000000000000002
230
-1.0
 50
238.6197200379513106
 51
255.8214067751885921
  0
ARC
  5
14C3F
  8
0
  6
VERDECKT
 62
     1
 10
79.9036548421977386
 20
144.1189793047076932
 30
0.0
 40
1.1139743802995861
210
0.0
220
-0.0000000000000002
230
-1.0
 50
301.380279962056477
 51
325.8189372848481753
  0
ARC
  5
14C40
  8
0
  6
VERDECKT
 62
     1
 10
-79.9036548421972839
 20
144.1189793047076932
 30
0.0
 40
1.1139743802995881
210
0.0
220
-0.0000000000000002
230
-1.0
 50
214.1810627151517963
 51
238.6197200379430114
  0
ARC
  5
14C41
  8
0
  6
VERDECKT
 62
     1
 10
80.3472075937624055
 20
143.8177554290228954
 30
0.0
 40
0.577807552993726
210
0.0
220
-0.0000000000000002
230
-1.0
 50
325.8189372849229812
 51
336.6309044965224757
  0
ARC
  5
14C42
  8
0
  6
VERDECKT
 62
     1
 10
-80.347207593761965
 20
143.8177554290228954
 30
0.0
 40
0.5778075529937273
210
0.0
220
-0.0000000000000002
230
-1.0
 50
203.3690955034774959
 51
214.1810627150769051
  0
ARC
  5
14C43
  8
0
  6
VERDECKT
 62
     1
 10
82.8565156073323124
 20
143.2988084463798089
 30
0.0
 40
2.0000000000000511
210
0.0
220
-0.0000000000000002
230
-1.0
 50
9.9999999999977032
 51
90.0000000000004263
  0
ARC
  5
14C44
  8
0
  6
VERDECKT
 62
     1
 10
82.8565156073322981
 20
143.2988084463798089
 30
0.0
 40
2.000000000000028
210
0.0
220
-0.0000000000000002
230
-1.0
 50
90.0
 51
171.6697277813048004
  0
ARC
  5
14C45
  8
0
  6
VERDECKT
 62
     1
 10
-82.8565156073318292
 20
143.2988084463798089
 30
0.0
 40
2.0000000000000271
210
0.0
220
-0.0000000000000002
230
-1.0
 50
8.3302722186951677
 51
90.0000000000004263
  0
ARC
  5
14C46
  8
0
  6
VERDECKT
 62
     1
 10
-82.8565156073318434
 20
143.2988084463798089
 30
0.0
 40
2.000000000000056
210
0.0
220
-0.0000000000000002
230
-1.0
 50
90.0
 51
170.0000000000023022
  0
LINE
  5
14C47
  8
0
  6
VERDECKT
 62
     1
 10
82.8565156073318434
 20
145.2988084463798941
 30
-0.0000000000000323
 11
-82.8565156073323124
 21
145.2988084463798089
 31
-0.0000000000000323
210
0.0
220
1.0
230
-0.0000000000000002
  0
LINE
  5
14C48
  8
0
  6
VERDECKT
 62
     1
 10
84.8261311133562685
 20
143.6461048017135909
 30
-0.0000000000000319
 11
84.9999999999997584
 21
142.6600453458962079
 31
-0.0000000000000317
210
0.0
220
1.0
230
-0.0000000000000002
  0
LINE
  5
14C49
  8
0
  6
VERDECKT
 62
     1
 10
-84.8261311133567091
 20
143.6461048017135909
 30
-0.0000000000000319
 11
-85.0000000000002274
 21
142.6600453458962079
 31
-0.0000000000000317
210
0.0
220
1.0
230
-0.0000000000000002
  0
LINE
  5
14C4A
  8
0
  6
VERDECKT
 62
     1
 10
84.9999999999997584
 20
142.6600453458962079
 30
-0.0000000000000317
 11
84.9999999999997584
 21
140.0817967697242921
 31
-0.0000000000000311
210
0.0
220
1.0
230
-0.0000000000000002
  0
LINE
  5
14C4B
  8
0
  6
VERDECKT
 62
     1
 10
-85.0000000000002274
 20
142.6600453458962079
 30
-0.0000000000000317
 11
-85.0000000000002274
 21
140.0817967697242921
 31
-0.0000000000000311
210
0.0
220
1.0
230
-0.0000000000000002
  0
LINE
  5
14C4C
  8
0
  6
VERDECKT
 62
     1
 10
-78.1547005383797568
 20
128.2253903091734912
 30
-0.0000000000000285
 11
-85.0000000000002274
 21
140.0817967697242921
 31
-0.0000000000000311
210
0.0
220
1.0
230
-0.0000000000000002
  0
LINE
  5
14C4D
  8
0
  6
VERDECKT
 62
     1
 10
78.1547005383793021
 20
128.2253903091734912
 30
-0.0000000000000285
 11
84.9999999999997584
 21
140.0817967697242921
 31
-0.0000000000000311
210
0.0
220
1.0
230
-0.0000000000000002
  0
ARC
  5
14C4E
  8
0
  6
VERDECKT
 62
     1
 10
74.6905989232415237
 20
130.2253903091740881
 30
0.0
 40
4.0000000000006528
210
0.0
220
-0.0000000000000002
230
-1.0
 50
270.0
 51
329.999999999992383
  0
ARC
  5
14C4F
  8
0
  6
VERDECKT
 62
     1
 10
-74.6905989232410974
 20
130.2253903091740881
 30
0.0
 40
4.000000000000659
210
0.0
220
-0.0000000000000002
230
-1.0
 50
210.0000000000036096
 51
269.9999999999956799
  0
LINE
  5
14C50
  8
0
  6
VERDECKT
 62
     1
 10
72.9999999999997726
 20
154.2253903091734912
 30
-0.0000000000000342
 11
72.9999999999997726
 21
131.2253903091734912
 31
-0.0000000000000291
210
0.0
220
1.0
230
-0.0000000000000002
  0
LINE
  5
14C51
  8
0
  6
VERDECKT
 62
     1
 10
-73.0000000000002132
 20
154.2253903091734912
 30
-0.0000000000000342
 11
-73.0000000000002132
 21
131.2253903091734912
 31
-0.0000000000000291
210
0.0
220
1.0
230
-0.0000000000000002
  0
LINE
  5
14C52
  8
0
  6
VERDECKT
 62
     1
 10
74.9999999999997726
 20
154.2253903091734912
 30
-0.0000000000000342
 11
74.9999999999997726
 21
131.2253903091734912
 31
-0.0000000000000291
210
0.0
220
1.0
230
-0.0000000000000002
  0
LINE
  5
14C53
  8
0
  6
VERDECKT
 62
     1
 10
-75.0000000000002274
 20
154.2253903091734912
 30
-0.0000000000000342
 11
-75.0000000000002274
 21
131.2253903091734912
 31
-0.0000000000000291
210
0.0
220
1.0
230
-0.0000000000000002
  0
LINE
  5
14C54
  8
0
  6
VERDECKT
 62
     1
 10
-75.0000000000002274
 20
131.2253903091734912
 30
-0.0000000000000291
 11
74.9999999999997726
 21
131.2253903091734912
 31
-0.0000000000000291
210
0.0
220
1.0
230
-0.0000000000000002
  0
LINE
  5
14C55
  8
0
  6
VERDECKT
 62
     1
 10
-75.0000000000002274
 20
154.2253903091734912
 30
-0.0000000000000342
 11
74.9999999999997726
 21
154.2253903091734912
 31
-0.0000000000000342
210
0.0
220
1.0
230
-0.0000000000000002
  0
LINE
  5
14C56
  8
0
  6
VERDECKT
 62
     1
 10
72.9999999999997726
 20
154.2253903091734912
 30
-0.0000000000000342
 11
72.9999999999997726
 21
131.2253903091734912
 31
-0.0000000000000291
210
0.0
220
1.0
230
-0.0000000000000002
  0
LINE
  5
14C57
  8
0
  6
VERDECKT
 62
     1
 10
-73.0000000000002132
 20
154.2253903091734912
 30
-0.0000000000000342
 11
-73.0000000000002132
 21
131.2253903091734912
 31
-0.0000000000000291
210
0.0
220
1.0
230
-0.0000000000000002
  0
LINE
  5
14C58
  8
0
  6
VERDECKT
 62
     1
 10
74.9999999999997726
 20
154.2253903091734912
 30
-0.0000000000000342
 11
74.9999999999997726
 21
131.2253903091734912
 31
-0.0000000000000291
210
0.0
220
1.0
230
-0.0000000000000002
  0
LINE
  5
14C59
  8
0
  6
VERDECKT
 62
     1
 10
-75.0000000000002274
 20
154.2253903091734912
 30
-0.0000000000000342
 11
-75.0000000000002274
 21
131.2253903091734912
 31
-0.0000000000000291
210
0.0
220
1.0
230
-0.0000000000000002
  0
ENDBLK
  5
14BB2
  8
0
  0
ENDSEC
  0
SECTION
  2
ENTITIES
  0
INSERT
  5
712A
  8
ADSK_ASSOC_ENTITY_BACKUPS
  2
*S0
 10
0.0
 20
0.0
 30
0.0
  0
INSERT
  5
14B0B
  8
STEMPEL
  2
A$CB397F7B6
 10
0.0
 20
-300.0
 30
0.0
  0
INSERT
  5
14BB3
  8
STEMPEL
  2
A$CAF4A5D20
 10
0.0
 20
0.0
 30
0.0
  0
VIEWPORT
  5
7108
 67
     1
  8
0
 10
209.7499991067907956
 20
296.7499998031000814
 30
0.0
 40
1124.3834380583718939
 41
596.5592784953863656
 68
     1
 69
     1
1001
ACAD
1000
MVIEW
1002
{
1070
    16
1010
0.0
1020
0.0
1030
0.0
1010
0.0
1020
0.0
1030
1.0
1040
0.0
1040
596.5592784953863656
1040
209.7499991067907956
1040
296.7499998031000814
1040
50.0
1040
0.0
1040
0.0
1070
     0
1070
  1500
1070
     1
1070
     1
1070
     0
1070
     0
1070
     0
1070
     0
1040
0.0
1040
0.0
1040
0.0
1040
10.0
1040
10.0
1040
10.0
1040
10.0
1070
     0
1002
{
1002
}
1002
}
  0
ENDSEC
  0
EOF
