  0
SECTION
  2
HEADER
  9
$ACADVER
  1
AC1009
  9
$INSBASE
 10
0.0
 20
0.0
 30
0.0
  9
$EXTMIN
 10
-250.0000014168294911
 20
-550.0000046239911171
 30
-0.0000000116415251
  9
$EXTMAX
 10
249.9999996148158061
 20
402.1100113593747096
 30
-0.0000000116415251
  9
$LIMMIN
 10
0.0
 20
0.0
  9
$LIMMAX
 10
594.0
 20
840.0
  9
$ORTHOMODE
 70
     1
  9
$REGENMODE
 70
     1
  9
$FILLMODE
 70
     1
  9
$QTEXTMODE
 70
     0
  9
$MIRRTEXT
 70
     1
  9
$DRAGMODE
 70
     2
  9
$LTSCALE
 40
10.0
  9
$OSMODE
 70
  1535
  9
$ATTMODE
 70
     1
  9
$TEXTSIZE
 40
3.5
  9
$TRACEWID
 40
1.0
  9
$TEXTSTYLE
  7
STANDARD
  9
$CLAYER
  8
STEMPEL
  9
$CELTYPE
  6
BYLAYER
  9
$CECOLOR
 62
   256
  9
$DIMSCALE
 40
1.0
  9
$DIMASZ
 40
3.5
  9
$DIMEXO
 40
1.0
  9
$DIMDLI
 40
0.38
  9
$DIMRND
 40
0.0
  9
$DIMDLE
 40
0.0
  9
$DIMEXE
 40
1.0
  9
$DIMTP
 40
0.0
  9
$DIMTM
 40
0.000000001
  9
$DIMTXT
 40
3.5
  9
$DIMCEN
 40
0.09
  9
$DIMTSZ
 40
0.0
  9
$DIMTOL
 70
     0
  9
$DIMLIM
 70
     0
  9
$DIMTIH
 70
     0
  9
$DIMTOH
 70
     0
  9
$DIMSE1
 70
     0
  9
$DIMSE2
 70
     0
  9
$DIMTAD
 70
     1
  9
$DIMZIN
 70
     8
  9
$DIMBLK
  1

  9
$DIMASO
 70
     1
  9
$DIMSHO
 70
     0
  9
$DIMPOST
  1

  9
$DIMAPOST
  1

  9
$DIMALT
 70
     0
  9
$DIMALTD
 70
     2
  9
$DIMALTF
 40
25.3999999999999986
  9
$DIMLFAC
 40
2.0
  9
$DIMTOFL
 70
     1
  9
$DIMTVP
 40
0.0
  9
$DIMTIX
 70
     0
  9
$DIMSOXD
 70
     0
  9
$DIMSAH
 70
     0
  9
$DIMBLK1
  1

  9
$DIMBLK2
  1

  9
$DIMSTYLE
  2
LORO
  9
$DIMCLRD
 70
     0
  9
$DIMCLRE
 70
     0
  9
$DIMCLRT
 70
     1
  9
$DIMTFAC
 40
0.5
  9
$DIMGAP
 40
1.5
  9
$LUNITS
 70
     2
  9
$LUPREC
 70
     2
  9
$SKETCHINC
 40
1.0
  9
$FILLETRAD
 40
4.0
  9
$AUNITS
 70
     0
  9
$AUPREC
 70
     0
  9
$MENU
  1
ACAD
  9
$ELEVATION
 40
0.0
  9
$PELEVATION
 40
0.0
  9
$THICKNESS
 40
0.0
  9
$LIMCHECK
 70
     0
  9
$BLIPMODE
 70
     0
  9
$CHAMFERA
 40
0.0
  9
$CHAMFERB
 40
0.0
  9
$SKPOLY
 70
     0
  9
$TDCREATE
 40
2455397.867048610933125
  9
$TDUPDATE
 40
2460864.5608333330601454
  9
$TDINDWG
 40
3.8264183101999998
  9
$TDUSRTIMER
 40
3.8264183101999998
  9
$USRTIMER
 70
     1
  9
$ANGBASE
 50
0.0
  9
$ANGDIR
 70
     0
  9
$PDMODE
 70
     0
  9
$PDSIZE
 40
0.0
  9
$PLINEWID
 40
0.0
  9
$COORDS
 70
     1
  9
$SPLFRAME
 70
     0
  9
$SPLINETYPE
 70
     6
  9
$SPLINESEGS
 70
     8
  9
$ATTDIA
 70
     1
  9
$ATTREQ
 70
     1
  9
$HANDLING
 70
     1
  9
$HANDSEED
  5
32653
  9
$SURFTAB1
 70
     6
  9
$SURFTAB2
 70
     6
  9
$SURFTYPE
 70
     6
  9
$SURFU
 70
     6
  9
$SURFV
 70
     6
  9
$UCSNAME
  2

  9
$UCSORG
 10
0.0
 20
0.0
 30
0.0
  9
$UCSXDIR
 10
1.0
 20
0.0
 30
0.0
  9
$UCSYDIR
 10
0.0
 20
1.0
 30
0.0
  9
$PUCSNAME
  2

  9
$PUCSORG
 10
0.0
 20
0.0
 30
0.0
  9
$PUCSXDIR
 10
1.0
 20
0.0
 30
0.0
  9
$PUCSYDIR
 10
0.0
 20
1.0
 30
0.0
  9
$USERI1
 70
     0
  9
$USERI2
 70
     0
  9
$USERI3
 70
     0
  9
$USERI4
 70
     0
  9
$USERI5
 70
     0
  9
$USERR1
 40
0.0
  9
$USERR2
 40
0.0
  9
$USERR3
 40
0.0
  9
$USERR4
 40
0.0
  9
$USERR5
 40
0.0
  9
$WORLDVIEW
 70
     1
  9
$SHADEDGE
 70
     3
  9
$SHADEDIF
 70
    70
  9
$TILEMODE
 70
     1
  9
$MAXACTVP
 70
    16
  9
$PLIMCHECK
 70
     0
  9
$PEXTMIN
 10
-0.0000000000001137
 20
-0.0000000000001216
 30
-0.0000000000009095
  9
$PEXTMAX
 10
419.5
 20
593.5000000000001137
 30
0.0000000000000932
  9
$PLIMMIN
 10
-0.2180004385788834
 20
-0.2290028722668467
  9
$PLIMMAX
 10
419.7819995614211166
 20
593.7709971277331533
  9
$UNITMODE
 70
     0
  9
$VISRETAIN
 70
     0
  9
$PLINEGEN
 70
     0
  9
$PSLTSCALE
 70
     0
  0
ENDSEC
  0
SECTION
  2
TABLES
  0
TABLE
  2
VPORT
 70
     1
  0
VPORT
  2
*ACTIVE
 70
     0
 10
0.0
 20
0.0
 11
1.0
 21
1.0
 12
-0.0000009010068425
 22
-149.9449966323082037
 13
0.0
 23
0.0
 14
1.0
 24
1.0
 15
10.0
 25
10.0
 16
-0.0000000000004721
 26
0.0
 36
2126.3394686828091835
 17
0.0
 27
76.0
 37
-0.0000000000000162
 40
957.0177995709091192
 41
1.8839208942390371
 42
49.9999999999999574
 43
0.0
 44
0.0
 50
0.0
 51
0.0
 71
     0
 72
  1500
 73
     1
 74
     0
 75
     0
 76
     0
 77
     0
 78
     0
  0
ENDTAB
  0
TABLE
  2
LTYPE
 70
     3
  0
LTYPE
  2
CONTINUOUS
 70
     0
  3
Solid line
 72
    65
 73
     0
 40
0.0
  0
LTYPE
  2
STRICHPUNKT
 70
     0
  3
__ . __ . __ . __ . __ . __ . __ . __ . __ . __
 72
    65
 73
     4
 40
1.0
 49
0.5
 49
-0.25
 49
0.0
 49
-0.25
  0
LTYPE
  2
VERDECKT
 70
     0
  3
Verdeckt __ __ __ __ __ __ __ __ __ __ __ __ __
 72
    65
 73
     2
 40
0.375
 49
0.25
 49
-0.125
  0
ENDTAB
  0
TABLE
  2
LAYER
 70
     7
  0
LAYER
  2
0
 70
     0
 62
     7
  6
CONTINUOUS
  0
LAYER
  2
STEMPEL
 70
     0
 62
     3
  6
CONTINUOUS
  0
LAYER
  2
ADSK_ASSOC_ENTITY_BACKUPS
 70
     1
 62
    -7
  6
CONTINUOUS
  0
ENDTAB
  0
TABLE
  2
STYLE
 70
     1
  0
STYLE
  2
STANDARD
 70
     0
 40
0.0
 41
0.8
 50
0.0
 71
     0
 42
3.5
  3
simplex.shx
  4

  0
ENDTAB
  0
TABLE
  2
VIEW
 70
     0
  0
ENDTAB
  0
TABLE
  2
UCS
 70
     0
  0
ENDTAB
  0
TABLE
  2
APPID
 70
    32
  0
APPID
  2
ACAD
 70
     0
  0
APPID
  2
ACAECLAYERSTANDARD
 70
     0
  0
APPID
  2
ACCMTRANSPARENCY
 70
     0
  0
APPID
  2
ACAD_NAV_VCDISPLAY
 70
     0
  0
APPID
  2
ACAD_PSEXT
 70
     0
  0
APPID
  2
ACAD_STEPID
 70
     0
  0
APPID
  2
ACAD_EXEMPT_FROM_CAD_STANDARDS
 70
     0
  0
APPID
  2
ACSYNERGY
 70
     0
  0
APPID
  2
SYNERGY_BODY_TBR_ID
 70
     0
  0
APPID
  2
ACAD_VIEW_EDGE_ID
 70
     0
  0
APPID
  2
GRADIENTCOLOR1ACI
 70
     0
  0
APPID
  2
GRADIENTCOLOR2ACI
 70
     0
  0
APPID
  2
ACAD_DSTYLE_DIMRADIAL_EXTENSION
 70
     0
  0
APPID
  2
ACADANNOMONITORALERTICONDI
 70
     0
  0
APPID
  2
ACAD_MLEADERVER
 70
     0
  0
APPID
  2
ACSYNERGYSKETCH
 70
     0
  0
APPID
  2
ACAD_MODELDOC_XFORM
 70
     0
  0
APPID
  2
ACDBDYNAMICBLOCKGUID
 70
     0
  0
APPID
  2
ACAD_DSTYLE_DIMJAG
 70
     0
  0
APPID
  2
ACAD_DSTYLE_DIMBREAK
 70
     0
  0
APPID
  2
ACAD_DSTYLE_DIMTALN
 70
     0
  0
APPID
  2
ACADANNOPO
 70
     0
  0
APPID
  2
PLOTTRANSPARENCY
 70
     0
  0
APPID
  2
ACADANNOTATIVE
 70
     0
  0
APPID
  2
ACAD_DIMASSOC_CALC_DIMLFAC
 70
     0
  0
APPID
  2
ACAD_DIMASSOC_DIMLFAC
 70
     0
  0
APPID
  2
ACAD_DIMASSOC_OVERRIDDEN_D
 70
     0
  0
APPID
  2
ACADANNOAV
 70
     0
  0
APPID
  2
ACAUTHENVIRON
 70
     0
  0
APPID
  2
ACDBDYNAMICBLOCKTRUENAME
 70
     0
  0
APPID
  2
ACDBDYNAMICBLOCKTRUENAME2
 70
     0
  0
APPID
  2
SYNERGY_EXCLUDED_FROM_SNAPSHOT
 70
     0
  0
ENDTAB
  0
TABLE
  2
DIMSTYLE
 70
     3
  0
DIMSTYLE
  2
LORO
 70
     0
  3

  4

  5

  6

  7

 40
1.0
 41
3.5
 42
1.0
 43
0.38
 44
1.0
 45
0.0
 46
0.0
 47
0.0
 48
0.000000001
140
3.5
141
0.09
142
0.0
143
25.3999999999999986
144
2.0
145
0.0
146
0.5
147
1.5
 71
     0
 72
     0
 73
     0
 74
     0
 75
     0
 76
     0
 77
     1
 78
     8
170
     0
171
     2
172
     1
173
     0
174
     0
175
     0
176
     0
177
     0
178
     1
  0
ENDTAB
  0
ENDSEC
  0
SECTION
  2
BLOCKS
  0
BLOCK
  8
0
  2
$MODEL_SPACE
 70
     0
 10
0.0
 20
0.0
 30
0.0
  3
$MODEL_SPACE
  1

  0
ENDBLK
  5
38
  8
0
  0
BLOCK
 67
     1
  8
0
  2
$PAPER_SPACE
 70
     0
 10
0.0
 20
0.0
 30
0.0
  3
$PAPER_SPACE
  1

  0
ENDBLK
  5
36
 67
     1
  8
0
  0
BLOCK
  8
0
  2
*S0
 70
     1
 10
0.0
 20
0.0
 30
0.0
  3
*S0
  1

  0
ENDBLK
  5
7128
  8
0
  0
BLOCK
  8
0
  2
A$CFC56A91C
 70
     0
 10
0.0
 20
0.0
 30
0.0
  3
A$CFC56A91C
  1

  0
LINE
  5
32530
  8
0
  6
CONTINUOUS
 62
     3
 10
-65.5
 20
0.000000000000004
 30
0.0
 11
65.5
 21
-0.000000000000004
 31
0.0
210
0.0
220
1.0
230
-0.0000000000000002
  0
LINE
  5
32531
  8
0
  6
CONTINUOUS
 62
     3
 10
-79.9031812686991856
 20
363.3847671425285739
 30
-0.0000000000000807
 11
79.9031812686992424
 21
363.3847671425285739
 31
-0.0000000000000807
210
0.0
220
1.0
230
-0.0000000000000002
  0
LINE
  5
32532
  8
0
  6
CONTINUOUS
 62
     3
 10
-77.9999999999999858
 20
363.9995037190211065
 30
-0.0000000000000808
 11
78.0000000000000426
 21
363.9995037190211065
 31
-0.0000000000000808
210
0.0
220
1.0
230
-0.0000000000000002
  0
ARC
  5
32533
  8
0
  6
CONTINUOUS
 62
     3
 10
65.5000000000050164
 20
10.0498756211207194
 30
0.0
 40
0.9999999999949837
210
0.0
220
-0.0000000000000002
230
-1.0
 50
354.2894068624833039
 51
0.0000000000116027
  0
ARC
  5
32534
  8
0
  6
CONTINUOUS
 62
     3
 10
-65.5000000000050164
 20
10.0498756211207105
 30
0.0
 40
0.9999999999949835
210
0.0
220
-0.0000000000000002
230
-1.0
 50
179.9999999999884039
 51
185.7105931375166108
  0
LINE
  5
32535
  8
0
  6
CONTINUOUS
 62
     3
 10
66.5000000000000284
 20
319.9995037190212201
 30
-0.0000000000000711
 11
66.5
 21
10.0498756211209201
 31
-0.0000000000000022
210
0.0
220
1.0
230
-0.0000000000000002
  0
LINE
  5
32536
  8
0
  6
CONTINUOUS
 62
     3
 10
-66.4999999999999716
 20
319.9995037190212201
 30
-0.0000000000000711
 11
-66.5
 21
10.0498756211209201
 31
-0.0000000000000022
210
0.0
220
1.0
230
-0.0000000000000002
  0
LINE
  5
32537
  8
0
  6
CONTINUOUS
 62
     3
 10
-65.5
 20
0.0000000000000036
 30
0.0
 11
-66.4950371902099846
 21
9.9503719020999242
 31
-0.0000000000000022
210
0.0
220
1.0
230
-0.0000000000000002
  0
LINE
  5
32538
  8
0
  6
CONTINUOUS
 62
     3
 10
65.5
 20
0.0
 30
0.0
 11
66.4950371902099846
 21
9.9503719020999188
 31
-0.0000000000000022
210
0.0
220
1.0
230
-0.0000000000000002
  0
LINE
  5
32539
  8
0
  6
CONTINUOUS
 62
     3
 10
78.0000000000000426
 20
363.9995037190212201
 30
-0.0000000000000808
 11
79.903181268699214
 21
363.3847671425285739
 31
-0.0000000000000807
210
0.0
220
1.0
230
-0.0000000000000002
  0
LINE
  5
3253A
  8
0
  6
CONTINUOUS
 62
     3
 10
-78.0
 20
363.9995037190211065
 30
-0.0000000000000808
 11
-79.9031812686991714
 21
363.3847671425285739
 31
-0.0000000000000807
210
0.0
220
1.0
230
-0.0000000000000002
  0
LINE
  5
3253B
  8
0
  6
CONTINUOUS
 62
     3
 10
-67.0809123878122762
 20
323.6879231779739143
 30
-0.0000000000000719
 11
-79.9031812686991998
 21
363.3847671425285739
 31
-0.0000000000000807
210
0.0
220
1.0
230
-0.0000000000000002
  0
LINE
  5
3253C
  8
0
  6
CONTINUOUS
 62
     3
 10
67.0809123878123046
 20
323.6879231779739143
 30
-0.0000000000000719
 11
79.903181268699214
 21
363.3847671425285739
 31
-0.0000000000000807
210
0.0
220
1.0
230
-0.0000000000000002
  0
ARC
  5
3253D
  8
0
  6
CONTINUOUS
 62
     3
 10
78.4999999999997442
 20
319.9995037190212201
 30
0.0
 40
12.0000000000000302
210
0.0
220
-0.0000000000000002
230
-1.0
 50
162.0992973175993939
 51
180.000000000000199
  0
ARC
  5
3253E
  8
0
  6
CONTINUOUS
 62
     3
 10
-78.5000000000008527
 20
319.9995037190209928
 30
0.0
 40
12.0000000000011102
210
0.0
220
-0.0000000000000002
230
-1.0
 50
0.0
 51
17.9007026823989293
  0
LINE
  5
3253F
  8
0
  6
CONTINUOUS
 62
     3
 10
-165.0000000000005116
 20
398.4999885901939933
 30
-0.0000000000000885
 11
164.9999999999994884
 21
398.4999885901939933
 31
-0.0000000000000885
210
0.0
220
1.0
230
-0.0000000000000002
  0
LINE
  5
32540
  8
0
  6
CONTINUOUS
 62
     3
 10
-76.0000000000004974
 20
363.9999885901938228
 30
-0.0000000000000808
 11
75.999999999999531
 21
363.9999885901938228
 31
-0.0000000000000808
210
0.0
220
1.0
230
-0.0000000000000002
  0
ARC
  5
32541
  8
0
  6
CONTINUOUS
 62
     3
 10
87.4999999999993463
 20
384.4124999266679197
 30
0.0
 40
1.000000000001122
210
0.0
220
-0.0000000000000002
230
-1.0
 50
0.0000000000065138
 51
9.9999999999970601
  0
ARC
  5
32542
  8
0
  6
CONTINUOUS
 62
     3
 10
-87.4999999999983658
 20
384.4124999266679197
 30
0.0
 40
1.000000000001128
210
0.0
220
-0.0000000000000002
230
-1.0
 50
170.000000000002899
 51
179.9999999999934914
  0
LINE
  5
32543
  8
0
  6
CONTINUOUS
 62
     3
 10
88.4999999999994884
 20
384.4124999266679765
 30
-0.0000000000000854
 11
88.4999999999994884
 21
380.7679377826249265
 31
-0.0000000000000845
210
0.0
220
1.0
230
-0.0000000000000002
  0
LINE
  5
32544
  8
0
  6
CONTINUOUS
 62
     3
 10
-88.5000000000004547
 20
384.4124999266679765
 30
-0.0000000000000854
 11
-88.5000000000004547
 21
380.7679377826249834
 31
-0.0000000000000845
210
0.0
220
1.0
230
-0.0000000000000002
  0
LINE
  5
32545
  8
0
  6
CONTINUOUS
 62
     3
 10
86.8592056284089864
 20
393.805395879526202
 30
-0.0000000000000874
 11
88.4848077530116939
 21
384.5861481043348817
 31
-0.0000000000000854
210
0.0
220
1.0
230
-0.0000000000000002
  0
LINE
  5
32546
  8
0
  6
CONTINUOUS
 62
     3
 10
-86.8592056284099669
 20
393.805395879526202
 30
-0.0000000000000874
 11
-88.4848077530126744
 21
384.5861481043348817
 31
-0.0000000000000854
210
0.0
220
1.0
230
-0.0000000000000002
  0
ARC
  5
32547
  8
0
  6
CONTINUOUS
 62
     3
 10
87.5000000000006253
 20
380.7679377826249265
 30
0.0
 40
0.9999999999998321
210
0.0
220
-0.0000000000000002
230
-1.0
 50
329.999999999998181
 51
0.0000000000032569
  0
ARC
  5
32548
  8
0
  6
CONTINUOUS
 62
     3
 10
-87.4999999999996447
 20
380.7679377826249265
 30
0.0
 40
0.9999999999998436
210
0.0
220
-0.0000000000000002
230
-1.0
 50
179.9999999999967031
 51
210.0000000000017906
  0
LINE
  5
32549
  8
0
  6
CONTINUOUS
 62
     3
 10
-81.058607177034645
 20
367.6111181417387002
 30
-0.0000000000000816
 11
-88.3660254037848887
 21
380.2679377826249265
 31
-0.0000000000000844
210
0.0
220
1.0
230
-0.0000000000000002
  0
LINE
  5
3254A
  8
0
  6
CONTINUOUS
 62
     3
 10
81.0586071770336787
 20
367.6111181417387002
 30
-0.0000000000000816
 11
88.3660254037839081
 21
380.2679377826249265
 31
-0.0000000000000844
210
0.0
220
1.0
230
-0.0000000000000002
  0
LINE
  5
3254B
  8
0
  6
CONTINUOUS
 62
     3
 10
164.9999999999994884
 20
399.9999885901938796
 30
-0.0000000000000888
 11
164.9999999999994884
 21
398.4999885901939933
 31
-0.0000000000000885
210
0.0
220
1.0
230
-0.0000000000000002
  0
LINE
  5
3254C
  8
0
  6
CONTINUOUS
 62
     3
 10
-165.0000000000003979
 20
399.9999885901938796
 30
-0.0000000000000888
 11
-165.0000000000003979
 21
398.4999885901938796
 31
-0.0000000000000885
210
0.0
220
1.0
230
-0.0000000000000002
  0
ARC
  5
3254D
  8
0
  6
CONTINUOUS
 62
     3
 10
90.7984366404587888
 20
394.4999885901938796
 30
0.0
 40
4.0
210
0.0
220
-0.0000000000000002
230
-1.0
 50
90.0
 51
189.9999999999984936
  0
ARC
  5
3254E
  8
0
  6
CONTINUOUS
 62
     3
 10
-90.7984366404577656
 20
394.4999885901938796
 30
0.0
 40
3.9999999999999498
210
0.0
220
-0.0000000000000002
230
-1.0
 50
349.9999999999996021
 51
90.00000000000081
  0
ARC
  5
3254F
  8
0
  6
CONTINUOUS
 62
     3
 10
74.5634166486512839
 20
371.3611181417387002
 30
0.0
 40
7.5000000000001226
210
0.0
220
-0.0000000000000002
230
-1.0
 50
281.0429300845880789
 51
329.9999999999996021
  0
ARC
  5
32550
  8
0
  6
CONTINUOUS
 62
     3
 10
-74.5634166486503887
 20
371.3611181417387002
 30
0.0
 40
7.5000000000000533
210
0.0
220
-0.0000000000000002
230
-1.0
 50
210.0000000000003126
 51
258.9570699154123758
  0
LINE
  5
32551
  8
0
  6
CONTINUOUS
 62
     3
 10
249.9999999999994031
 20
401.9999884091615741
 30
-0.0000000000000893
 11
-249.9999999985112993
 21
401.9999884091615741
 31
-0.0000000000000893
210
0.0
220
1.0
230
-0.0000000000000002
  0
LINE
  5
32552
  8
0
  6
CONTINUOUS
 62
     3
 10
-250.0000000000005969
 20
399.9999884091615741
 30
-0.0000000000000888
 11
250.0000000014887007
 21
399.9999884091615741
 31
-0.0000000000000888
210
0.0
220
1.0
230
-0.0000000000000002
  0
LINE
  5
32553
  8
0
  6
CONTINUOUS
 62
     3
 10
249.9999999999994031
 20
399.9999884091615741
 30
-0.0000000000000888
 11
249.9999999999994031
 21
401.9999884091615741
 31
-0.0000000000000893
210
0.0
220
1.0
230
-0.0000000000000002
  0
LINE
  5
32554
  8
0
  6
CONTINUOUS
 62
     3
 10
-250.0000000000005969
 20
401.9999884091615741
 30
-0.0000000000000893
 11
-250.0000000000005969
 21
399.9999884091615741
 31
-0.0000000000000888
210
0.0
220
1.0
230
-0.0000000000000002
  0
ARC
  5
32555
  8
0
  6
CONTINUOUS
 62
     3
 10
-90.7984366404615741
 20
394.5011723538399906
 30
0.0
 40
7.4988162363540019
210
0.0
220
-0.0000000000000002
230
-1.0
 50
89.9999999999697167
 51
90.0147021580063154
  0
ARC
  5
32556
  8
0
  6
CONTINUOUS
 62
     3
 10
90.7984366404627252
 20
394.5011723538399906
 30
0.0
 40
7.4988162363540027
210
0.0
220
-0.0000000000000002
230
-1.0
 50
89.9852978419937131
 51
90.0000000000302975
  0
LINE
  5
32557
  8
0
  6
VERDECKT
 62
     1
 10
-63.5099256195787021
 20
0.1990074380421487
 30
0.0
 11
63.5099256195787021
 21
0.1990074380421409
 31
0.0
210
0.0
220
1.0
230
-0.0000000000000002
  0
ARC
  5
32558
  8
0
  6
VERDECKT
 62
     1
 10
63.5000000000035811
 20
10.1496268633626094
 30
0.0
 40
0.9999999999950973
210
0.0
220
-0.0000000000000002
230
-1.0
 50
354.2894068624837018
 51
0.0000000000115009
  0
ARC
  5
32559
  8
0
  6
VERDECKT
 62
     1
 10
-63.5000000000035811
 20
10.1496268633626094
 30
0.0
 40
0.9999999999950973
210
0.0
220
-0.0000000000000002
230
-1.0
 50
179.9999999999884892
 51
185.7105931375162982
  0
LINE
  5
3255A
  8
0
  6
VERDECKT
 62
     1
 10
-63.5099256195786879
 20
0.1990074380421492
 30
0.0
 11
-64.495037190208663
 21
10.0501231443418106
 31
-0.0000000000000022
210
0.0
220
1.0
230
-0.0000000000000002
  0
LINE
  5
3255B
  8
0
  6
VERDECKT
 62
     1
 10
63.5099256195786879
 20
0.1990074380421323
 30
0.0
 11
64.495037190208663
 21
10.0501231443418106
 31
-0.0000000000000022
210
0.0
220
1.0
230
-0.0000000000000002
  0
LINE
  5
3255C
  8
0
  6
VERDECKT
 62
     1
 10
64.4999999999987068
 20
319.9995037190212201
 30
-0.0000000000000711
 11
64.4999999999986642
 21
10.1496268633628102
 31
-0.0000000000000023
210
0.0
220
1.0
230
-0.0000000000000002
  0
LINE
  5
3255D
  8
0
  6
VERDECKT
 62
     1
 10
-64.49999999999865
 20
319.9995037190212201
 30
-0.0000000000000711
 11
-64.4999999999986642
 21
10.1496268633628102
 31
-0.0000000000000023
210
0.0
220
1.0
230
-0.0000000000000002
  0
LINE
  5
3255E
  8
0
  6
VERDECKT
 62
     1
 10
63.5099256195787021
 20
0.1990074380421351
 30
0.0
 11
65.5
 21
0.0000000000000046
 31
0.0
210
0.0
220
1.0
230
-0.0000000000000002
  0
LINE
  5
3255F
  8
0
  6
VERDECKT
 62
     1
 10
-63.5099256195787021
 20
0.1990074380421429
 30
0.0
 11
-65.5
 21
0.0000000000000125
 31
0.0
210
0.0
220
1.0
230
-0.0000000000000002
  0
ARC
  5
32560
  8
0
  6
VERDECKT
 62
     1
 10
78.4999999999999858
 20
319.9995037190212201
 30
0.0
 40
14.0000000000013198
210
0.0
220
-0.0000000000000002
230
-1.0
 50
162.0992973175999055
 51
180.0000000000001137
  0
ARC
  5
32561
  8
0
  6
VERDECKT
 62
     1
 10
-78.5000000000000142
 20
319.9995037190212201
 30
0.0
 40
14.0000000000013305
210
0.0
220
-0.0000000000000002
230
-1.0
 50
359.9999999999997158
 51
17.900702682400091
  0
LINE
  5
32562
  8
0
  6
VERDECKT
 62
     1
 10
-65.1777311191131048
 20
324.30265975446639
 30
-0.000000000000072
 11
-78.0000000000000142
 21
363.9995037190211065
 31
-0.0000000000000808
210
0.0
220
1.0
230
-0.0000000000000002
  0
LINE
  5
32563
  8
0
  6
VERDECKT
 62
     1
 10
65.177731119113119
 20
324.30265975446639
 30
-0.000000000000072
 11
78.0000000000000426
 21
363.9995037190211065
 31
-0.0000000000000808
210
0.0
220
1.0
230
-0.0000000000000002
  0
LINE
  5
32564
  8
0
  6
VERDECKT
 62
     1
 10
-76.0000000000005116
 20
365.5356371938145799
 30
-0.0000000000000812
 11
75.9999999999995453
 21
365.5356371938145799
 31
-0.0000000000000812
210
0.0
220
1.0
230
-0.0000000000000002
  0
ARC
  5
32565
  8
0
  6
VERDECKT
 62
     1
 10
86.0000000000008669
 20
384.2812669313789229
 30
0.0
 40
0.9999999999996163
210
0.0
220
-0.0000000000000002
230
-1.0
 50
0.0
 51
10.0000000000089795
  0
ARC
  5
32566
  8
0
  6
VERDECKT
 62
     1
 10
-85.9999999999977547
 20
384.2812669313788092
 30
0.0
 40
1.0000000000017579
210
0.0
220
-0.0000000000000002
230
-1.0
 50
170.0000000000092086
 51
179.9999999999934062
  0
LINE
  5
32567
  8
0
  6
VERDECKT
 62
     1
 10
86.9999999999995168
 20
384.2812669313789229
 30
-0.0000000000000853
 11
86.9999999999995168
 21
381.1698615712716105
 31
-0.0000000000000846
210
0.0
220
1.0
230
-0.0000000000000002
  0
LINE
  5
32568
  8
0
  6
VERDECKT
 62
     1
 10
-87.0000000000004832
 20
384.2812669313789229
 30
-0.0000000000000853
 11
-87.0000000000004832
 21
381.1698615712716105
 31
-0.0000000000000846
210
0.0
220
1.0
230
-0.0000000000000002
  0
LINE
  5
32569
  8
0
  6
VERDECKT
 62
     1
 10
85.3819939988906356
 20
393.5449236130257873
 30
-0.0000000000000874
 11
86.9848077530117223
 21
384.4549151090458849
 31
-0.0000000000000854
210
0.0
220
1.0
230
-0.0000000000000002
  0
LINE
  5
3256A
  8
0
  6
VERDECKT
 62
     1
 10
-85.3819939988916445
 20
393.5449236130256736
 30
-0.0000000000000874
 11
-86.9848077530126744
 21
384.4549151090458849
 31
-0.0000000000000854
210
0.0
220
1.0
230
-0.0000000000000002
  0
ARC
  5
3256B
  8
0
  6
VERDECKT
 62
     1
 10
86.0000000000006253
 20
381.1698615712716105
 30
0.0
 40
0.9999999999998321
210
0.0
220
-0.0000000000000002
230
-1.0
 50
329.999999999998181
 51
0.0000000000032569
  0
ARC
  5
3256C
  8
0
  6
VERDECKT
 62
     1
 10
-85.9999999999996732
 20
381.1698615712716105
 30
0.0
 40
0.9999999999998436
210
0.0
220
-0.0000000000000002
230
-1.0
 50
179.9999999999967031
 51
210.0000000000017906
  0
LINE
  5
3256D
  8
0
  6
VERDECKT
 62
     1
 10
-79.7595690713580154
 20
368.3611181417385865
 30
-0.0000000000000818
 11
-86.8660254037849171
 21
380.6698615712716105
 31
-0.0000000000000845
210
0.0
220
1.0
230
-0.0000000000000002
  0
LINE
  5
3256E
  8
0
  6
VERDECKT
 62
     1
 10
79.7595690713570491
 20
368.3611181417385865
 30
-0.0000000000000818
 11
86.8660254037839508
 21
380.6698615712716105
 31
-0.0000000000000845
210
0.0
220
1.0
230
-0.0000000000000002
  0
ARC
  5
3256F
  8
0
  6
VERDECKT
 62
     1
 10
90.7984366404587604
 20
394.4999885901938796
 30
0.0
 40
5.5
210
0.0
220
-0.0000000000000002
230
-1.0
 50
89.9999999999997158
 51
190.0000000000003126
  0
ARC
  5
32570
  8
0
  6
VERDECKT
 62
     1
 10
-90.7984366404577941
 20
394.4999885901938796
 30
0.0
 40
5.499999999999968
210
0.0
220
-0.0000000000000002
230
-1.0
 50
350.0000000000002274
 51
90.0000000000002984
  0
LINE
  5
32571
  8
0
  6
VERDECKT
 62
     1
 10
75.999999999999531
 20
365.5356371938145799
 30
-0.0000000000000812
 11
75.999999999999531
 21
363.9999885901938228
 31
-0.0000000000000808
210
0.0
220
1.0
230
-0.0000000000000002
  0
LINE
  5
32572
  8
0
  6
VERDECKT
 62
     1
 10
-76.0000000000004974
 20
365.5356371938145799
 30
-0.0000000000000812
 11
-76.0000000000004974
 21
363.9999885901938228
 31
-0.0000000000000808
210
0.0
220
1.0
230
-0.0000000000000002
  0
ARC
  5
32573
  8
0
  6
VERDECKT
 62
     1
 10
74.5634166486514403
 20
371.3611181417385865
 30
0.0
 40
5.9999999999999094
210
0.0
220
-0.0000000000000002
230
-1.0
 50
283.8529339154613922
 51
330.0000000000002274
  0
ARC
  5
32574
  8
0
  6
VERDECKT
 62
     1
 10
-74.5634166486504739
 20
371.3611181417385865
 30
0.0
 40
5.9999999999999218
210
0.0
220
-0.0000000000000002
230
-1.0
 50
209.999999999999801
 51
256.1470660845384941
  0
LINE
  5
32575
  8
0
  6
VERDECKT
 62
     1
 10
-70.0000000000009095
 20
368.7153814992562957
 30
-0.0000000000000819
 11
69.9999999999990905
 21
368.7153814992562957
 31
-0.0000000000000819
210
0.0
220
1.0
230
-0.0000000000000002
  0
LINE
  5
32576
  8
0
  6
VERDECKT
 62
     1
 10
-63.3218007376460719
 20
370.715381499256182
 30
-0.0000000000000823
 11
63.3218007376442529
 21
370.715381499256182
 31
-0.0000000000000823
210
0.0
220
1.0
230
-0.0000000000000002
  0
LINE
  5
32577
  8
0
  6
VERDECKT
 62
     1
 10
-70.3000000000010914
 20
387.7153814992562957
 30
-0.0000000000000861
 11
70.2999999999992724
 21
387.7153814992562957
 31
-0.0000000000000861
210
0.0
220
1.0
230
-0.0000000000000002
  0
LINE
  5
32578
  8
0
  6
VERDECKT
 62
     1
 10
-74.9923603249142161
 20
397.7153814992562957
 30
-0.0000000000000883
 11
74.9923603249123829
 21
397.7153814992562957
 31
-0.0000000000000883
210
0.0
220
1.0
230
-0.0000000000000002
  0
LINE
  5
32579
  8
0
  6
VERDECKT
 62
     1
 10
-80.8776168465828675
 20
385.0785576297981834
 30
-0.0000000000000855
 11
80.8776168465810628
 21
385.0785576297981834
 31
-0.0000000000000855
210
0.0
220
1.0
230
-0.0000000000000002
  0
LINE
  5
3257A
  8
0
  6
VERDECKT
 62
     1
 10
-85.0000000000008953
 20
384.1500365359789839
 30
-0.0000000000000853
 11
84.9999999999990905
 21
384.1500365359789839
 31
-0.0000000000000853
210
0.0
220
1.0
230
-0.0000000000000002
  0
LINE
  5
3257B
  8
0
  6
VERDECKT
 62
     1
 10
-75.0000000000009095
 20
372.7153814992562957
 30
-0.0000000000000828
 11
74.9999999999990905
 21
372.7153814992562957
 31
-0.0000000000000828
210
0.0
220
1.0
230
-0.0000000000000002
  0
LINE
  5
3257C
  8
0
  6
VERDECKT
 62
     1
 10
-75.0000000000009095
 20
395.7153814992564094
 30
-0.0000000000000879
 11
74.9999999999990905
 21
395.7153814992564094
 31
-0.0000000000000879
210
0.0
220
1.0
230
-0.0000000000000002
  0
LINE
  5
3257D
  8
0
  6
VERDECKT
 62
     1
 10
69.9999999999991047
 20
368.7153814992562957
 30
-0.0000000000000819
 11
71.7320508075681715
 21
367.715381499256182
 31
-0.0000000000000816
210
0.0
220
1.0
230
-0.0000000000000002
  0
LINE
  5
3257E
  8
0
  6
VERDECKT
 62
     1
 10
-70.0000000000009237
 20
368.7153814992562957
 30
-0.0000000000000819
 11
-71.7320508075699905
 21
367.715381499256182
 31
-0.0000000000000816
210
0.0
220
1.0
230
-0.0000000000000002
  0
LINE
  5
3257F
  8
0
  6
VERDECKT
 62
     1
 10
62.4999999999990905
 20
370.7153814992562957
 30
-0.0000000000000823
 11
62.4999999999990905
 21
368.7153814992562957
 31
-0.0000000000000819
210
0.0
220
1.0
230
-0.0000000000000002
  0
LINE
  5
32580
  8
0
  6
VERDECKT
 62
     1
 10
-62.5000000000009095
 20
370.7153814992562957
 30
-0.0000000000000823
 11
-62.5000000000009095
 21
368.7153814992562957
 31
-0.0000000000000819
210
0.0
220
1.0
230
-0.0000000000000002
  0
ARC
  5
32581
  8
0
  6
VERDECKT
 62
     1
 10
63.3218007376462495
 20
372.7153814992565231
 30
0.0
 40
2.0000000000002269
210
0.0
220
-0.0000000000000002
230
-1.0
 50
270.0
 51
350.0000000000010232
  0
ARC
  5
32582
  8
0
  6
VERDECKT
 62
     1
 10
-63.3218007376444376
 20
372.7153814992565231
 30
0.0
 40
2.000000000000179
210
0.0
220
-0.0000000000000002
230
-1.0
 50
190.0000000000042064
 51
270.0000000000052864
  0
LINE
  5
32583
  8
0
  6
VERDECKT
 62
     1
 10
-65.2914162436707102
 20
372.3680851439224853
 30
-0.0000000000000827
 11
-67.6332883674574532
 21
385.6495019434236156
 31
-0.0000000000000856
210
0.0
220
1.0
230
-0.0000000000000002
  0
LINE
  5
32584
  8
0
  6
VERDECKT
 62
     1
 10
65.2914162436688912
 20
372.3680851439224853
 30
-0.0000000000000827
 11
67.6332883674556342
 21
385.6495019434236156
 31
-0.0000000000000856
210
0.0
220
1.0
230
-0.0000000000000002
  0
ARC
  5
32585
  8
0
  6
VERDECKT
 62
     1
 10
70.0953077499885069
 20
385.215381499256182
 30
0.0
 40
2.5000000000005111
210
0.0
220
-0.0000000000000002
230
-1.0
 50
90.000000000011056
 51
170.0000000000009095
  0
ARC
  5
32586
  8
0
  6
VERDECKT
 62
     1
 10
-70.0953077499866879
 20
385.215381499256182
 30
0.0
 40
2.5000000000005338
210
0.0
220
-0.0000000000000002
230
-1.0
 50
9.9999999999990337
 51
89.999999999988944
  0
LINE
  5
32587
  8
0
  6
VERDECKT
 62
     1
 10
-70.3000000000012051
 20
387.7153814992564094
 30
-0.0000000000000861
 11
-71.0151595871119525
 21
395.8896929847517185
 31
-0.0000000000000879
210
0.0
220
1.0
230
-0.0000000000000002
  0
LINE
  5
32588
  8
0
  6
VERDECKT
 62
     1
 10
70.2999999999993861
 20
387.7153814992562957
 30
-0.0000000000000861
 11
71.0151595871101335
 21
395.8896929847517754
 31
-0.0000000000000879
210
0.0
220
1.0
230
-0.0000000000000002
  0
ARC
  5
32589
  8
0
  6
VERDECKT
 62
     1
 10
73.0075489832956777
 20
395.7153814992561252
 30
0.0
 40
2.000000000000397
210
0.0
220
-0.0000000000000002
230
-1.0
 50
90.0000000000061249
 51
174.9999999999880913
  0
ARC
  5
3258A
  8
0
  6
VERDECKT
 62
     1
 10
-73.0075489832939297
 20
395.7153814992561252
 30
0.0
 40
2.0000000000004512
210
0.0
220
-0.0000000000000002
230
-1.0
 50
5.0000000000101092
 51
89.9999999999918856
  0
ARC
  5
3258B
  8
0
  6
VERDECKT
 62
     1
 10
74.9923603249144151
 20
395.7153814992565231
 30
0.0
 40
1.999999999999863
210
0.0
220
-0.0000000000000002
230
-1.0
 50
4.9999999999952358
 51
90.0000000000057128
  0
ARC
  5
3258C
  8
0
  6
VERDECKT
 62
     1
 10
-74.9923603249126529
 20
395.7153814992565799
 30
0.0
 40
1.999999999999772
210
0.0
220
-0.0000000000000002
230
-1.0
 50
89.999999999992653
 51
175.0000000000061959
  0
LINE
  5
3258D
  8
0
  6
VERDECKT
 62
     1
 10
76.9847497210962501
 20
395.8896929847517185
 30
-0.0000000000000879
 11
77.9118460028416848
 21
385.292933994123473
 31
-0.0000000000000856
210
0.0
220
1.0
230
-0.0000000000000002
  0
LINE
  5
3258E
  8
0
  6
VERDECKT
 62
     1
 10
-76.9847497210980549
 20
395.8896929847517185
 30
-0.0000000000000879
 11
-77.9118460028435038
 21
385.292933994123473
 31
-0.0000000000000856
210
0.0
220
1.0
230
-0.0000000000000002
  0
ARC
  5
3258F
  8
0
  6
VERDECKT
 62
     1
 10
78.4894636570455191
 20
385.3077466191089115
 30
0.0
 40
0.5778075530008194
210
0.0
220
-0.0000000000000002
230
-1.0
 50
181.4689906341953929
 51
214.1810627151521089
  0
ARC
  5
32590
  8
0
  6
VERDECKT
 62
     1
 10
-78.4894636570434017
 20
385.3077466191089115
 30
0.0
 40
0.5778075530005247
210
0.0
220
-0.0000000000000002
230
-1.0
 50
325.8189372848358971
 51
358.5310093658036976
  0
ARC
  5
32591
  8
0
  6
VERDECKT
 62
     1
 10
78.9330164086051695
 20
385.608970494792004
 30
0.0
 40
1.1139743803014861
210
0.0
220
-0.0000000000000002
230
-1.0
 50
214.1810627152603104
 51
238.6197200379264984
  0
ARC
  5
32592
  8
0
  6
VERDECKT
 62
     1
 10
-78.9330164086032227
 20
385.6089704947918904
 30
0.0
 40
1.113974380301326
210
0.0
220
-0.0000000000000002
230
-1.0
 50
301.3802799620714836
 51
325.8189372847407981
  0
ARC
  5
32593
  8
0
  6
VERDECKT
 62
     1
 10
79.2259949874602256
 20
386.0893181418875884
 30
0.0
 40
1.6766201922811199
210
0.0
220
-0.0000000000000002
230
-1.0
 50
238.6197200379633898
 51
255.8214067751771097
  0
ARC
  5
32594
  8
0
  6
VERDECKT
 62
     1
 10
-79.2259949874566161
 20
386.0893181418833251
 30
0.0
 40
1.676620192276548
210
0.0
220
-0.0000000000000002
230
-1.0
 50
284.178593224798874
 51
301.3802799620597739
  0
ARC
  5
32595
  8
0
  6
VERDECKT
 62
     1
 10
79.418335625401582
 20
386.8506369116789756
 30
0.0
 40
2.4618597673410219
210
0.0
220
-0.0000000000000002
230
-1.0
 50
255.8214067751862046
 51
269.9999999999949978
  0
ARC
  5
32596
  8
0
  6
VERDECKT
 62
     1
 10
79.4183356254016246
 20
386.8506369116753945
 30
0.0
 40
2.4618597673373301
210
0.0
220
-0.0000000000000002
230
-1.0
 50
270.0
 51
284.1785932248197923
  0
ARC
  5
32597
  8
0
  6
VERDECKT
 62
     1
 10
-79.4183356253997914
 20
386.8506369116756218
 30
0.0
 40
2.461859767337613
210
0.0
220
-0.0000000000000002
230
-1.0
 50
255.8214067751871141
 51
270.0000000000056275
  0
ARC
  5
32598
  8
0
  6
VERDECKT
 62
     1
 10
-79.4183356253997772
 20
386.850636911679203
 30
0.0
 40
2.461859767341195
210
0.0
220
-0.0000000000000002
230
-1.0
 50
270.0
 51
284.1785932248080826
  0
LINE
  5
32599
  8
0
  6
VERDECKT
 62
     1
 10
-79.4183356254013688
 20
384.3887771443380075
 30
-0.0000000000000854
 11
79.4183356253995356
 21
384.3887771443380075
 31
-0.0000000000000854
210
0.0
220
1.0
230
-0.0000000000000002
  0
ARC
  5
3259A
  8
0
  6
VERDECKT
 62
     1
 10
79.6106762633420431
 20
386.0893181418875884
 30
0.0
 40
1.676620192281123
210
0.0
220
-0.0000000000000002
230
-1.0
 50
284.1785932248229756
 51
301.3802799620365818
  0
ARC
  5
3259B
  8
0
  6
VERDECKT
 62
     1
 10
-79.6106762633420288
 20
386.0893181418833251
 30
0.0
 40
1.67662019227654
210
0.0
220
-0.0000000000000002
230
-1.0
 50
238.6197200379401977
 51
255.8214067752010976
  0
ARC
  5
3259C
  8
0
  6
VERDECKT
 62
     1
 10
79.9036548421976391
 20
385.6089704947913219
 30
0.0
 40
1.1139743803006561
210
0.0
220
-0.0000000000000002
230
-1.0
 50
301.3802799620710857
 51
325.8189372848382277
  0
ARC
  5
3259D
  8
0
  6
VERDECKT
 62
     1
 10
-79.903654842197227
 20
385.6089704947899008
 30
0.0
 40
1.113974380298703
210
0.0
220
-0.0000000000000002
230
-1.0
 50
214.1810627151419055
 51
238.6197200379533001
  0
ARC
  5
3259E
  8
0
  6
VERDECKT
 62
     1
 10
80.3472075937622918
 20
385.3077466191061262
 30
0.0
 40
0.5778075529946515
210
0.0
220
-0.0000000000000002
230
-1.0
 50
325.8189372849308825
 51
336.6309044965191788
  0
ARC
  5
3259F
  8
0
  6
VERDECKT
 62
     1
 10
-80.3472075937581138
 20
385.3077466191073768
 30
0.0
 40
0.5778075529973354
210
0.0
220
-0.0000000000000002
230
-1.0
 50
203.3690955035133072
 51
214.1810627150447885
  0
ARC
  5
325A0
  8
0
  6
VERDECKT
 62
     1
 10
82.8565156073330229
 20
384.788799636462727
 30
0.0
 40
2.0000000000000031
210
0.0
220
-0.0000000000000002
230
-1.0
 50
9.9999999999968736
 51
90.0000000000012363
  0
ARC
  5
325A1
  8
0
  6
VERDECKT
 62
     1
 10
82.8565156073329661
 20
384.788799636462727
 30
0.0
 40
2.0
210
0.0
220
-0.0000000000000002
230
-1.0
 50
90.0
 51
171.669727781308211
  0
ARC
  5
325A2
  8
0
  6
VERDECKT
 62
     1
 10
-82.8565156073312039
 20
384.7887996364626133
 30
0.0
 40
2.000000000000083
210
0.0
220
-0.0000000000000002
230
-1.0
 50
8.3302722186948248
 51
89.9999999999987921
  0
ARC
  5
325A3
  8
0
  6
VERDECKT
 62
     1
 10
-82.8565156073311186
 20
384.7887996364626133
 30
0.0
 40
2.000000000000056
210
0.0
220
-0.0000000000000002
230
-1.0
 50
90.0000000000012221
 51
170.0000000000036096
  0
LINE
  5
325A4
  8
0
  6
VERDECKT
 62
     1
 10
82.8565156073311755
 20
386.788799636462727
 30
-0.0000000000000859
 11
-82.8565156073329945
 21
386.788799636462727
 31
-0.0000000000000859
210
0.0
220
1.0
230
-0.0000000000000002
  0
LINE
  5
325A5
  8
0
  6
VERDECKT
 62
     1
 10
84.8261311133555864
 20
385.1360959917964237
 30
-0.0000000000000855
 11
84.9999999999990905
 21
384.1500365359789839
 31
-0.0000000000000853
210
0.0
220
1.0
230
-0.0000000000000002
  0
LINE
  5
325A6
  8
0
  6
VERDECKT
 62
     1
 10
-84.8261311133574338
 20
385.13609599179631
 30
-0.0000000000000855
 11
-85.0000000000008953
 21
384.1500365359790976
 31
-0.0000000000000853
210
0.0
220
1.0
230
-0.0000000000000002
  0
LINE
  5
325A7
  8
0
  6
VERDECKT
 62
     1
 10
84.9999999999990905
 20
384.1500365359789839
 30
-0.0000000000000853
 11
84.9999999999990905
 21
381.5717879598070112
 31
-0.0000000000000847
210
0.0
220
1.0
230
-0.0000000000000002
  0
LINE
  5
325A8
  8
0
  6
VERDECKT
 62
     1
 10
-85.0000000000008953
 20
384.1500365359789839
 30
-0.0000000000000853
 11
-85.0000000000008953
 21
381.5717879598070112
 31
-0.0000000000000847
210
0.0
220
1.0
230
-0.0000000000000002
  0
LINE
  5
325A9
  8
0
  6
VERDECKT
 62
     1
 10
-78.154700538380439
 20
369.7153814992562957
 30
-0.0000000000000821
 11
-85.0000000000008953
 21
381.5717879598070112
 31
-0.0000000000000847
210
0.0
220
1.0
230
-0.0000000000000002
  0
LINE
  5
325AA
  8
0
  6
VERDECKT
 62
     1
 10
78.15470053837862
 20
369.7153814992562957
 30
-0.0000000000000821
 11
84.9999999999990905
 21
381.5717879598070112
 31
-0.0000000000000847
210
0.0
220
1.0
230
-0.0000000000000002
  0
ARC
  5
325AB
  8
0
  6
VERDECKT
 62
     1
 10
74.6905989232423053
 20
371.7153814992566936
 30
0.0
 40
4.0000000000005107
210
0.0
220
-0.0000000000000002
230
-1.0
 50
270.0
 51
329.9999999999945999
  0
ARC
  5
325AC
  8
0
  6
VERDECKT
 62
     1
 10
-74.6905989232405005
 20
371.7153814992566936
 30
0.0
 40
4.0000000000005151
210
0.0
220
-0.0000000000000002
230
-1.0
 50
210.0000000000023022
 51
269.9999999999968736
  0
LINE
  5
325AD
  8
0
  6
VERDECKT
 62
     1
 10
72.9999999999990905
 20
395.7153814992564094
 30
-0.0000000000000879
 11
72.9999999999990905
 21
372.7153814992562957
 31
-0.0000000000000828
210
0.0
220
1.0
230
-0.0000000000000002
  0
LINE
  5
325AE
  8
0
  6
VERDECKT
 62
     1
 10
-73.0000000000009095
 20
395.7153814992564094
 30
-0.0000000000000879
 11
-73.0000000000009095
 21
372.7153814992562957
 31
-0.0000000000000828
210
0.0
220
1.0
230
-0.0000000000000002
  0
LINE
  5
325AF
  8
0
  6
VERDECKT
 62
     1
 10
74.9999999999990905
 20
395.7153814992564094
 30
-0.0000000000000879
 11
74.9999999999990905
 21
372.7153814992562957
 31
-0.0000000000000828
210
0.0
220
1.0
230
-0.0000000000000002
  0
LINE
  5
325B0
  8
0
  6
VERDECKT
 62
     1
 10
-75.0000000000009095
 20
395.7153814992564094
 30
-0.0000000000000879
 11
-75.0000000000009095
 21
372.7153814992562957
 31
-0.0000000000000828
210
0.0
220
1.0
230
-0.0000000000000002
  0
LINE
  5
325B1
  8
0
  6
VERDECKT
 62
     1
 10
-75.0000000000009095
 20
372.7153814992562957
 30
-0.0000000000000828
 11
74.9999999999990905
 21
372.7153814992562957
 31
-0.0000000000000828
210
0.0
220
1.0
230
-0.0000000000000002
  0
LINE
  5
325B2
  8
0
  6
VERDECKT
 62
     1
 10
-75.0000000000009095
 20
395.7153814992564094
 30
-0.0000000000000879
 11
74.9999999999990905
 21
395.7153814992564094
 31
-0.0000000000000879
210
0.0
220
1.0
230
-0.0000000000000002
  0
LINE
  5
325B3
  8
0
  6
VERDECKT
 62
     1
 10
72.9999999999990905
 20
395.7153814992564094
 30
-0.0000000000000879
 11
72.9999999999990905
 21
372.7153814992562957
 31
-0.0000000000000828
210
0.0
220
1.0
230
-0.0000000000000002
  0
LINE
  5
325B4
  8
0
  6
VERDECKT
 62
     1
 10
-73.0000000000009095
 20
395.7153814992564094
 30
-0.0000000000000879
 11
-73.0000000000009095
 21
372.7153814992562957
 31
-0.0000000000000828
210
0.0
220
1.0
230
-0.0000000000000002
  0
LINE
  5
325B5
  8
0
  6
VERDECKT
 62
     1
 10
74.9999999999990905
 20
395.7153814992564094
 30
-0.0000000000000879
 11
74.9999999999990905
 21
372.7153814992562957
 31
-0.0000000000000828
210
0.0
220
1.0
230
-0.0000000000000002
  0
LINE
  5
325B6
  8
0
  6
VERDECKT
 62
     1
 10
-75.0000000000009095
 20
395.7153814992564094
 30
-0.0000000000000879
 11
-75.0000000000009095
 21
372.7153814992562957
 31
-0.0000000000000828
210
0.0
220
1.0
230
-0.0000000000000002
  0
LINE
  5
325B7
  8
0
  6
VERDECKT
 62
     1
 10
85.001411002096404
 20
384.1508539705815792
 30
-0.0000000000000853
 11
-85.0014110020975409
 21
384.1508539705815792
 31
-0.0000000000000853
210
0.0
220
1.0
230
-0.0000000000000002
  0
LINE
  5
325B8
  8
0
  6
VERDECKT
 62
     1
 10
85.001411002096404
 20
381.5717877787747057
 30
-0.0000000000000847
 11
-85.0014110020975409
 21
381.5717877787747057
 31
-0.0000000000000847
210
0.0
220
1.0
230
-0.0000000000000002
  0
LINE
  5
325B9
  8
0
  6
VERDECKT
 62
     1
 10
74.6920099253382546
 20
367.7153813182238196
 30
-0.0000000000000816
 11
-74.6920099253393914
 21
367.7153813182238196
 31
-0.0000000000000816
210
0.0
220
1.0
230
-0.0000000000000002
  0
LINE
  5
325BA
  8
0
  6
VERDECKT
 62
     1
 10
74.6920099253381409
 20
365.7153813182237059
 30
-0.0000000000000812
 11
-74.6920099253392635
 21
365.7153813182237059
 31
-0.0000000000000812
210
0.0
220
1.0
230
-0.0000000000000002
  0
LINE
  5
325BB
  8
0
  6
VERDECKT
 62
     1
 10
87.001411002096404
 20
381.0358893939123845
 30
-0.0000000000000846
 11
-87.0014110020975266
 21
381.0358893939123845
 31
-0.0000000000000846
210
0.0
220
1.0
230
-0.0000000000000002
  0
LINE
  5
325BC
  8
0
  6
VERDECKT
 62
     1
 10
87.001411002096404
 20
384.3250136819984846
 30
-0.0000000000000853
 11
-87.0014110020975266
 21
384.3250136819984846
 31
-0.0000000000000853
210
0.0
220
1.0
230
-0.0000000000000002
  0
ARC
  5
325BD
  8
0
  6
VERDECKT
 62
     1
 10
-90.7984366404575951
 20
394.5011723805013162
 30
0.0
 40
7.4988162096927331
210
0.0
220
-0.0000000000000002
230
-1.0
 50
350.0988935316452171
 51
90.0000000000002132
  0
ARC
  5
325BE
  8
0
  6
VERDECKT
 62
     1
 10
90.7984366404587178
 20
394.5011723805013162
 30
0.0
 40
7.4988162096927331
210
0.0
220
-0.0000000000000002
230
-1.0
 50
89.999999999999801
 51
189.9011064683546977
  0
LINE
  5
325BF
  8
0
  6
VERDECKT
 62
     1
 10
83.4113077562023335
 20
393.2117649995112174
 30
-0.0000000000000873
 11
85.0014110020964466
 21
384.1508539705815792
 31
-0.0000000000000853
210
0.0
220
1.0
230
-0.0000000000000002
  0
LINE
  5
325C0
  8
0
  6
VERDECKT
 62
     1
 10
-83.4113077562034846
 20
393.2117649995112174
 30
-0.0000000000000873
 11
-85.0014110020975693
 21
384.1508539705815792
 31
-0.0000000000000853
210
0.0
220
1.0
230
-0.0000000000000002
  0
LINE
  5
325C1
  8
0
  6
VERDECKT
 62
     1
 10
-85.0014110020975409
 20
381.5717877787747057
 30
-0.0000000000000847
 11
-85.0014110020975409
 21
384.1508539705815792
 31
-0.0000000000000853
210
0.0
220
1.0
230
-0.0000000000000002
  0
LINE
  5
325C2
  8
0
  6
VERDECKT
 62
     1
 10
85.001411002096404
 20
381.5717877787747057
 30
-0.0000000000000847
 11
85.001411002096404
 21
384.1508539705815792
 31
-0.0000000000000853
210
0.0
220
1.0
230
-0.0000000000000002
  0
LINE
  5
325C3
  8
0
  6
VERDECKT
 62
     1
 10
-78.156111540477454
 20
369.7153813182238764
 30
-0.0000000000000821
 11
-85.0014110020974982
 21
381.5717877787747057
 31
-0.0000000000000847
210
0.0
220
1.0
230
-0.0000000000000002
  0
LINE
  5
325C4
  8
0
  6
VERDECKT
 62
     1
 10
78.1561115404763171
 20
369.7153813182238764
 30
-0.0000000000000821
 11
85.0014110020963756
 21
381.5717877787747057
 31
-0.0000000000000847
210
0.0
220
1.0
230
-0.0000000000000002
  0
ARC
  5
325C5
  8
0
  6
VERDECKT
 62
     1
 10
-74.6920099253385388
 20
371.7153813182238196
 30
0.0
 40
4.0
210
0.0
220
-0.0000000000000002
230
-1.0
 50
209.9999999999980957
 51
270.0000000000040927
  0
ARC
  5
325C6
  8
0
  6
VERDECKT
 62
     1
 10
74.6920099253396756
 20
371.7153813182238196
 30
0.0
 40
4.0
210
0.0
220
-0.0000000000000002
230
-1.0
 50
270.0
 51
330.0000000000059117
  0
LINE
  5
325C7
  8
0
  6
VERDECKT
 62
     1
 10
-70.501411002097484
 20
365.7153813182241038
 30
-0.0000000000000812
 11
-70.501411002097484
 21
367.7153813182239901
 31
-0.0000000000000816
210
0.0
220
1.0
230
-0.0000000000000002
  0
LINE
  5
325C8
  8
0
  6
VERDECKT
 62
     1
 10
70.5014110020963471
 20
365.7153813182241038
 30
-0.0000000000000812
 11
70.5014110020963471
 21
367.7153813182239901
 31
-0.0000000000000816
210
0.0
220
1.0
230
-0.0000000000000002
  0
ARC
  5
325C9
  8
0
  6
VERDECKT
 62
     1
 10
-74.6920099253384251
 20
371.7153813182237059
 30
0.0
 40
5.999999999999984
210
0.0
220
-0.0000000000000002
230
-1.0
 50
209.9999999999976126
 51
270.0000000000026716
  0
ARC
  5
325CA
  8
0
  6
VERDECKT
 62
     1
 10
74.692009925339562
 20
371.7153813182237059
 30
0.0
 40
6.0
210
0.0
220
-0.0000000000000002
230
-1.0
 50
270.0
 51
330.0000000000051159
  0
LINE
  5
325CB
  8
0
  6
VERDECKT
 62
     1
 10
-79.8881623480462792
 20
368.7153813182238764
 30
-0.0000000000000819
 11
-87.0014110020975124
 21
381.0358893939123845
 31
-0.0000000000000846
210
0.0
220
1.0
230
-0.0000000000000002
  0
LINE
  5
325CC
  8
0
  6
VERDECKT
 62
     1
 10
79.8881623480451424
 20
368.7153813182238764
 30
-0.0000000000000819
 11
87.0014110020963756
 21
381.0358893939123845
 31
-0.0000000000000846
210
0.0
220
1.0
230
-0.0000000000000002
  0
LINE
  5
325CD
  8
0
  6
VERDECKT
 62
     1
 10
-87.0014110020975266
 20
381.0358893939123845
 30
-0.0000000000000846
 11
-87.0014110020975266
 21
384.3250136819984846
 31
-0.0000000000000853
210
0.0
220
1.0
230
-0.0000000000000002
  0
LINE
  5
325CE
  8
0
  6
VERDECKT
 62
     1
 10
87.001411002096404
 20
381.0358893939123845
 30
-0.0000000000000846
 11
87.001411002096404
 21
384.3250136819984846
 31
-0.0000000000000853
210
0.0
220
1.0
230
-0.0000000000000002
  0
LINE
  5
325CF
  8
0
  6
VERDECKT
 62
     1
 10
85.3813747421560691
 20
393.5564924887128768
 30
-0.0000000000000874
 11
87.001411002096404
 21
384.3250136819984846
 31
-0.0000000000000853
210
0.0
220
1.0
230
-0.0000000000000002
  0
LINE
  5
325D0
  8
0
  6
VERDECKT
 62
     1
 10
-85.381374742157206
 20
393.5564924887128768
 30
-0.0000000000000874
 11
-87.0014110020975266
 21
384.3250136819984846
 31
-0.0000000000000853
210
0.0
220
1.0
230
-0.0000000000000002
  0
ARC
  5
325D1
  8
0
  6
VERDECKT
 62
     1
 10
-90.7984366404576662
 20
394.5011723805012025
 30
0.0
 40
5.4988162096926754
210
0.0
220
-0.0000000000000002
230
-1.0
 50
350.1076856089460989
 51
90.0000000000001705
  0
ARC
  5
325D2
  8
0
  6
VERDECKT
 62
     1
 10
-90.7984366409036454
 20
394.5011752612862779
 30
0.0
 40
5.498813328907544
210
0.0
220
-0.0000000000000002
230
-1.0
 50
89.9999999953532068
 51
90.014702161340125
  0
ARC
  5
325D3
  8
0
  6
VERDECKT
 62
     1
 10
90.7984366409047823
 20
394.5011752612862779
 30
0.0
 40
5.498813328907544
210
0.0
220
-0.0000000000000002
230
-1.0
 50
89.9852978386599034
 51
90.0000000046468216
  0
ARC
  5
325D4
  8
0
  6
VERDECKT
 62
     1
 10
90.7984366404587888
 20
394.5011723805012025
 30
0.0
 40
5.4988162096926771
210
0.0
220
-0.0000000000000002
230
-1.0
 50
89.9999999999998437
 51
189.8923143910537874
  0
ENDBLK
  5
325D6
  8
0
  0
BLOCK
  8
0
  2
A$C63D82977
 70
     0
 10
0.0
 20
0.0
 30
0.0
  3
A$C63D82977
  1

  0
CIRCLE
  5
325DA
  8
0
  6
CONTINUOUS
 62
     3
 10
-0.0000000000008272
 20
-0.0000042042179317
 30
0.0
 40
62.5
  0
CIRCLE
  5
325DB
  8
0
  6
CONTINUOUS
 62
     3
 10
-0.0000000000008234
 20
-0.0000042042179265
 30
0.0
 40
70.3000000000001819
  0
CIRCLE
  5
325DC
  8
0
  6
CONTINUOUS
 62
     3
 10
-0.000000000000824
 20
-0.0000042042179273
 30
0.0
 40
80.8776168465819865
  0
LINE
  5
325DD
  8
0
  6
CONTINUOUS
 62
     3
 10
115.2214344394505048
 20
249.9999958031085043
 30
0.0
 11
-250.0000000000005116
 21
249.9999958031085043
 31
-0.0000000000000811
  0
LINE
  5
325DE
  8
0
  6
CONTINUOUS
 62
     3
 10
-250.0000000000005116
 20
-250.0000041968914104
 30
-0.0000000000000568
 11
-250.0000000000005116
 21
249.9999958018794075
 31
-0.0000000000000568
  0
LINE
  5
325DF
  8
0
  6
CONTINUOUS
 62
     3
 10
249.9999999999994884
 20
-250.0000041968914957
 30
0.0000000000000568
 11
-249.999999998511214
 21
-250.0000041968914957
 31
-0.0000000000000542
  0
LINE
  5
325E0
  8
0
  6
CONTINUOUS
 62
     3
 10
249.9999999999994884
 20
97.1698040750340937
 30
0.0000000000000568
 11
249.9999999999994884
 21
-250.0000041968914104
 31
0.0000000000000568
  0
LINE
  5
325E1
  8
0
  6
CONTINUOUS
 62
     3
 10
249.9999999999994884
 20
97.1698040771622829
 30
0.0000000000000568
 11
249.9999999999994884
 21
249.9999958031085043
 31
0.0000000000000568
  0
LINE
  5
325E2
  8
0
  6
CONTINUOUS
 62
     3
 10
249.9999999999994884
 20
249.9999958031085043
 30
0.0000000000000568
 11
115.2214344412451936
 21
249.9999958031085043
 31
0.0000000000000269
  0
CIRCLE
  5
325E3
  8
0
  6
CONTINUOUS
 62
     3
 10
-0.0000000000004808
 20
-0.0000041885107595
 30
0.0
 40
83.2996204307654295
  0
CIRCLE
  5
325E4
  8
0
  6
VERDECKT
 62
     1
 10
0.0000000000000001
 20
0.0
 30
0.0
 40
63.5099256195787021
  0
CIRCLE
  5
325E5
  8
0
  6
VERDECKT
 62
     1
 10
0.0000000000000906
 20
0.0
 30
0.0
 40
64.4999999999986926
  0
CIRCLE
  5
325E6
  8
0
  6
VERDECKT
 62
     1
 10
0.0000000000000906
 20
0.0
 30
0.0
 40
66.4999999999999858
  0
CIRCLE
  5
325E7
  8
0
  6
VERDECKT
 62
     1
 10
0.0
 20
0.0
 30
0.0
 40
65.5
  0
CIRCLE
  5
325E8
  8
0
  6
VERDECKT
 62
     1
 10
0.0000000000001029
 20
0.0
 30
0.0
 40
79.903181268699214
  0
CIRCLE
  5
325E9
  8
0
  6
VERDECKT
 62
     1
 10
0.000000000000103
 20
0.0
 30
0.0
 40
78.0000000000000142
  0
CIRCLE
  5
325EA
  8
0
  6
VERDECKT
 62
     1
 10
-0.0000000000003978
 20
-0.0000042042177607
 30
0.0
 40
88.4999999999999716
  0
CIRCLE
  5
325EB
  8
0
  6
VERDECKT
 62
     1
 10
-0.0000000000003978
 20
-0.0000042042177607
 30
0.0
 40
87.0
  0
CIRCLE
  5
325EC
  8
0
  6
VERDECKT
 62
     1
 10
-0.0000000000003944
 20
-0.0000042042177597
 30
0.0
 40
165.0
  0
CIRCLE
  5
325ED
  8
0
  6
VERDECKT
 62
     1
 10
-0.000000000000402
 20
-0.0000042042177618
 30
0.0
 40
76.0000000000000284
  0
CIRCLE
  5
325EE
  8
0
  6
VERDECKT
 62
     1
 10
-0.0000000000003956
 20
-0.00000420421776
 30
0.0
 40
85.2984366404583056
  0
CIRCLE
  5
325EF
  8
0
  6
VERDECKT
 62
     1
 10
-0.0000000000003956
 20
-0.00000420421776
 30
0.0
 40
86.7984366404583056
  0
CIRCLE
  5
325F0
  8
0
  6
VERDECKT
 62
     1
 10
-0.0000000000008278
 20
-0.0000042042179326
 30
0.0
 40
71.7320508075690668
  0
CIRCLE
  5
325F1
  8
0
  6
VERDECKT
 62
     1
 10
-0.0000000000008276
 20
-0.0000042042179323
 30
0.0
 40
70.0
  0
CIRCLE
  5
325F2
  8
0
  6
VERDECKT
 62
     1
 10
-0.0000000000008242
 20
-0.0000042042179276
 30
0.0
 40
85.0
  0
CIRCLE
  5
325F3
  8
0
  6
VERDECKT
 62
     1
 10
-0.0000000000008216
 20
-0.000004204217924
 30
0.0
 40
73.0
  0
CIRCLE
  5
325F4
  8
0
  6
VERDECKT
 62
     1
 10
-0.0000000000008216
 20
-0.000004204217924
 30
0.0
 40
75.0
  0
CIRCLE
  5
325F5
  8
0
  6
VERDECKT
 62
     1
 10
-0.0000000000008216
 20
-0.0000042042179302
 30
0.0
 40
73.0
  0
CIRCLE
  5
325F6
  8
0
  6
VERDECKT
 62
     1
 10
-0.0000000000008216
 20
-0.0000042042179302
 30
0.0
 40
75.0
  0
CIRCLE
  5
325F7
  8
0
  6
VERDECKT
 62
     1
 10
-0.0000000000004831
 20
-0.0000041885107595
 30
0.0
 40
85.0014110020969724
  0
CIRCLE
  5
325F8
  8
0
  6
VERDECKT
 62
     1
 10
-0.0000000000004868
 20
-0.0000041885107595
 30
0.0
 40
70.5014110020969724
  0
CIRCLE
  5
325F9
  8
0
  6
VERDECKT
 62
     1
 10
-0.0000000000004831
 20
-0.0000041885107595
 30
0.0
 40
87.0014110020969582
  0
CIRCLE
  5
325FA
  8
0
  6
VERDECKT
 62
     1
 10
-0.0000000000004808
 20
-0.0000041885107595
 30
0.0
 40
85.2996204307655574
  0
ENDBLK
  5
325FC
  8
0
  0
ENDSEC
  0
SECTION
  2
ENTITIES
  0
INSERT
  5
712A
  8
ADSK_ASSOC_ENTITY_BACKUPS
  2
*S0
 10
0.0
 20
0.0
 30
0.0
  0
INSERT
  5
325D7
  8
STEMPEL
  2
A$CFC56A91C
 10
0.0
 20
0.0
 30
0.0
  0
INSERT
  5
325FD
  8
STEMPEL
  2
A$C63D82977
 10
0.0
 20
-300.0
 30
0.0
  0
VIEWPORT
  5
7108
 67
     1
  8
0
 10
209.7499992635671049
 20
296.7499996447581907
 30
0.0
 40
1124.2780618997289821
 41
596.7756211726997435
 68
     1
 69
     1
1001
ACAD
1000
MVIEW
1002
{
1070
    16
1010
0.0
1020
0.0
1030
0.0
1010
0.0
1020
0.0
1030
1.0
1040
0.0
1040
596.7756211726997435
1040
209.7499992635671049
1040
296.7499996447581907
1040
50.0
1040
0.0
1040
0.0
1070
     0
1070
  1500
1070
     1
1070
     1
1070
     0
1070
     0
1070
     0
1070
     0
1040
0.0
1040
0.0
1040
0.0
1040
10.0
1040
10.0
1040
10.0
1040
10.0
1070
     0
1002
{
1002
}
1002
}
  0
ENDSEC
  0
EOF
