  0
SECTION
  2
HEADER
  9
$ACADVER
  1
AC1009
  9
$INSBASE
 10
0.0
 20
0.0
 30
0.0
  9
$EXTMIN
 10
-250.0000000000005969
 20
-550.0000042042175892
 30
-0.0000000000000917
  9
$EXTMAX
 10
249.9999999999994884
 20
401.4999911900827101
 30
0.0000000000000568
  9
$LIMMIN
 10
0.0
 20
0.0
  9
$LIMMAX
 10
594.0
 20
840.0
  9
$ORTHOMODE
 70
     1
  9
$REGENMODE
 70
     1
  9
$FILLMODE
 70
     1
  9
$QTEXTMODE
 70
     0
  9
$MIRRTEXT
 70
     1
  9
$DRAGMODE
 70
     2
  9
$LTSCALE
 40
10.0
  9
$OSMODE
 70
  1535
  9
$ATTMODE
 70
     1
  9
$TEXTSIZE
 40
3.5
  9
$TRACEWID
 40
1.0
  9
$TEXTSTYLE
  7
STANDARD
  9
$CLAYER
  8
STEMPEL
  9
$CELTYPE
  6
BYLAYER
  9
$CECOLOR
 62
   256
  9
$DIMSCALE
 40
1.0
  9
$DIMASZ
 40
3.5
  9
$DIMEXO
 40
1.0
  9
$DIMDLI
 40
0.38
  9
$DIMRND
 40
0.0
  9
$DIMDLE
 40
0.0
  9
$DIMEXE
 40
1.0
  9
$DIMTP
 40
0.0
  9
$DIMTM
 40
0.000000001
  9
$DIMTXT
 40
3.5
  9
$DIMCEN
 40
0.09
  9
$DIMTSZ
 40
0.0
  9
$DIMTOL
 70
     0
  9
$DIMLIM
 70
     0
  9
$DIMTIH
 70
     0
  9
$DIMTOH
 70
     0
  9
$DIMSE1
 70
     0
  9
$DIMSE2
 70
     0
  9
$DIMTAD
 70
     1
  9
$DIMZIN
 70
     8
  9
$DIMBLK
  1

  9
$DIMASO
 70
     1
  9
$DIMSHO
 70
     0
  9
$DIMPOST
  1

  9
$DIMAPOST
  1

  9
$DIMALT
 70
     0
  9
$DIMALTD
 70
     2
  9
$DIMALTF
 40
25.3999999999999986
  9
$DIMLFAC
 40
2.0
  9
$DIMTOFL
 70
     1
  9
$DIMTVP
 40
0.0
  9
$DIMTIX
 70
     0
  9
$DIMSOXD
 70
     0
  9
$DIMSAH
 70
     0
  9
$DIMBLK1
  1

  9
$DIMBLK2
  1

  9
$DIMSTYLE
  2
LORO
  9
$DIMCLRD
 70
     0
  9
$DIMCLRE
 70
     0
  9
$DIMCLRT
 70
     1
  9
$DIMTFAC
 40
0.5
  9
$DIMGAP
 40
1.5
  9
$LUNITS
 70
     2
  9
$LUPREC
 70
     2
  9
$SKETCHINC
 40
1.0
  9
$FILLETRAD
 40
4.0
  9
$AUNITS
 70
     0
  9
$AUPREC
 70
     0
  9
$MENU
  1
ACAD
  9
$ELEVATION
 40
0.0
  9
$PELEVATION
 40
0.0
  9
$THICKNESS
 40
0.0
  9
$LIMCHECK
 70
     0
  9
$BLIPMODE
 70
     0
  9
$CHAMFERA
 40
0.0
  9
$CHAMFERB
 40
0.0
  9
$SKPOLY
 70
     0
  9
$TDCREATE
 40
2455397.867048610933125
  9
$TDUPDATE
 40
2460864.561377314850688
  9
$TDINDWG
 40
3.7958396065
  9
$TDUSRTIMER
 40
3.7958396065
  9
$USRTIMER
 70
     1
  9
$ANGBASE
 50
0.0
  9
$ANGDIR
 70
     0
  9
$PDMODE
 70
     0
  9
$PDSIZE
 40
0.0
  9
$PLINEWID
 40
0.0
  9
$COORDS
 70
     1
  9
$SPLFRAME
 70
     0
  9
$SPLINETYPE
 70
     6
  9
$SPLINESEGS
 70
     8
  9
$ATTDIA
 70
     1
  9
$ATTREQ
 70
     1
  9
$HANDLING
 70
     1
  9
$HANDSEED
  5
31DEE
  9
$SURFTAB1
 70
     6
  9
$SURFTAB2
 70
     6
  9
$SURFTYPE
 70
     6
  9
$SURFU
 70
     6
  9
$SURFV
 70
     6
  9
$UCSNAME
  2

  9
$UCSORG
 10
0.0
 20
0.0
 30
0.0
  9
$UCSXDIR
 10
1.0
 20
0.0
 30
0.0
  9
$UCSYDIR
 10
0.0
 20
1.0
 30
0.0
  9
$PUCSNAME
  2

  9
$PUCSORG
 10
0.0
 20
0.0
 30
0.0
  9
$PUCSXDIR
 10
1.0
 20
0.0
 30
0.0
  9
$PUCSYDIR
 10
0.0
 20
1.0
 30
0.0
  9
$USERI1
 70
     0
  9
$USERI2
 70
     0
  9
$USERI3
 70
     0
  9
$USERI4
 70
     0
  9
$USERI5
 70
     0
  9
$USERR1
 40
0.0
  9
$USERR2
 40
0.0
  9
$USERR3
 40
0.0
  9
$USERR4
 40
0.0
  9
$USERR5
 40
0.0
  9
$WORLDVIEW
 70
     1
  9
$SHADEDGE
 70
     3
  9
$SHADEDIF
 70
    70
  9
$TILEMODE
 70
     1
  9
$MAXACTVP
 70
    16
  9
$PLIMCHECK
 70
     0
  9
$PEXTMIN
 10
-0.0000000000001137
 20
-0.0000000000001216
 30
-0.0000000000009095
  9
$PEXTMAX
 10
419.5
 20
593.5000000000001137
 30
0.0000000000000932
  9
$PLIMMIN
 10
-0.2180001410411023
 20
-0.2290027448085539
  9
$PLIMMAX
 10
419.781999858958784
 20
593.7709972551914461
  9
$UNITMODE
 70
     0
  9
$VISRETAIN
 70
     0
  9
$PLINEGEN
 70
     0
  9
$PSLTSCALE
 70
     0
  0
ENDSEC
  0
SECTION
  2
TABLES
  0
TABLE
  2
VPORT
 70
     1
  0
VPORT
  2
*ACTIVE
 70
     0
 10
0.0
 20
0.0
 11
1.0
 21
1.0
 12
-0.0000000000004547
 22
-150.0000065070674964
 13
0.0
 23
0.0
 14
1.0
 24
1.0
 15
10.0
 25
10.0
 16
-0.0000000000004976
 26
0.0
 36
2241.1590329340010612
 17
0.0
 27
75.75
 37
-0.0000000000000162
 40
956.4046345458173164
 41
1.8839208942390371
 42
49.9999999999999574
 43
0.0
 44
0.0
 50
0.0
 51
0.0
 71
     0
 72
  1500
 73
     1
 74
     0
 75
     0
 76
     0
 77
     0
 78
     0
  0
ENDTAB
  0
TABLE
  2
LTYPE
 70
     3
  0
LTYPE
  2
CONTINUOUS
 70
     0
  3
Solid line
 72
    65
 73
     0
 40
0.0
  0
LTYPE
  2
STRICHPUNKT
 70
     0
  3
__ . __ . __ . __ . __ . __ . __ . __ . __ . __
 72
    65
 73
     4
 40
1.0
 49
0.5
 49
-0.25
 49
0.0
 49
-0.25
  0
LTYPE
  2
VERDECKT
 70
     0
  3
Verdeckt __ __ __ __ __ __ __ __ __ __ __ __ __
 72
    65
 73
     2
 40
0.375
 49
0.25
 49
-0.125
  0
ENDTAB
  0
TABLE
  2
LAYER
 70
     6
  0
LAYER
  2
0
 70
     0
 62
     7
  6
CONTINUOUS
  0
LAYER
  2
STEMPEL
 70
     0
 62
     3
  6
CONTINUOUS
  0
LAYER
  2
ADSK_ASSOC_ENTITY_BACKUPS
 70
     1
 62
    -7
  6
CONTINUOUS
  0
ENDTAB
  0
TABLE
  2
STYLE
 70
     1
  0
STYLE
  2
STANDARD
 70
     0
 40
0.0
 41
0.8
 50
0.0
 71
     0
 42
3.5
  3
simplex.shx
  4

  0
ENDTAB
  0
TABLE
  2
VIEW
 70
     0
  0
ENDTAB
  0
TABLE
  2
UCS
 70
     0
  0
ENDTAB
  0
TABLE
  2
APPID
 70
    32
  0
APPID
  2
ACAD
 70
     0
  0
APPID
  2
ACAECLAYERSTANDARD
 70
     0
  0
APPID
  2
ACCMTRANSPARENCY
 70
     0
  0
APPID
  2
ACAD_NAV_VCDISPLAY
 70
     0
  0
APPID
  2
ACAD_PSEXT
 70
     0
  0
APPID
  2
ACAD_STEPID
 70
     0
  0
APPID
  2
ACAD_EXEMPT_FROM_CAD_STANDARDS
 70
     0
  0
APPID
  2
ACSYNERGY
 70
     0
  0
APPID
  2
SYNERGY_BODY_TBR_ID
 70
     0
  0
APPID
  2
ACAD_VIEW_EDGE_ID
 70
     0
  0
APPID
  2
GRADIENTCOLOR1ACI
 70
     0
  0
APPID
  2
GRADIENTCOLOR2ACI
 70
     0
  0
APPID
  2
ACAD_DSTYLE_DIMRADIAL_EXTENSION
 70
     0
  0
APPID
  2
ACADANNOMONITORALERTICONDI
 70
     0
  0
APPID
  2
ACAD_MLEADERVER
 70
     0
  0
APPID
  2
ACSYNERGYSKETCH
 70
     0
  0
APPID
  2
ACAD_MODELDOC_XFORM
 70
     0
  0
APPID
  2
ACDBDYNAMICBLOCKGUID
 70
     0
  0
APPID
  2
ACAD_DSTYLE_DIMJAG
 70
     0
  0
APPID
  2
ACAD_DSTYLE_DIMBREAK
 70
     0
  0
APPID
  2
ACAD_DSTYLE_DIMTALN
 70
     0
  0
APPID
  2
ACADANNOPO
 70
     0
  0
APPID
  2
PLOTTRANSPARENCY
 70
     0
  0
APPID
  2
ACADANNOTATIVE
 70
     0
  0
APPID
  2
ACAD_DIMASSOC_CALC_DIMLFAC
 70
     0
  0
APPID
  2
ACAD_DIMASSOC_DIMLFAC
 70
     0
  0
APPID
  2
ACAD_DIMASSOC_OVERRIDDEN_D
 70
     0
  0
APPID
  2
ACADANNOAV
 70
     0
  0
APPID
  2
ACAUTHENVIRON
 70
     0
  0
APPID
  2
ACDBDYNAMICBLOCKTRUENAME
 70
     0
  0
APPID
  2
ACDBDYNAMICBLOCKTRUENAME2
 70
     0
  0
APPID
  2
SYNERGY_EXCLUDED_FROM_SNAPSHOT
 70
     0
  0
ENDTAB
  0
TABLE
  2
DIMSTYLE
 70
     3
  0
DIMSTYLE
  2
LORO
 70
     0
  3

  4

  5

  6

  7

 40
1.0
 41
3.5
 42
1.0
 43
0.38
 44
1.0
 45
0.0
 46
0.0
 47
0.0
 48
0.000000001
140
3.5
141
0.09
142
0.0
143
25.3999999999999986
144
2.0
145
0.0
146
0.5
147
1.5
 71
     0
 72
     0
 73
     0
 74
     0
 75
     0
 76
     0
 77
     1
 78
     8
170
     0
171
     2
172
     1
173
     0
174
     0
175
     0
176
     0
177
     0
178
     1
  0
ENDTAB
  0
ENDSEC
  0
SECTION
  2
BLOCKS
  0
BLOCK
  8
0
  2
$MODEL_SPACE
 70
     0
 10
0.0
 20
0.0
 30
0.0
  3
$MODEL_SPACE
  1

  0
ENDBLK
  5
38
  8
0
  0
BLOCK
 67
     1
  8
0
  2
$PAPER_SPACE
 70
     0
 10
0.0
 20
0.0
 30
0.0
  3
$PAPER_SPACE
  1

  0
ENDBLK
  5
36
 67
     1
  8
0
  0
BLOCK
  8
0
  2
*S0
 70
     1
 10
0.0
 20
0.0
 30
0.0
  3
*S0
  1

  0
ENDBLK
  5
7128
  8
0
  0
BLOCK
  8
0
  2
A$C5A619E77
 70
     0
 10
0.0
 20
0.0
 30
0.0
  3
A$C5A619E77
  1

  0
LINE
  5
31CD4
  8
0
  6
CONTINUOUS
 62
     3
 10
249.9999999999994884
 20
-250.0000042042177029
 30
0.0000000000000568
 11
-250.0000000000005116
 21
-250.0000042042177029
 31
-0.0000000000000542
  0
LINE
  5
31CD5
  8
0
  6
CONTINUOUS
 62
     3
 10
-250.0000000000005116
 20
-250.0000042042177029
 30
-0.0000000000000568
 11
-250.0000000000005116
 21
249.9999957957822971
 31
-0.0000000000000568
  0
LINE
  5
31CD6
  8
0
  6
CONTINUOUS
 62
     3
 10
249.9999999999994884
 20
249.9999957957822971
 30
0.0000000000000568
 11
249.9999999999994884
 21
-250.0000042042177029
 31
0.0000000000000568
  0
LINE
  5
31CD7
  8
0
  6
CONTINUOUS
 62
     3
 10
-250.0000000000005116
 20
249.9999957957822971
 30
-0.0000000000000568
 11
249.9999999999994884
 21
249.9999957957822971
 31
0.0000000000000542
  0
CIRCLE
  5
31CD8
  8
0
  6
CONTINUOUS
 62
     3
 10
-0.0000000000004245
 20
-0.0000042042177171
 30
0.0
 40
68.7516380057675178
  0
CIRCLE
  5
31CD9
  8
0
  6
CONTINUOUS
 62
     3
 10
-0.0000000000029834
 20
-0.0000197845216847
 30
0.0
 40
55.3000906917928319
  0
CIRCLE
  5
31CDA
  8
0
  6
CONTINUOUS
 62
     3
 10
-0.000000000002984
 20
-0.0000197845216849
 30
0.0
 40
65.8779490119901538
  0
CIRCLE
  5
31CDB
  8
0
  6
CONTINUOUS
 62
     3
 10
-0.0000000000029871
 20
-0.0000197845216857
 30
0.0
 40
48.0000000000002913
  0
CIRCLE
  5
31CDC
  8
0
  6
VERDECKT
 62
     1
 10
-0.0000000000004299
 20
-0.0000042042177171
 30
0.0
 40
57.5000000000001066
  0
CIRCLE
  5
31CDD
  8
0
  6
VERDECKT
 62
     1
 10
-0.0000000000004262
 20
-0.0000042042177171
 30
0.0
 40
70.0000000000001137
  0
CIRCLE
  5
31CDE
  8
0
  6
VERDECKT
 62
     1
 10
-0.0000000000004245
 20
-0.0000042042177171
 30
0.0
 40
70.2516380057673757
  0
CIRCLE
  5
31CDF
  8
0
  6
VERDECKT
 62
     1
 10
-0.0000000000030953
 20
-0.0000197845216915
 30
0.0
 40
58.0000000000001066
  0
CIRCLE
  5
31CE0
  8
0
  6
VERDECKT
 62
     1
 10
-0.0000000000030953
 20
-0.0000197845216915
 30
0.0
 40
59.9999999999996589
  0
CIRCLE
  5
31CE1
  8
0
  6
VERDECKT
 62
     1
 10
-0.0000000000029841
 20
-0.0000197845216849
 30
0.0
 40
70.0000000000000568
  0
CIRCLE
  5
31CE2
  8
0
  6
VERDECKT
 62
     1
 10
-0.0000000000029878
 20
-0.0000197845216859
 30
0.0
 40
56.2320508075695216
  0
CIRCLE
  5
31CE3
  8
0
  6
VERDECKT
 62
     1
 10
-0.0000000000029876
 20
-0.0000197845216859
 30
0.0
 40
54.5000000000005116
  0
CIRCLE
  5
31CE4
  8
0
  6
VERDECKT
 62
     1
 10
-0.0000000000031521
 20
-0.0000197845216915
 30
0.0
 40
58.0000000000001066
  0
CIRCLE
  5
31CE5
  8
0
  6
VERDECKT
 62
     1
 10
-0.0000000000031521
 20
-0.0000197845216915
 30
0.0
 40
59.9999999999996589
  0
CIRCLE
  5
31CE6
  8
0
  6
VERDECKT
 62
     1
 10
0.0000000000000399
 20
-0.0000000000000568
 30
0.0
 40
50.9999999999999716
  0
CIRCLE
  5
31CE7
  8
0
  6
VERDECKT
 62
     1
 10
-0.0000000000000568
 20
-0.0000000000000568
 30
0.0
 40
50.0
  0
CIRCLE
  5
31CE8
  8
0
  6
VERDECKT
 62
     1
 10
-0.0000000000000568
 20
-0.0000000000000568
 30
0.0
 40
48.0154442465713629
  0
CIRCLE
  5
31CE9
  8
0
  6
VERDECKT
 62
     1
 10
0.0000000000000399
 20
-0.0000000000000568
 30
0.0
 40
48.9999999999986997
  0
CIRCLE
  5
31CEA
  8
0
  6
VERDECKT
 62
     1
 10
0.000000000000046
 20
-0.0000000000000568
 30
0.0
 40
65.0425004445023234
  0
CIRCLE
  5
31CEB
  8
0
  6
VERDECKT
 62
     1
 10
0.0000000000000463
 20
-0.0000000000000568
 30
0.0
 40
63.5000000000000071
  0
CIRCLE
  5
31CEC
  8
0
  6
VERDECKT
 62
     1
 10
-0.0000000000004801
 20
-0.000004204217703
 30
0.0
 40
137.5
  0
CIRCLE
  5
31CED
  8
0
  6
VERDECKT
 62
     1
 10
-0.0000000000004804
 20
-0.0000042042177031
 30
0.0
 40
137.2137865069350937
  0
CIRCLE
  5
31CEE
  8
0
  6
VERDECKT
 62
     1
 10
-0.0000000000004829
 20
-0.0000042042177038
 30
0.0
 40
73.0000000000000142
  0
CIRCLE
  5
31CEF
  8
0
  6
VERDECKT
 62
     1
 10
-0.0000000000004872
 20
-0.0000042042177049
 30
0.0
 40
60.0
  0
CIRCLE
  5
31CF0
  8
0
  6
VERDECKT
 62
     1
 10
-0.000000000000483
 20
-0.0000042042177038
 30
0.0
 40
71.5
  0
CIRCLE
  5
31CF1
  8
0
  6
VERDECKT
 62
     1
 10
-0.0000000000004814
 20
-0.0000042042177034
 30
0.0
 40
71.865984112298122
  0
CIRCLE
  5
31CF2
  8
0
  6
VERDECKT
 62
     1
 10
-0.0000000000004814
 20
-0.0000042042177034
 30
0.0
 40
70.365984112298122
  0
ENDBLK
  5
31CF4
  8
0
  0
BLOCK
  8
0
  2
A$C46864F06
 70
     0
 10
0.0
 20
0.0
 30
0.0
  3
A$C46864F06
  1

  0
LINE
  5
31CF8
  8
0
  6
CONTINUOUS
 62
     3
 10
249.9999999999994031
 20
401.4999911900827101
 30
-0.0000000000000892
 11
-250.0000000000005969
 21
401.4999911900827101
 31
-0.0000000000000892
210
0.0
220
1.0
230
-0.0000000000000002
  0
LINE
  5
31CF9
  8
0
  6
CONTINUOUS
 62
     3
 10
-250.0000000000005969
 20
401.4999911900827101
 30
-0.0000000000000892
 11
-250.0000000000005969
 21
399.9999911900827101
 31
-0.0000000000000888
210
0.0
220
1.0
230
-0.0000000000000002
  0
LINE
  5
31CFA
  8
0
  6
CONTINUOUS
 62
     3
 10
249.9999999999994031
 20
399.9999911900827101
 30
-0.0000000000000888
 11
-250.0000000000005969
 21
399.9999911900827101
 31
-0.0000000000000888
210
0.0
220
1.0
230
-0.0000000000000002
  0
LINE
  5
31CFB
  8
0
  6
CONTINUOUS
 62
     3
 10
249.9999999999994031
 20
401.4999911900827101
 30
-0.0000000000000892
 11
249.9999999999994031
 21
399.9999911900827101
 31
-0.0000000000000888
210
0.0
220
1.0
230
-0.0000000000000002
  0
LINE
  5
31CFC
  8
0
  6
CONTINUOUS
 62
     3
 10
-50.0000000000000711
 20
-0.0000020952484515
 30
0.0
 11
49.9999999999999503
 21
-0.0000020952484576
 31
0.0
210
0.0
220
1.0
230
-0.0000000000000002
  0
LINE
  5
31CFD
  8
0
  6
CONTINUOUS
 62
     3
 10
-65.0425004445023518
 20
363.3509684702138998
 30
-0.0000000000000807
 11
65.042500444502295
 21
363.3509684702138998
 31
-0.0000000000000807
210
0.0
220
1.0
230
-0.0000000000000002
  0
LINE
  5
31CFE
  8
0
  6
CONTINUOUS
 62
     3
 10
-63.5000000000000568
 20
364.6240326393410101
 30
-0.000000000000081
 11
63.4999999999999716
 21
364.6240326393410101
 31
-0.000000000000081
210
0.0
220
1.0
230
-0.0000000000000002
  0
ARC
  5
31CFF
  8
0
  6
CONTINUOUS
 62
     3
 10
50.0000000000017408
 20
8.0622556530499327
 30
0.0
 40
0.9999999999983089
210
0.0
220
-0.0000000000000002
230
-1.0
 50
352.8749836510908722
 51
0.0000000000046818
  0
ARC
  5
31D00
  8
0
  6
CONTINUOUS
 62
     3
 10
-50.0000000000015419
 20
8.0622556530499274
 30
0.0
 40
0.9999999999984012
210
0.0
220
-0.0000000000000002
230
-1.0
 50
179.9999999999953957
 51
187.1250163489087015
  0
LINE
  5
31D01
  8
0
  6
CONTINUOUS
 62
     3
 10
50.9999999999999574
 20
342.0240326393408736
 30
-0.0000000000000759
 11
50.9999999999999432
 21
8.0622556530500464
 31
-0.0000000000000018
210
0.0
220
1.0
230
-0.0000000000000002
  0
LINE
  5
31D02
  8
0
  6
CONTINUOUS
 62
     3
 10
-51.0000000000000426
 20
342.0240326393408736
 30
-0.0000000000000759
 11
-51.0000000000000497
 21
8.0622556530500464
 31
-0.0000000000000018
210
0.0
220
1.0
230
-0.0000000000000002
  0
LINE
  5
31D03
  8
0
  6
CONTINUOUS
 62
     3
 10
-50.0000000000000711
 20
-0.0000020952484507
 30
0.0
 11
-50.9922778767137288
 21
7.9382209184608046
 31
-0.0000000000000018
210
0.0
220
1.0
230
-0.0000000000000002
  0
LINE
  5
31D04
  8
0
  6
CONTINUOUS
 62
     3
 10
49.9999999999999503
 20
-0.0000020952484547
 30
0.0
 11
50.992277876713608
 21
7.9382209184607957
 31
-0.0000000000000018
210
0.0
220
1.0
230
-0.0000000000000002
  0
LINE
  5
31D05
  8
0
  6
CONTINUOUS
 62
     3
 10
63.4999999999999574
 20
364.6240326393410101
 30
-0.000000000000081
 11
65.0425004445022807
 21
363.3509684702138998
 31
-0.0000000000000807
210
0.0
220
1.0
230
-0.0000000000000002
  0
LINE
  5
31D06
  8
0
  6
CONTINUOUS
 62
     3
 10
-63.5000000000000284
 20
364.6240326393408964
 30
-0.000000000000081
 11
-65.0425004445023518
 21
363.3509684702138998
 31
-0.0000000000000807
210
0.0
220
1.0
230
-0.0000000000000002
  0
LINE
  5
31D07
  8
0
  6
CONTINUOUS
 62
     3
 10
-53.744997332991808
 20
349.6624176540984763
 30
-0.0000000000000776
 11
-65.042500444502366
 21
363.3509684702138998
 31
-0.0000000000000807
210
0.0
220
1.0
230
-0.0000000000000002
  0
LINE
  5
31D08
  8
0
  6
CONTINUOUS
 62
     3
 10
53.744997332991737
 20
349.6624176540984763
 30
-0.0000000000000776
 11
65.042500444502295
 21
363.3509684702138998
 31
-0.0000000000000807
210
0.0
220
1.0
230
-0.0000000000000002
  0
ARC
  5
31D09
  8
0
  6
CONTINUOUS
 62
     3
 10
62.9999999999999716
 20
342.0240326393408736
 30
0.0
 40
12.0000000000002203
210
0.0
220
-0.0000000000000002
230
-1.0
 50
140.4662908394408873
 51
180.0
  0
ARC
  5
31D0A
  8
0
  6
CONTINUOUS
 62
     3
 10
-62.9999999999999005
 20
342.0240326393408736
 30
0.0
 40
12.0000000000002007
210
0.0
220
-0.0000000000000002
230
-1.0
 50
0.0
 51
39.5337091605590771
  0
LINE
  5
31D0B
  8
0
  6
CONTINUOUS
 62
     3
 10
-137.5000000000005116
 20
397.9724319652542022
 30
-0.0000000000000884
 11
137.4999999999994031
 21
397.9724319652542022
 31
-0.0000000000000884
210
0.0
220
1.0
230
-0.0000000000000002
  0
LINE
  5
31D0C
  8
0
  6
CONTINUOUS
 62
     3
 10
-137.2137865069356053
 20
396.4999911900827101
 30
-0.000000000000088
 11
137.2137865069346105
 21
396.4999911900827101
 31
-0.000000000000088
210
0.0
220
1.0
230
-0.0000000000000002
  0
LINE
  5
31D0D
  8
0
  6
CONTINUOUS
 62
     3
 10
-73.0000000000005826
 20
384.9999911900827101
 30
-0.0000000000000855
 11
72.9999999999994458
 21
384.9999911900827101
 31
-0.0000000000000855
210
0.0
220
1.0
230
-0.0000000000000002
  0
LINE
  5
31D0E
  8
0
  6
CONTINUOUS
 62
     3
 10
-73.0000000000005684
 20
380.9999911900825964
 30
-0.0000000000000846
 11
72.9999999999994316
 21
380.9999911900825964
 31
-0.0000000000000846
210
0.0
220
1.0
230
-0.0000000000000002
  0
ARC
  5
31D0F
  8
0
  6
CONTINUOUS
 62
     3
 10
126.8283894267983953
 20
397.4999911900908955
 30
0.0
 40
2.4999999999917568
210
0.0
220
-0.0000000000000002
230
-1.0
 50
78.9999999999788542
 51
90.0000000000150067
  0
ARC
  5
31D10
  8
0
  6
CONTINUOUS
 62
     3
 10
-126.8283894267973011
 20
397.4999911900908955
 30
0.0
 40
2.4999999999917568
210
0.0
220
-0.0000000000000002
230
-1.0
 50
89.9999999999849933
 51
101.0000000000211031
  0
LINE
  5
31D11
  8
0
  6
CONTINUOUS
 62
     3
 10
127.3054119152379968
 20
399.9540591487017878
 30
-0.0000000000000888
 11
137.4999999999994031
 21
397.9724319652542022
 31
-0.0000000000000884
210
0.0
220
1.0
230
-0.0000000000000002
  0
LINE
  5
31D12
  8
0
  6
CONTINUOUS
 62
     3
 10
-127.3054119152391053
 20
399.9540591487017878
 30
-0.0000000000000888
 11
-137.5000000000005116
 21
397.9724319652542022
 31
-0.0000000000000884
210
0.0
220
1.0
230
-0.0000000000000002
  0
LINE
  5
31D13
  8
0
  6
CONTINUOUS
 62
     3
 10
-137.2137865069356906
 20
396.4999911900827101
 30
-0.000000000000088
 11
-137.5000000000005116
 21
397.9724319652540885
 31
-0.0000000000000884
210
0.0
220
1.0
230
-0.0000000000000002
  0
LINE
  5
31D14
  8
0
  6
CONTINUOUS
 62
     3
 10
137.2137865069346105
 20
396.4999911900827101
 30
-0.000000000000088
 11
137.4999999999994031
 21
397.9724319652542022
 31
-0.0000000000000884
210
0.0
220
1.0
230
-0.0000000000000002
  0
ARC
  5
31D15
  8
0
  6
CONTINUOUS
 62
     3
 10
78.3659841122987757
 20
391.9999911900827101
 30
0.0
 40
6.5000000000000648
210
0.0
220
-0.0000000000000002
230
-1.0
 50
136.1869385395966958
 51
189.9999999999998863
  0
ARC
  5
31D16
  8
0
  6
CONTINUOUS
 62
     3
 10
-78.3659841122976388
 20
391.9999911900827101
 30
0.0
 40
6.5000000000000817
210
0.0
220
-0.0000000000000002
230
-1.0
 50
350.0
 51
43.81306146040329
  0
LINE
  5
31D17
  8
0
  6
CONTINUOUS
 62
     3
 10
71.9647337177181896
 20
390.8712780352475988
 30
-0.0000000000000868
 11
72.99999999999946
 21
384.9999911900827101
 31
-0.0000000000000855
210
0.0
220
1.0
230
-0.0000000000000002
  0
LINE
  5
31D18
  8
0
  6
CONTINUOUS
 62
     3
 10
-71.9647337177193407
 20
390.8712780352474851
 30
-0.0000000000000868
 11
-73.0000000000005826
 21
384.9999911900827101
 31
-0.0000000000000855
210
0.0
220
1.0
230
-0.0000000000000002
  0
LINE
  5
31D19
  8
0
  6
CONTINUOUS
 62
     3
 10
72.9999999999994316
 20
384.9999911900827101
 30
-0.0000000000000855
 11
72.9999999999994316
 21
380.9999911900825964
 31
-0.0000000000000846
210
0.0
220
1.0
230
-0.0000000000000002
  0
LINE
  5
31D1A
  8
0
  6
CONTINUOUS
 62
     3
 10
-73.0000000000005684
 20
384.9999911900827101
 30
-0.0000000000000855
 11
-73.0000000000005684
 21
380.9999911900825964
 31
-0.0000000000000846
210
0.0
220
1.0
230
-0.0000000000000002
  0
LINE
  5
31D1B
  8
0
  6
CONTINUOUS
 62
     3
 10
-65.6084097491473131
 20
368.1973813268739946
 30
-0.0000000000000818
 11
-73.0000000000005542
 21
380.9999911900824827
 31
-0.0000000000000846
210
0.0
220
1.0
230
-0.0000000000000002
  0
LINE
  5
31D1C
  8
0
  6
CONTINUOUS
 62
     3
 10
65.608409749146162
 20
368.1973813268739946
 30
-0.0000000000000818
 11
72.9999999999994458
 21
380.9999911900825964
 31
-0.0000000000000846
210
0.0
220
1.0
230
-0.0000000000000002
  0
ARC
  5
31D1D
  8
0
  6
CONTINUOUS
 62
     3
 10
59.1132192207638596
 20
371.9473813268741083
 30
0.0
 40
7.5000000000001954
210
0.0
220
-0.0000000000000002
230
-1.0
 50
282.4601011431532243
 51
329.9999999999993747
  0
ARC
  5
31D1E
  8
0
  6
CONTINUOUS
 62
     3
 10
-59.1132192207627227
 20
371.9473813268741083
 30
0.0
 40
7.5000000000002016
210
0.0
220
-0.0000000000000002
230
-1.0
 50
210.0000000000005969
 51
257.5398988568467757
  0
LINE
  5
31D1F
  8
0
  6
VERDECKT
 62
     1
 10
-71.5000000000006253
 20
384.8074130936873871
 30
-0.0000000000000854
 11
71.4999999999996021
 21
384.8074130936873871
 31
-0.0000000000000854
210
0.0
220
1.0
230
-0.0000000000000002
  0
LINE
  5
31D20
  8
0
  6
VERDECKT
 62
     1
 10
-71.5000000000006253
 20
381.5358895749449175
 30
-0.0000000000000847
 11
71.4999999999996021
 21
381.5358895749449175
 31
-0.0000000000000847
210
0.0
220
1.0
230
-0.0000000000000002
  0
LINE
  5
31D21
  8
0
  6
VERDECKT
 62
     1
 10
-60.8411939868914686
 20
366.5814069030409996
 30
-0.0000000000000814
 11
60.8411939868904525
 21
366.5814069030409996
 31
-0.0000000000000814
210
0.0
220
1.0
230
-0.0000000000000002
  0
LINE
  5
31D22
  8
0
  6
VERDECKT
 62
     1
 10
-61.1339745962165466
 20
368.0814069030409996
 30
-0.0000000000000817
 11
61.1339745962128518
 21
368.0814069030409996
 31
-0.0000000000000817
210
0.0
220
1.0
230
-0.0000000000000002
  0
LINE
  5
31D23
  8
0
  6
VERDECKT
 62
     1
 10
-70.0000000000006253
 20
381.9378133635916015
 30
-0.0000000000000848
 11
69.9999999999968736
 21
381.9378133635916015
 31
-0.0000000000000848
210
0.0
220
1.0
230
-0.0000000000000002
  0
LINE
  5
31D24
  8
0
  6
VERDECKT
 62
     1
 10
-70.0000000000006253
 20
384.6629795213910938
 30
-0.0000000000000854
 11
69.9999999999968736
 21
384.6629795213910938
 31
-0.0000000000000854
210
0.0
220
1.0
230
-0.0000000000000002
  0
ARC
  5
31D25
  8
0
  6
VERDECKT
 62
     1
 10
78.2516380057681573
 20
391.9999911900824827
 30
0.0
 40
9.5000000000001137
210
0.0
220
-0.0000000000000002
230
-1.0
 50
90.0000000000014637
 51
191.000000000000199
  0
ARC
  5
31D26
  8
0
  6
VERDECKT
 62
     1
 10
-78.2516380057671341
 20
391.9999911900824827
 30
0.0
 40
9.5000000000001332
210
0.0
220
-0.0000000000000002
230
-1.0
 50
348.9999999999997158
 51
89.9999999999985647
  0
ARC
  5
31D27
  8
0
  6
VERDECKT
 62
     1
 10
78.2516380057678447
 20
391.9999911900824827
 30
0.0
 40
8.0
210
0.0
220
-0.0000000000000002
230
-1.0
 50
89.9999999999994742
 51
190.9999999999990905
  0
ARC
  5
31D28
  8
0
  6
VERDECKT
 62
     1
 10
-78.251638005766921
 20
391.9999911900824827
 30
0.0
 40
8.0000000000000568
210
0.0
220
-0.0000000000000002
230
-1.0
 50
349.0000000000010232
 51
89.9999999999998153
  0
LINE
  5
31D29
  8
0
  6
VERDECKT
 62
     1
 10
70.3986205381855399
 20
390.4735192270701987
 30
-0.0000000000000867
 11
71.4999999999996163
 21
384.8074130936873871
 31
-0.0000000000000854
210
0.0
220
1.0
230
-0.0000000000000002
  0
LINE
  5
31D2A
  8
0
  6
VERDECKT
 62
     1
 10
-70.3986205381865631
 20
390.4735192270701987
 30
-0.0000000000000867
 11
-71.5000000000006395
 21
384.8074130936873871
 31
-0.0000000000000854
210
0.0
220
1.0
230
-0.0000000000000002
  0
LINE
  5
31D2B
  8
0
  6
VERDECKT
 62
     1
 10
71.4999999999996021
 20
384.8074130936873871
 30
-0.0000000000000854
 11
71.4999999999996021
 21
381.5358895749449175
 31
-0.0000000000000847
210
0.0
220
1.0
230
-0.0000000000000002
  0
LINE
  5
31D2C
  8
0
  6
VERDECKT
 62
     1
 10
-71.5000000000006253
 20
384.8074130936873871
 30
-0.0000000000000854
 11
-71.5000000000006253
 21
381.5358895749449175
 31
-0.0000000000000847
210
0.0
220
1.0
230
-0.0000000000000002
  0
LINE
  5
31D2D
  8
0
  6
VERDECKT
 62
     1
 10
-64.2623956929665923
 20
368.9999911900824827
 30
-0.0000000000000819
 11
-71.5000000000006963
 21
381.5358895749448038
 31
-0.0000000000000847
210
0.0
220
1.0
230
-0.0000000000000002
  0
LINE
  5
31D2E
  8
0
  6
VERDECKT
 62
     1
 10
64.2623956929655691
 20
368.9999911900824827
 30
-0.0000000000000819
 11
71.4999999999996732
 21
381.5358895749448038
 31
-0.0000000000000847
210
0.0
220
1.0
230
-0.0000000000000002
  0
ARC
  5
31D2F
  8
0
  6
VERDECKT
 62
     1
 10
59.0662432702617011
 20
371.9999911900804932
 30
0.0
 40
5.9999999999972813
210
0.0
220
-0.0000000000000002
230
-1.0
 50
306.2742018136161164
 51
330.0000000000088107
  0
ARC
  5
31D30
  8
0
  6
VERDECKT
 62
     1
 10
-59.0662432702608626
 20
371.9999911900803227
 30
0.0
 40
5.999999999997037
210
0.0
220
-0.0000000000000002
230
-1.0
 50
209.9999999999905071
 51
233.7257981863841962
  0
ARC
  5
31D31
  8
0
  6
VERDECKT
 62
     1
 10
60.84119398689338
 20
369.5814069030390101
 30
0.0
 40
2.9999999999979532
210
0.0
220
-0.0000000000000002
230
-1.0
 50
270.0
 51
306.2742018136502224
  0
ARC
  5
31D32
  8
0
  6
VERDECKT
 62
     1
 10
-60.8411939868923568
 20
369.5814069030390101
 30
0.0
 40
2.9999999999979559
210
0.0
220
-0.0000000000000002
230
-1.0
 50
233.7257981863861005
 51
270.0000000000363798
  0
LINE
  5
31D33
  8
0
  6
VERDECKT
 62
     1
 10
57.4999999999996021
 20
368.0814069030409996
 30
-0.0000000000000817
 11
57.4999999999996021
 21
366.5814069030411133
 31
-0.0000000000000814
210
0.0
220
1.0
230
-0.0000000000000002
  0
LINE
  5
31D34
  8
0
  6
VERDECKT
 62
     1
 10
-57.5000000000006324
 20
368.0814069030409996
 30
-0.0000000000000817
 11
-57.5000000000006324
 21
366.5814069030411133
 31
-0.0000000000000814
210
0.0
220
1.0
230
-0.0000000000000002
  0
LINE
  5
31D35
  8
0
  6
VERDECKT
 62
     1
 10
68.926179763014261
 20
390.1873057340051787
 30
-0.0000000000000866
 11
69.8411951174724095
 21
385.4799598175525261
 31
-0.0000000000000856
210
0.0
220
1.0
230
-0.0000000000000002
  0
LINE
  5
31D36
  8
0
  6
VERDECKT
 62
     1
 10
-68.9261797630152842
 20
390.1873057340051787
 30
-0.0000000000000866
 11
-69.8411951174736174
 21
385.479959817551503
 31
-0.0000000000000856
210
0.0
220
1.0
230
-0.0000000000000002
  0
LINE
  5
31D37
  8
0
  6
VERDECKT
 62
     1
 10
-60.0000000000028422
 20
396.081406903038328
 30
-0.0000000000000879
 11
59.9999999999964686
 21
396.081406903038328
 31
-0.0000000000000879
210
0.0
220
1.0
230
-0.0000000000000002
  0
LINE
  5
31D38
  8
0
  6
VERDECKT
 62
     1
 10
-60.0000000000028422
 20
373.081406903038328
 30
-0.0000000000000828
 11
59.9999999999964686
 21
373.081406903038328
 31
-0.0000000000000828
210
0.0
220
1.0
230
-0.0000000000000002
  0
LINE
  5
31D39
  8
0
  6
VERDECKT
 62
     1
 10
57.9999999999969305
 20
396.0814069030381006
 30
-0.0000000000000879
 11
57.9999999999969305
 21
373.081406903038328
 31
-0.0000000000000828
210
0.0
220
1.0
230
-0.0000000000000002
  0
LINE
  5
31D3A
  8
0
  6
VERDECKT
 62
     1
 10
-58.0000000000032969
 20
396.0814069030381006
 30
-0.0000000000000879
 11
-58.0000000000032969
 21
373.081406903038328
 31
-0.0000000000000828
210
0.0
220
1.0
230
-0.0000000000000002
  0
LINE
  5
31D3B
  8
0
  6
VERDECKT
 62
     1
 10
59.9999999999964828
 20
396.081406903038328
 30
-0.0000000000000879
 11
59.9999999999964828
 21
373.081406903038328
 31
-0.0000000000000828
210
0.0
220
1.0
230
-0.0000000000000002
  0
LINE
  5
31D3C
  8
0
  6
VERDECKT
 62
     1
 10
-60.0000000000028422
 20
396.081406903038328
 30
-0.0000000000000879
 11
-60.0000000000028422
 21
373.081406903038328
 31
-0.0000000000000828
210
0.0
220
1.0
230
-0.0000000000000002
  0
LINE
  5
31D3D
  8
0
  6
VERDECKT
 62
     1
 10
-55.300090691796008
 20
388.0814069030411133
 30
-0.0000000000000862
 11
55.3000906917897623
 21
388.0814069030411133
 31
-0.0000000000000862
210
0.0
220
1.0
230
-0.0000000000000002
  0
LINE
  5
31D3E
  8
0
  6
VERDECKT
 62
     1
 10
-59.992360324916433
 20
398.0814069030412838
 30
-0.0000000000000884
 11
59.992360324910301
 21
398.0814069030412838
 31
-0.0000000000000884
210
0.0
220
1.0
230
-0.0000000000000002
  0
LINE
  5
31D3F
  8
0
  6
VERDECKT
 62
     1
 10
-65.8779490119932234
 20
385.1040903552250825
 30
-0.0000000000000855
 11
65.8779490119870843
 21
385.1040903552250825
 31
-0.0000000000000855
210
0.0
220
1.0
230
-0.0000000000000002
  0
LINE
  5
31D40
  8
0
  6
VERDECKT
 62
     1
 10
-54.5000000000036877
 20
369.0814069030407722
 30
-0.000000000000082
 11
54.499999999997442
 21
369.0814069030407722
 31
-0.000000000000082
210
0.0
220
1.0
230
-0.0000000000000002
  0
LINE
  5
31D41
  8
0
  6
VERDECKT
 62
     1
 10
-48.3218007376501575
 20
371.0814069030409996
 30
-0.0000000000000824
 11
48.3218007376440184
 21
371.0814069030409996
 31
-0.0000000000000824
210
0.0
220
1.0
230
-0.0000000000000002
  0
LINE
  5
31D42
  8
0
  6
VERDECKT
 62
     1
 10
-60.0000000000028919
 20
396.081406903038328
 30
-0.0000000000000879
 11
59.9999999999964118
 21
396.081406903038328
 31
-0.0000000000000879
210
0.0
220
1.0
230
-0.0000000000000002
  0
LINE
  5
31D43
  8
0
  6
VERDECKT
 62
     1
 10
-60.0000000000028919
 20
373.081406903038328
 30
-0.0000000000000828
 11
59.9999999999964118
 21
373.081406903038328
 31
-0.0000000000000828
210
0.0
220
1.0
230
-0.0000000000000002
  0
LINE
  5
31D44
  8
0
  6
VERDECKT
 62
     1
 10
-50.2914162436731615
 20
372.7341105477071892
 30
-0.0000000000000828
 11
-52.6332883674599472
 21
386.0155273472080921
 31
-0.0000000000000857
210
0.0
220
1.0
230
-0.0000000000000002
  0
LINE
  5
31D45
  8
0
  6
VERDECKT
 62
     1
 10
50.2914162436670225
 20
372.7341105477071892
 30
-0.0000000000000828
 11
52.6332883674538081
 21
386.0155273472080921
 31
-0.0000000000000857
210
0.0
220
1.0
230
-0.0000000000000002
  0
ARC
  5
31D46
  8
0
  6
VERDECKT
 62
     1
 10
55.0953077499906172
 20
385.5814069030403743
 30
0.0
 40
2.5000000000004539
210
0.0
220
-0.0000000000000002
230
-1.0
 50
90.0000000000674163
 51
169.999999999991303
  0
ARC
  5
31D47
  8
0
  6
VERDECKT
 62
     1
 10
-55.0953077499844923
 20
385.5814069030403743
 30
0.0
 40
2.5000000000004419
210
0.0
220
-0.0000000000000002
230
-1.0
 50
10.0000000000086509
 51
89.9999999999325837
  0
LINE
  5
31D48
  8
0
  6
VERDECKT
 62
     1
 10
-55.3000906917959014
 20
388.0814069030411133
 30
-0.0000000000000862
 11
-56.0152502789065281
 21
396.2557183885364225
 31
-0.000000000000088
210
0.0
220
1.0
230
-0.0000000000000002
  0
LINE
  5
31D49
  8
0
  6
VERDECKT
 62
     1
 10
55.3000906917897623
 20
388.0814069030411133
 30
-0.0000000000000862
 11
56.0152502789004032
 21
396.2557183885364225
 31
-0.000000000000088
210
0.0
220
1.0
230
-0.0000000000000002
  0
ARC
  5
31D4A
  8
0
  6
VERDECKT
 62
     1
 10
58.0076396750903172
 20
396.081406903040488
 30
0.0
 40
2.0000000000005111
210
0.0
220
-0.0000000000000002
230
-1.0
 50
89.9999999999362927
 51
174.9999999999868123
  0
ARC
  5
31D4B
  8
0
  6
VERDECKT
 62
     1
 10
-58.0076396750841923
 20
396.081406903040488
 30
0.0
 40
2.0000000000005098
210
0.0
220
-0.0000000000000002
230
-1.0
 50
5.000000000013225
 51
90.0000000000637073
  0
ARC
  5
31D4C
  8
0
  6
VERDECKT
 62
     1
 10
59.9923603249165822
 20
396.0814069030407722
 30
0.0
 40
2.0000000000003491
210
0.0
220
-0.0000000000000002
230
-1.0
 50
5.000000000007093
 51
90.0000000000042775
  0
ARC
  5
31D4D
  8
0
  6
VERDECKT
 62
     1
 10
-59.9923603249104431
 20
396.0814069030407722
 30
0.0
 40
2.0000000000003411
210
0.0
220
-0.0000000000000002
230
-1.0
 50
89.9999999999957083
 51
174.9999999999928946
  0
LINE
  5
31D4E
  8
0
  6
VERDECKT
 62
     1
 10
61.9847497210942322
 20
396.2557183885364225
 30
-0.000000000000088
 11
62.85085570309068
 21
386.3560817145806823
 31
-0.0000000000000858
210
0.0
220
1.0
230
-0.0000000000000002
  0
LINE
  5
31D4F
  8
0
  6
VERDECKT
 62
     1
 10
-61.9847497211003713
 20
396.2557183885364225
 30
-0.000000000000088
 11
-62.850855703096812
 21
386.3560817145806823
 31
-0.0000000000000858
210
0.0
220
1.0
230
-0.0000000000000002
  0
ARC
  5
31D50
  8
0
  6
VERDECKT
 62
     1
 10
70.8204132878437207
 20
387.0533276565641927
 30
0.0
 40
8.0000000000130616
210
0.0
220
-0.0000000000000002
230
-1.0
 50
185.0000000000077875
 51
193.6461999882205873
  0
ARC
  5
31D51
  8
0
  6
VERDECKT
 62
     1
 10
-70.8204132878375816
 20
387.0533276565641927
 30
0.0
 40
8.0000000000130633
210
0.0
220
-0.0000000000000002
230
-1.0
 50
346.353800011779299
 51
354.9999999999919851
  0
LINE
  5
31D52
  8
0
  6
VERDECKT
 62
     1
 10
63.0462446503813112
 20
385.1659215008572801
 30
-0.0000000000000855
 11
63.1000630181713902
 21
384.9442452783188173
 31
-0.0000000000000855
210
0.0
220
1.0
230
-0.0000000000000002
  0
LINE
  5
31D53
  8
0
  6
VERDECKT
 62
     1
 10
-63.0462446503874503
 20
385.1659215008572801
 30
-0.0000000000000855
 11
-63.1000630181775293
 21
384.9442452783188173
 31
-0.0000000000000855
210
0.0
220
1.0
230
-0.0000000000000002
  0
ARC
  5
31D54
  8
0
  6
VERDECKT
 62
     1
 10
64.4744053607440151
 20
385.2779069620788732
 30
0.0
 40
1.4142655315679229
210
0.0
220
-0.0000000000000002
230
-1.0
 50
193.6461999882197915
 51
269.9999999999977263
  0
ARC
  5
31D55
  8
0
  6
VERDECKT
 62
     1
 10
64.474405360743944
 20
385.2779069620788164
 30
0.0
 40
1.414265531567821
210
0.0
220
-0.0000000000000002
230
-1.0
 50
270.0
 51
352.9403627563841042
  0
ARC
  5
31D56
  8
0
  6
VERDECKT
 62
     1
 10
-64.4744053607378049
 20
385.2779069620788164
 30
0.0
 40
1.4142655315678601
210
0.0
220
-0.0000000000000002
230
-1.0
 50
187.0596372436158106
 51
270.0000000000006253
  0
ARC
  5
31D57
  8
0
  6
VERDECKT
 62
     1
 10
-64.4744053607378618
 20
385.2779069620788732
 30
0.0
 40
1.414265531567934
210
0.0
220
-0.0000000000000002
230
-1.0
 50
270.000000000002899
 51
346.3538000117799243
  0
LINE
  5
31D58
  8
0
  6
VERDECKT
 62
     1
 10
-64.474405360743944
 20
383.8636414305109952
 30
-0.0000000000000852
 11
64.4744053607378191
 21
383.8636414305109952
 31
-0.0000000000000852
210
0.0
220
1.0
230
-0.0000000000000002
  0
ARC
  5
31D59
  8
0
  6
VERDECKT
 62
     1
 10
67.877940750581601
 20
385.0983418267941829
 30
0.0
 40
1.999999999999962
210
0.0
220
-0.0000000000000002
230
-1.0
 50
11.0000000001352891
 51
90.0000000000028564
  0
ARC
  5
31D5A
  8
0
  6
VERDECKT
 62
     1
 10
67.8779407505815158
 20
385.0983418267941261
 30
0.0
 40
2.0000000000001128
210
0.0
220
-0.0000000000000002
230
-1.0
 50
90.0000000000003979
 51
179.8353165644913076
  0
ARC
  5
31D5B
  8
0
  6
VERDECKT
 62
     1
 10
-67.8779407505753767
 20
385.0983418267941261
 30
0.0
 40
2.0000000000000919
210
0.0
220
-0.0000000000000002
230
-1.0
 50
0.164683435508641
 51
89.9999999999995879
  0
ARC
  5
31D5C
  8
0
  6
VERDECKT
 62
     1
 10
-67.8779407505754619
 20
385.0983418267941829
 30
0.0
 40
1.9999999999999429
210
0.0
220
-0.0000000000000002
230
-1.0
 50
89.9999999999971436
 51
168.9999999998647127
  0
LINE
  5
31D5D
  8
0
  6
VERDECKT
 62
     1
 10
67.8779407505753625
 20
387.0983418267941829
 30
-0.000000000000086
 11
-67.8779407505815016
 21
387.0983418267941829
 31
-0.000000000000086
210
0.0
220
1.0
230
-0.0000000000000002
  0
LINE
  5
31D5E
  8
0
  6
VERDECKT
 62
     1
 10
69.84119511746988
 20
385.4799598175520146
 30
-0.0000000000000856
 11
69.9999999999970157
 21
384.6629795213909233
 31
-0.0000000000000854
210
0.0
220
1.0
230
-0.0000000000000002
  0
LINE
  5
31D5F
  8
0
  6
VERDECKT
 62
     1
 10
-69.841195117476019
 20
385.4799598175520146
 30
-0.0000000000000856
 11
-70.0000000000031548
 21
384.6629795213909233
 31
-0.0000000000000854
210
0.0
220
1.0
230
-0.0000000000000002
  0
LINE
  5
31D60
  8
0
  6
VERDECKT
 62
     1
 10
69.9999999999969731
 20
384.6629795213909233
 30
-0.0000000000000854
 11
69.9999999999969731
 21
381.9378133635914878
 31
-0.0000000000000848
210
0.0
220
1.0
230
-0.0000000000000002
  0
LINE
  5
31D61
  8
0
  6
VERDECKT
 62
     1
 10
-70.0000000000031264
 20
384.6629795213909233
 30
-0.0000000000000854
 11
-70.0000000000031264
 21
381.9378133635914878
 31
-0.0000000000000848
210
0.0
220
1.0
230
-0.0000000000000002
  0
LINE
  5
31D62
  8
0
  6
VERDECKT
 62
     1
 10
-62.4330127018958123
 20
368.8314069030408859
 30
-0.0000000000000819
 11
-70.0000000000031548
 21
381.9378133635914878
 31
-0.0000000000000848
210
0.0
220
1.0
230
-0.0000000000000002
  0
LINE
  5
31D63
  8
0
  6
VERDECKT
 62
     1
 10
62.4330127018896732
 20
368.8314069030408859
 30
-0.0000000000000819
 11
69.9999999999970157
 21
381.9378133635914878
 31
-0.0000000000000848
210
0.0
220
1.0
230
-0.0000000000000002
  0
ARC
  5
31D64
  8
0
  6
VERDECKT
 62
     1
 10
61.1339745962186427
 20
369.5814069030415112
 30
0.0
 40
1.5000000000006819
210
0.0
220
-0.0000000000000002
230
-1.0
 50
270.0
 51
329.9999999999769784
  0
ARC
  5
31D65
  8
0
  6
VERDECKT
 62
     1
 10
-61.1339745962124965
 20
369.5814069030415112
 30
0.0
 40
1.5000000000006919
210
0.0
220
-0.0000000000000002
230
-1.0
 50
210.0000000000073044
 51
269.9999999999841975
  0
LINE
  5
31D66
  8
0
  6
VERDECKT
 62
     1
 10
54.4999999999974278
 20
369.0814069030407722
 30
-0.000000000000082
 11
56.2320508075664378
 21
368.0814069030407722
 31
-0.0000000000000817
210
0.0
220
1.0
230
-0.0000000000000002
  0
LINE
  5
31D67
  8
0
  6
VERDECKT
 62
     1
 10
-54.5000000000035811
 20
369.0814069030407722
 30
-0.000000000000082
 11
-56.2320508075725911
 21
368.0814069030407722
 31
-0.0000000000000817
210
0.0
220
1.0
230
-0.0000000000000002
  0
LINE
  5
31D68
  8
0
  6
VERDECKT
 62
     1
 10
47.9999999999972076
 20
371.081406903040488
 30
-0.0000000000000824
 11
47.9999999999972076
 21
369.0814069030407722
 31
-0.000000000000082
210
0.0
220
1.0
230
-0.0000000000000002
  0
LINE
  5
31D69
  8
0
  6
VERDECKT
 62
     1
 10
-48.0000000000033467
 20
371.081406903040488
 30
-0.0000000000000824
 11
-48.0000000000033467
 21
369.0814069030407722
 31
-0.000000000000082
210
0.0
220
1.0
230
-0.0000000000000002
  0
ARC
  5
31D6A
  8
0
  6
VERDECKT
 62
     1
 10
48.3218007376486725
 20
373.0814069030411133
 30
0.0
 40
2.000000000000056
210
0.0
220
-0.0000000000000002
230
-1.0
 50
270.0
 51
349.999999999955719
  0
ARC
  5
31D6B
  8
0
  6
VERDECKT
 62
     1
 10
-48.3218007376425192
 20
373.0814069030411133
 30
0.0
 40
2.0000000000000822
210
0.0
220
-0.0000000000000002
230
-1.0
 50
190.0000000000013074
 51
269.9999999999570264
  0
LINE
  5
31D6C
  8
0
  6
VERDECKT
 62
     1
 10
57.9999999999968807
 20
396.0814069030381006
 30
-0.0000000000000879
 11
57.9999999999968807
 21
373.081406903038328
 31
-0.0000000000000828
210
0.0
220
1.0
230
-0.0000000000000002
  0
LINE
  5
31D6D
  8
0
  6
VERDECKT
 62
     1
 10
-58.0000000000033467
 20
396.0814069030381006
 30
-0.0000000000000879
 11
-58.0000000000033467
 21
373.081406903038328
 31
-0.0000000000000828
210
0.0
220
1.0
230
-0.0000000000000002
  0
LINE
  5
31D6E
  8
0
  6
VERDECKT
 62
     1
 10
59.9999999999964189
 20
396.081406903038328
 30
-0.0000000000000879
 11
59.9999999999964189
 21
373.081406903038328
 31
-0.0000000000000828
210
0.0
220
1.0
230
-0.0000000000000002
  0
LINE
  5
31D6F
  8
0
  6
VERDECKT
 62
     1
 10
-60.000000000002899
 20
396.081406903038328
 30
-0.0000000000000879
 11
-60.000000000002899
 21
373.081406903038328
 31
-0.0000000000000828
210
0.0
220
1.0
230
-0.0000000000000002
  0
LINE
  5
31D70
  8
0
  6
VERDECKT
 62
     1
 10
-48.0154442465714197
 20
0.2480673739301085
 30
-0.0000000000000001
 11
48.0154442465712989
 21
0.2480673739301026
 31
-0.0000000000000001
210
0.0
220
1.0
230
-0.0000000000000002
  0
ARC
  5
31D71
  8
0
  6
VERDECKT
 62
     1
 10
48.0000000000003695
 20
8.1867711496472317
 30
0.0
 40
0.9999999999983799
210
0.0
220
-0.0000000000000002
230
-1.0
 50
352.8749836510912132
 51
0.000000000004566
  0
ARC
  5
31D72
  8
0
  6
VERDECKT
 62
     1
 10
-48.0000000000002487
 20
8.1867711496472246
 30
0.0
 40
0.9999999999983799
210
0.0
220
-0.0000000000000002
230
-1.0
 50
179.9999999999953957
 51
187.1250163489087868
  0
LINE
  5
31D73
  8
0
  6
VERDECKT
 62
     1
 10
-48.0154442465714126
 20
0.2480673739301094
 30
-0.0000000000000001
 11
-48.9922778767124072
 21
8.0627364150581027
 31
-0.0000000000000018
210
0.0
220
1.0
230
-0.0000000000000002
  0
LINE
  5
31D74
  8
0
  6
VERDECKT
 62
     1
 10
48.0154442465712989
 20
0.248067373930128
 30
-0.0000000000000001
 11
48.9922778767123006
 21
8.0627364150580956
 31
-0.0000000000000018
210
0.0
220
1.0
230
-0.0000000000000002
  0
LINE
  5
31D75
  8
0
  6
VERDECKT
 62
     1
 10
48.9999999999986571
 20
342.0240326393408736
 30
-0.0000000000000759
 11
48.9999999999986429
 21
8.1867711496473152
 31
-0.0000000000000018
210
0.0
220
1.0
230
-0.0000000000000002
  0
LINE
  5
31D76
  8
0
  6
VERDECKT
 62
     1
 10
-48.9999999999987281
 20
342.0240326393408736
 30
-0.0000000000000759
 11
-48.9999999999987423
 21
8.1867711496473152
 31
-0.0000000000000018
210
0.0
220
1.0
230
-0.0000000000000002
  0
LINE
  5
31D77
  8
0
  6
VERDECKT
 62
     1
 10
48.0154442465712989
 20
0.248067373930149
 30
-0.0000000000000001
 11
49.9999999999999503
 21
-0.0000020952484327
 31
0.0
210
0.0
220
1.0
230
-0.0000000000000002
  0
LINE
  5
31D78
  8
0
  6
VERDECKT
 62
     1
 10
-48.0154442465714268
 20
0.2480673739301545
 30
-0.0000000000000001
 11
-50.0000000000000711
 21
-0.0000020952484267
 31
0.0
210
0.0
220
1.0
230
-0.0000000000000002
  0
ARC
  5
31D79
  8
0
  6
VERDECKT
 62
     1
 10
63.0000000000000426
 20
342.0240326393408736
 30
0.0
 40
14.0000000000013394
210
0.0
220
-0.0000000000000002
230
-1.0
 50
140.4662908394406884
 51
180.0
  0
ARC
  5
31D7A
  8
0
  6
VERDECKT
 62
     1
 10
-63.0000000000000071
 20
342.0240326393408736
 30
0.0
 40
14.0000000000013909
210
0.0
220
-0.0000000000000002
230
-1.0
 50
0.0
 51
39.5337091605590984
  0
LINE
  5
31D7B
  8
0
  6
VERDECKT
 62
     1
 10
-52.2024968884894989
 20
350.9354818232254729
 30
-0.0000000000000779
 11
-63.5000000000000426
 21
364.6240326393408964
 31
-0.000000000000081
210
0.0
220
1.0
230
-0.0000000000000002
  0
LINE
  5
31D7C
  8
0
  6
VERDECKT
 62
     1
 10
52.2024968884894491
 20
350.9354818232255866
 30
-0.0000000000000779
 11
63.5000000000000071
 21
364.6240326393408964
 31
-0.000000000000081
210
0.0
220
1.0
230
-0.0000000000000002
  0
LINE
  5
31D7D
  8
0
  6
VERDECKT
 62
     1
 10
-126.828389426797699
 20
398.4999911900827101
 30
-0.0000000000000885
 11
126.8283894267966048
 21
398.4999911900827101
 31
-0.0000000000000885
210
0.0
220
1.0
230
-0.0000000000000002
  0
LINE
  5
31D7E
  8
0
  6
VERDECKT
 62
     1
 10
-60.0000000000005613
 20
364.4999911900825964
 30
-0.0000000000000809
 11
59.9999999999994316
 21
364.4999911900825964
 31
-0.0000000000000809
210
0.0
220
1.0
230
-0.0000000000000002
  0
LINE
  5
31D7F
  8
0
  6
VERDECKT
 62
     1
 10
-60.0000000000005826
 20
366.0132748356170964
 30
-0.0000000000000813
 11
59.9999999999994387
 21
366.0132748356170964
 31
-0.0000000000000813
210
0.0
220
1.0
230
-0.0000000000000002
  0
LINE
  5
31D80
  8
0
  6
VERDECKT
 62
     1
 10
-71.5000000000005684
 20
381.4019149787292804
 30
-0.0000000000000847
 11
71.4999999999994316
 21
381.4019149787292804
 31
-0.0000000000000847
210
0.0
220
1.0
230
-0.0000000000000002
  0
LINE
  5
31D81
  8
0
  6
VERDECKT
 62
     1
 10
-71.5000000000005684
 20
384.8687581947938838
 30
-0.0000000000000855
 11
71.4999999999994316
 21
384.8687581947938838
 31
-0.0000000000000855
210
0.0
220
1.0
230
-0.0000000000000002
  0
LINE
  5
31D82
  8
0
  6
VERDECKT
 62
     1
 10
127.0191984221731047
 20
398.4816183735302957
 30
-0.0000000000000885
 11
137.2137865069346105
 21
396.4999911900827101
 31
-0.000000000000088
210
0.0
220
1.0
230
-0.0000000000000002
  0
LINE
  5
31D83
  8
0
  6
VERDECKT
 62
     1
 10
-127.019198422174199
 20
398.4816183735302957
 30
-0.0000000000000885
 11
-137.2137865069356906
 21
396.4999911900827101
 31
-0.000000000000088
210
0.0
220
1.0
230
-0.0000000000000002
  0
ARC
  5
31D84
  8
0
  6
VERDECKT
 62
     1
 10
126.8283894267979974
 20
397.4999911900869165
 30
0.0
 40
0.9999999999957365
210
0.0
220
-0.0000000000000002
230
-1.0
 50
78.9999999999700719
 51
90.0000000000170957
  0
ARC
  5
31D85
  8
0
  6
VERDECKT
 62
     1
 10
-126.8283894267969032
 20
397.4999911900869165
 30
0.0
 40
0.9999999999957367
210
0.0
220
-0.0000000000000002
230
-1.0
 50
89.9999999999829043
 51
101.0000000000298996
  0
ARC
  5
31D86
  8
0
  6
VERDECKT
 62
     1
 10
78.3659841122988041
 20
391.9999911900824259
 30
0.0
 40
6.5000000000002833
210
0.0
220
-0.0000000000000002
230
-1.0
 50
90.000000000001009
 51
136.1869385395949905
  0
ARC
  5
31D87
  8
0
  6
VERDECKT
 62
     1
 10
-78.3659841122976673
 20
391.9999911900824259
 30
0.0
 40
6.5000000000002833
210
0.0
220
-0.0000000000000002
230
-1.0
 50
43.8130614604049171
 51
89.9999999999990052
  0
ARC
  5
31D88
  8
0
  6
VERDECKT
 62
     1
 10
59.1132192207635399
 20
371.9473813268750746
 30
0.0
 40
7.500000000001263
210
0.0
220
-0.0000000000000002
230
-1.0
 50
276.7903909729873249
 51
282.4601011431537927
  0
ARC
  5
31D89
  8
0
  6
VERDECKT
 62
     1
 10
-59.1132192207624101
 20
371.9473813268750746
 30
0.0
 40
7.5000000000012621
210
0.0
220
-0.0000000000000002
230
-1.0
 50
257.5398988568462073
 51
263.2096090270126751
  0
LINE
  5
31D8A
  8
0
  6
VERDECKT
 62
     1
 10
59.9999999999994316
 20
366.0132748356170964
 30
-0.0000000000000813
 11
59.9999999999994316
 21
364.4999911900825964
 31
-0.0000000000000809
210
0.0
220
1.0
230
-0.0000000000000002
  0
LINE
  5
31D8B
  8
0
  6
VERDECKT
 62
     1
 10
-60.0000000000005613
 20
366.0132748356170964
 30
-0.0000000000000813
 11
-60.0000000000005613
 21
364.4999911900824827
 31
-0.0000000000000809
210
0.0
220
1.0
230
-0.0000000000000002
  0
ARC
  5
31D8C
  8
0
  6
VERDECKT
 62
     1
 10
59.1132192207638525
 20
371.9473813268741083
 30
0.0
 40
6.0000000000001901
210
0.0
220
-0.0000000000000002
230
-1.0
 50
278.4992692108240817
 51
329.9999999999992042
  0
ARC
  5
31D8D
  8
0
  6
VERDECKT
 62
     1
 10
-59.1132192207627227
 20
371.9473813268741083
 30
0.0
 40
6.0000000000002016
210
0.0
220
-0.0000000000000002
230
-1.0
 50
210.0000000000007958
 51
261.5007307891759183
  0
LINE
  5
31D8E
  8
0
  6
VERDECKT
 62
     1
 10
-64.3093716434706124
 20
368.9473813268738809
 30
-0.0000000000000819
 11
-71.5000000000005826
 21
381.4019149787292804
 31
-0.0000000000000847
210
0.0
220
1.0
230
-0.0000000000000002
  0
LINE
  5
31D8F
  8
0
  6
VERDECKT
 62
     1
 10
64.309371643469504
 20
368.9473813268738809
 30
-0.0000000000000819
 11
71.4999999999994458
 21
381.4019149787292804
 31
-0.0000000000000847
210
0.0
220
1.0
230
-0.0000000000000002
  0
LINE
  5
31D90
  8
0
  6
VERDECKT
 62
     1
 10
71.4999999999994316
 20
384.8687581947938838
 30
-0.0000000000000855
 11
71.4999999999994316
 21
381.4019149787292804
 31
-0.0000000000000847
210
0.0
220
1.0
230
-0.0000000000000002
  0
LINE
  5
31D91
  8
0
  6
VERDECKT
 62
     1
 10
-71.5000000000005684
 20
384.8687581947939975
 30
-0.0000000000000855
 11
-71.5000000000005684
 21
381.4019149787292804
 31
-0.0000000000000847
210
0.0
220
1.0
230
-0.0000000000000002
  0
LINE
  5
31D92
  8
0
  6
VERDECKT
 62
     1
 10
70.4875220881998956
 20
390.6108057687471842
 30
-0.0000000000000867
 11
71.4999999999994458
 21
384.8687581947938838
 31
-0.0000000000000855
210
0.0
220
1.0
230
-0.0000000000000002
  0
LINE
  5
31D93
  8
0
  6
VERDECKT
 62
     1
 10
-70.4875220882010467
 20
390.6108057687471273
 30
-0.0000000000000867
 11
-71.5000000000005684
 21
384.8687581947939975
 31
-0.0000000000000855
210
0.0
220
1.0
230
-0.0000000000000002
  0
ARC
  5
31D94
  8
0
  6
VERDECKT
 62
     1
 10
78.3659841122987046
 20
391.9999911900827101
 30
0.0
 40
8.0
210
0.0
220
-0.0000000000000002
230
-1.0
 50
90.0000000000001847
 51
190.0000000000001137
  0
ARC
  5
31D95
  8
0
  6
VERDECKT
 62
     1
 10
-78.365984112297582
 20
391.9999911900827101
 30
0.0
 40
8.0000000000000249
210
0.0
220
-0.0000000000000002
230
-1.0
 50
349.9999999999997726
 51
89.9999999999998153
  0
ENDBLK
  5
31D97
  8
0
  0
ENDSEC
  0
SECTION
  2
ENTITIES
  0
INSERT
  5
712A
  8
ADSK_ASSOC_ENTITY_BACKUPS
  2
*S0
 10
0.0
 20
0.0
 30
0.0
  0
INSERT
  5
31CF5
  8
STEMPEL
  2
A$C5A619E77
 10
0.0
 20
-300.0
 30
0.0
  0
INSERT
  5
31D98
  8
STEMPEL
  2
A$C46864F06
 10
0.0
 20
0.0
 30
0.0
  0
VIEWPORT
  5
7108
 67
     1
  8
0
 10
209.7499999178006931
 20
296.7499996447585886
 30
0.0
 40
1124.2804287629030568
 41
596.7768775222531303
 68
     1
 69
     1
1001
ACAD
1000
MVIEW
1002
{
1070
    16
1010
0.0
1020
0.0
1030
0.0
1010
0.0
1020
0.0
1030
1.0
1040
0.0
1040
596.7768775222531303
1040
209.7499999178006931
1040
296.7499996447585886
1040
50.0
1040
0.0
1040
0.0
1070
     0
1070
  1500
1070
     1
1070
     1
1070
     0
1070
     0
1070
     0
1070
     0
1040
0.0
1040
0.0
1040
0.0
1040
10.0
1040
10.0
1040
10.0
1040
10.0
1070
     0
1002
{
1002
}
1002
}
  0
ENDSEC
  0
EOF
