  0
SECTION
  2
HEADER
  9
$ACADVER
  1
AC1009
  9
$INSBASE
 10
0.0
 20
0.0
 30
0.0
  9
$EXTMIN
 10
-51.7717648276908093
 20
101.4347669123414022
 30
-6.5000000000000009
  9
$EXTMAX
 10
100.4102800541703999
 20
485.4304593448832179
 30
63.3812065542919001
  9
$LIMMIN
 10
0.0
 20
0.0
  9
$LIMMAX
 10
210.0
 20
297.0
  9
$ORTHOMODE
 70
     1
  9
$REGENMODE
 70
     1
  9
$FILLMODE
 70
     1
  9
$QTEXTMODE
 70
     0
  9
$MIRRTEXT
 70
     1
  9
$DRAGMODE
 70
     2
  9
$LTSCALE
 40
10.0
  9
$OSMODE
 70
    39
  9
$ATTMODE
 70
     1
  9
$TEXTSIZE
 40
3.5
  9
$TRACEWID
 40
0.5
  9
$TEXTSTYLE
  7
STANDARD
  9
$CLAYER
  8
MITTEL
  9
$CELTYPE
  6
BYLAYER
  9
$CECOLOR
 62
   256
  9
$DIMSCALE
 40
1.0
  9
$DIMASZ
 40
3.5
  9
$DIMEXO
 40
1.0
  9
$DIMDLI
 40
7.0
  9
$DIMRND
 40
0.0
  9
$DIMDLE
 40
0.0
  9
$DIMEXE
 40
1.0
  9
$DIMTP
 40
0.2
  9
$DIMTM
 40
0.5
  9
$DIMTXT
 40
3.5
  9
$DIMCEN
 40
1.5
  9
$DIMTSZ
 40
0.0
  9
$DIMTOL
 70
     0
  9
$DIMLIM
 70
     0
  9
$DIMTIH
 70
     0
  9
$DIMTOH
 70
     0
  9
$DIMSE1
 70
     0
  9
$DIMSE2
 70
     0
  9
$DIMTAD
 70
     1
  9
$DIMZIN
 70
     8
  9
$DIMBLK
  1

  9
$DIMASO
 70
     1
  9
$DIMSHO
 70
     0
  9
$DIMPOST
  1

  9
$DIMAPOST
  1

  9
$DIMALT
 70
     0
  9
$DIMALTD
 70
     2
  9
$DIMALTF
 40
25.3999999999999986
  9
$DIMLFAC
 40
2.0
  9
$DIMTOFL
 70
     1
  9
$DIMTVP
 40
0.0
  9
$DIMTIX
 70
     0
  9
$DIMSOXD
 70
     0
  9
$DIMSAH
 70
     0
  9
$DIMBLK1
  1

  9
$DIMBLK2
  1

  9
$DIMSTYLE
  2
STANDARD
  9
$DIMCLRD
 70
     0
  9
$DIMCLRE
 70
     0
  9
$DIMCLRT
 70
     1
  9
$DIMTFAC
 40
0.5
  9
$DIMGAP
 40
1.5
  9
$LUNITS
 70
     2
  9
$LUPREC
 70
     2
  9
$SKETCHINC
 40
1.0
  9
$FILLETRAD
 40
15.0
  9
$AUNITS
 70
     0
  9
$AUPREC
 70
     0
  9
$MENU
  1
ACAD
  9
$ELEVATION
 40
0.0
  9
$PELEVATION
 40
0.0
  9
$THICKNESS
 40
0.0
  9
$LIMCHECK
 70
     0
  9
$BLIPMODE
 70
     0
  9
$CHAMFERA
 40
0.0
  9
$CHAMFERB
 40
0.0
  9
$SKPOLY
 70
     0
  9
$TDCREATE
 40
2455397.8646990740671754
  9
$TDUPDATE
 40
2460115.4938657409511507
  9
$TDINDWG
 40
0.3165781481
  9
$TDUSRTIMER
 40
0.3165781481
  9
$USRTIMER
 70
     1
  9
$ANGBASE
 50
0.0
  9
$ANGDIR
 70
     0
  9
$PDMODE
 70
     0
  9
$PDSIZE
 40
0.0
  9
$PLINEWID
 40
0.0
  9
$COORDS
 70
     1
  9
$SPLFRAME
 70
     0
  9
$SPLINETYPE
 70
     6
  9
$SPLINESEGS
 70
     8
  9
$ATTDIA
 70
     1
  9
$ATTREQ
 70
     1
  9
$HANDLING
 70
     1
  9
$HANDSEED
  5
6A04
  9
$SURFTAB1
 70
     6
  9
$SURFTAB2
 70
     6
  9
$SURFTYPE
 70
     6
  9
$SURFU
 70
     6
  9
$SURFV
 70
     6
  9
$UCSNAME
  2

  9
$UCSORG
 10
0.0
 20
0.0
 30
0.0
  9
$UCSXDIR
 10
1.0
 20
0.0
 30
0.0
  9
$UCSYDIR
 10
0.0
 20
1.0
 30
0.0
  9
$PUCSNAME
  2

  9
$PUCSORG
 10
0.0
 20
0.0
 30
0.0
  9
$PUCSXDIR
 10
1.0
 20
0.0
 30
0.0
  9
$PUCSYDIR
 10
0.0
 20
1.0
 30
0.0
  9
$USERI1
 70
     0
  9
$USERI2
 70
     0
  9
$USERI3
 70
     0
  9
$USERI4
 70
     0
  9
$USERI5
 70
     0
  9
$USERR1
 40
0.0
  9
$USERR2
 40
0.0
  9
$USERR3
 40
0.0
  9
$USERR4
 40
0.0
  9
$USERR5
 40
0.0
  9
$WORLDVIEW
 70
     1
  9
$SHADEDGE
 70
     3
  9
$SHADEDIF
 70
    70
  9
$TILEMODE
 70
     1
  9
$MAXACTVP
 70
    16
  9
$PLIMCHECK
 70
     0
  9
$PEXTMIN
 10
1.8751816013636351
 20
2.0309634938510039
 30
-0.0000000000112498
  9
$PEXTMAX
 10
211.9008154377929998
 20
299.0672170625153967
 30
0.0000000000118412
  9
$PLIMMIN
 10
1.887995218998582
 20
2.049085610220942
  9
$PLIMMAX
 10
211.8879952189986113
 20
299.0490856102209136
  9
$UNITMODE
 70
     0
  9
$VISRETAIN
 70
     0
  9
$PLINEGEN
 70
     0
  9
$PSLTSCALE
 70
     0
  0
ENDSEC
  0
SECTION
  2
TABLES
  0
TABLE
  2
VPORT
 70
     1
  0
VPORT
  2
*ACTIVE
 70
     0
 10
0.0
 20
0.0
 11
1.0
 21
1.0
 12
0.0
 22
0.0
 13
0.0
 23
0.0
 14
1.0
 24
1.0
 15
10.0
 25
10.0
 16
0.0000000000001847
 26
0.0
 36
882.889273967998065
 17
82.229224003374199
 27
363.6054461416056824
 37
-0.0000000000000085
 40
370.6324738340755971
 41
1.7331786542923431
 42
50.0
 43
0.0
 44
0.0
 50
0.0
 51
0.0
 71
     0
 72
  1500
 73
     1
 74
     0
 75
     0
 76
     0
 77
     0
 78
     0
  0
ENDTAB
  0
TABLE
  2
LTYPE
 70
     7
  0
LTYPE
  2
CONTINUOUS
 70
     0
  3
Solid line
 72
    65
 73
     0
 40
0.0
  0
LTYPE
  2
PHANTOM2
 70
     0
  3
Phantom (.5x) ___ _ _ ___ _ _ ___ _ _ ___ _ _
 72
    65
 73
     6
 40
1.25
 49
0.625
 49
-0.125
 49
0.125
 49
-0.125
 49
0.125
 49
-0.125
  0
LTYPE
  2
STRICHPUNKT
 70
     0
  3
__ . __ . __ . __ . __ . __ . __ . __ . __ . __
 72
    65
 73
     4
 40
1.0
 49
0.5
 49
-0.25
 49
0.0
 49
-0.25
  0
LTYPE
  2
VERDECKT
 70
     0
  3
Verdeckt __ __ __ __ __ __ __ __ __ __ __ __ __
 72
    65
 73
     2
 40
0.375
 49
0.25
 49
-0.125
  0
ENDTAB
  0
TABLE
  2
LAYER
 70
    14
  0
LAYER
  2
0
 70
     0
 62
     7
  6
CONTINUOUS
  0
LAYER
  2
VOLL
 70
     0
 62
     1
  6
CONTINUOUS
  0
LAYER
  2
DEFPOINTS
 70
     0
 62
     7
  6
CONTINUOUS
  0
LAYER
  2
ADSK_ASSOC_ENTITY_BACKUPS
 70
     1
 62
    -7
  6
CONTINUOUS
  0
LAYER
  2
MITTEL
 70
     0
 62
     2
  6
STRICHPUNKT
  0
LAYER
  2
BLECH
 70
     0
 62
   254
  6
CONTINUOUS
  0
ENDTAB
  0
TABLE
  2
STYLE
 70
     5
  0
STYLE
  2
STANDARD
 70
     0
 40
0.0
 41
0.8
 50
0.0
 71
     0
 42
3.5
  3
simplex.shx
  4

  0
STYLE
  2
GREEKS
 70
     0
 40
0.0
 41
0.8
 50
0.0
 71
     0
 42
2.5
  3
SIMPLEX.shx
  4

  0
STYLE
  2

 70
     1
 40
0.0
 41
1.0
 50
0.0
 71
     0
 42
3.5
  3
ltypeshp.shx
  4

  0
ENDTAB
  0
TABLE
  2
VIEW
 70
     1
  0
ENDTAB
  0
TABLE
  2
UCS
 70
     0
  0
ENDTAB
  0
TABLE
  2
APPID
 70
    27
  0
APPID
  2
ACAD
 70
     0
  0
APPID
  2
ACAD_NAV_VCDISPLAY
 70
     0
  0
APPID
  2
ACAD_MLEADERVER
 70
     0
  0
APPID
  2
ACAD_EXEMPT_FROM_CAD_STANDARDS
 70
     0
  0
APPID
  2
ACAD_PSEXT
 70
     0
  0
APPID
  2
ACAECLAYERSTANDARD
 70
     0
  0
APPID
  2
ACAUTHENVIRON
 70
     0
  0
APPID
  2
ACCMTRANSPARENCY
 70
     0
  0
APPID
  2
ACAD_STEPID
 70
     0
  0
APPID
  2
ACSYNERGY
 70
     0
  0
APPID
  2
SYNERGY_BODY_TBR_ID
 70
     0
  0
APPID
  2
ACAD_VIEW_EDGE_ID
 70
     0
  0
APPID
  2
ACSYNERGYSKETCH
 70
     0
  0
APPID
  2
ACAD_MODELDOC_XFORM
 70
     0
  0
APPID
  2
ACAD_DSTYLE_DIMJAG
 70
     0
  0
APPID
  2
ACAD_DSTYLE_DIMTALN
 70
     0
  0
APPID
  2
ACADANNOMONITORALERTICONDI
 70
     0
  0
APPID
  2
ACAD_DIMASSOC_CALC_DIMLFAC
 70
     0
  0
APPID
  2
ACAD_DIMASSOC_DIMLFAC
 70
     0
  0
APPID
  2
ACAD_DIMASSOC_OVERRIDDEN_D
 70
     0
  0
APPID
  2
ACAD_DSTYLE_DIMRADIAL_EXTENSION
 70
     0
  0
APPID
  2
ACADANNOAV
 70
     0
  0
APPID
  2
ACDBDYNAMICBLOCKTRUENAME
 70
     0
  0
APPID
  2
ACDBDYNAMICBLOCKGUID
 70
     0
  0
APPID
  2
ACAD_DSTYLE_DIMBREAK
 70
     0
  0
APPID
  2
ACAD_TC
 70
     0
  0
APPID
  2
AcDbAttr
 70
     0
  0
ENDTAB
  0
TABLE
  2
DIMSTYLE
 70
     2
  0
DIMSTYLE
  2
STANDARD
 70
     0
  3

  4

  5

  6

  7

 40
1.0
 41
0.18
 42
0.0625
 43
0.38
 44
0.18
 45
0.0
 46
0.0
 47
0.0
 48
0.0
140
0.18
141
0.09
142
0.0
143
25.3999999999999986
144
1.0
145
0.0
146
1.0
147
0.09
 71
     0
 72
     0
 73
     1
 74
     1
 75
     0
 76
     0
 77
     0
 78
     0
170
     0
171
     2
172
     0
173
     0
174
     0
175
     0
176
     0
177
     0
178
     0
  0
ENDTAB
  0
ENDSEC
  0
SECTION
  2
BLOCKS
  0
BLOCK
  8
0
  2
$MODEL_SPACE
 70
     0
 10
0.0
 20
0.0
 30
0.0
  3
$MODEL_SPACE
  1

  0
ENDBLK
  5
36
  8
0
  0
BLOCK
 67
     1
  8
0
  2
$PAPER_SPACE
 70
     0
 10
0.0
 20
0.0
 30
0.0
  3
$PAPER_SPACE
  1

  0
ENDBLK
  5
34
 67
     1
  8
0
  0
BLOCK
  8
0
  2
*S0
 70
     1
 10
0.0
 20
0.0
 30
0.0
  3
*S0
  1

  0
ENDBLK
  5
B3A
  8
0
  0
BLOCK
  8
0
  2
A$C055A9485
 70
     0
 10
0.0
 20
0.0
 30
0.0
  3
A$C055A9485
  1

  0
LINE
  5
67F9
  8
0
  6
CONTINUOUS
 62
     0
 10
21.3641175861545989
 20
242.4347669123415017
 30
0.0000000000000049
 11
31.3641175861546095
 21
242.4347669123415017
 31
0.0000000000000072
  0
LINE
  5
67FA
  8
0
  6
CONTINUOUS
 62
     0
 10
31.3641175861546415
 20
104.4347669123414022
 30
0.0000000000000071
 11
21.3641175861546415
 21
104.4347669123414022
 31
0.0000000000000048
  0
LINE
  5
67FB
  8
0
  6
CONTINUOUS
 62
     0
 10
31.3641175861546415
 20
242.4347669123415017
 30
0.0000000000000071
 11
31.3641175861545882
 21
245.4347669123415017
 31
0.0000000000000071
  0
LINE
  5
67FC
  8
0
  6
CONTINUOUS
 62
     0
 10
95.364117586154677
 20
245.434766912341388
 30
0.0000000000000218
 11
31.3641175861546202
 21
245.4347669123415017
 31
0.0000000000000071
  0
LINE
  5
67FD
  8
0
  6
CONTINUOUS
 62
     0
 10
31.3641175861546415
 20
101.4347669123414022
 30
0.0000000000000071
 11
31.3641175861546415
 21
104.4347669123414022
 31
0.0000000000000071
  0
LINE
  5
67FE
  8
0
  6
CONTINUOUS
 62
     0
 10
31.3641175861546415
 20
101.4347669123415017
 30
0.0000000000000071
 11
95.3641175861546628
 21
101.4347669123415017
 31
0.0000000000000217
  0
LINE
  5
67FF
  8
0
  6
CONTINUOUS
 62
     0
 10
21.3641175861546095
 20
104.4347669123414022
 30
0.0000000000000049
 11
21.3641175861546593
 21
101.4347669123414022
 31
0.0000000000000049
  0
LINE
  5
6800
  8
0
  6
CONTINUOUS
 62
     0
 10
-42.6358824138453869
 20
101.4347669123414022
 30
-0.0000000000000098
 11
21.3641175861546415
 21
101.4347669123415017
 31
0.0000000000000049
  0
LINE
  5
6801
  8
0
  6
CONTINUOUS
 62
     0
 10
95.3641175861546344
 20
178.4347669123415017
 30
0.0000000000000218
 11
95.3641175861546344
 21
168.4347669123415017
 31
0.0000000000000218
  0
LINE
  5
6802
  8
0
  6
CONTINUOUS
 62
     0
 10
98.3641175861546344
 20
178.4347669123415017
 30
0.0000000000000224
 11
95.3641175861546344
 21
178.4347669123415017
 31
0.0000000000000218
  0
LINE
  5
6803
  8
0
  6
CONTINUOUS
 62
     0
 10
98.3641175861546344
 20
178.4347669123415017
 30
0.0000000000000224
 11
98.3641175861546344
 21
242.434766912341388
 31
0.0000000000000224
  0
LINE
  5
6804
  8
0
  6
CONTINUOUS
 62
     0
 10
95.3641175861546344
 20
168.434766912341388
 30
0.0000000000000218
 11
98.3641175861546486
 21
168.4347669123415017
 31
0.0000000000000224
  0
LINE
  5
6805
  8
0
  6
CONTINUOUS
 62
     0
 10
98.3641175861546344
 20
104.4347669123415017
 30
0.0000000000000224
 11
98.3641175861546344
 21
168.4347669123415017
 31
0.0000000000000224
  0
LINE
  5
6806
  8
0
  6
CONTINUOUS
 62
     0
 10
-42.6358824138454082
 20
168.434766912341388
 30
-0.0000000000000098
 11
-42.6358824138454082
 21
178.434766912341388
 31
-0.0000000000000098
  0
LINE
  5
6807
  8
0
  6
CONTINUOUS
 62
     0
 10
-42.6358824138454082
 20
178.4347669123415017
 30
-0.0000000000000098
 11
-45.6358824138454011
 21
178.434766912341388
 31
-0.0000000000000104
  0
LINE
  5
6808
  8
0
  6
CONTINUOUS
 62
     0
 10
-45.6358824138454295
 20
242.434766912341388
 30
-0.0000000000000104
 11
-45.6358824138454011
 21
178.434766912341388
 31
-0.0000000000000104
  0
LINE
  5
6809
  8
0
  6
CONTINUOUS
 62
     0
 10
21.3641175861545989
 20
245.4347669123415017
 30
0.0000000000000049
 11
21.3641175861545989
 21
242.4347669123415017
 31
0.0000000000000049
  0
LINE
  5
680A
  8
0
  6
CONTINUOUS
 62
     0
 10
-45.6358824138454011
 20
168.434766912341388
 30
-0.0000000000000104
 11
-42.6358824138453869
 21
168.434766912341388
 31
-0.0000000000000098
  0
LINE
  5
680B
  8
0
  6
CONTINUOUS
 62
     0
 10
-2.635882413845394
 20
166.934766912341388
 30
-0.0000000000000007
 11
-2.6358824138453691
 21
152.934766912341388
 31
-0.0000000000000007
  0
ARC
  5
680C
  8
0
  6
CONTINUOUS
 62
     0
 10
-6.1358824138453691
 20
152.934766912341388
 30
-0.0000000000000013
 40
3.5
 50
180.0
 51
0.0
  0
LINE
  5
680D
  8
0
  6
CONTINUOUS
 62
     0
 10
10.3641175861546309
 20
166.9347669123415017
 30
0.0000000000000024
 11
10.3641175861546202
 21
140.934766912341388
 31
0.0000000000000024
  0
ARC
  5
680E
  8
0
  6
CONTINUOUS
 62
     0
 10
6.8641175861546371
 20
140.934766912341388
 30
0.0000000000000016
 40
3.4999999999999978
 50
180.0
 51
0.0
  0
LINE
  5
680F
  8
0
  6
CONTINUOUS
 62
     0
 10
23.3641175861545989
 20
166.9347669123415017
 30
0.0000000000000053
 11
23.3641175861546202
 21
135.934766912341388
 31
0.0000000000000053
  0
ARC
  5
6810
  8
0
  6
CONTINUOUS
 62
     0
 10
19.8641175861546415
 20
135.934766912341388
 30
0.0000000000000044
 40
3.4999999999999991
 50
180.0
 51
0.0
  0
LINE
  5
6811
  8
0
  6
CONTINUOUS
 62
     0
 10
36.3641175861546415
 20
166.9347669123415017
 30
0.0000000000000082
 11
36.3641175861546415
 21
135.934766912341388
 31
0.0000000000000082
  0
ARC
  5
6812
  8
0
  6
CONTINUOUS
 62
     0
 10
32.8641175861546202
 20
135.934766912341388
 30
0.0000000000000075
 40
3.5000000000000009
 50
180.0
 51
0.0
  0
LINE
  5
6813
  8
0
  6
CONTINUOUS
 62
     0
 10
49.3641175861546202
 20
166.9347669123415017
 30
0.0000000000000113
 11
49.3641175861546273
 21
140.934766912341388
 31
0.0000000000000113
  0
ARC
  5
6814
  8
0
  6
CONTINUOUS
 62
     0
 10
45.8641175861546131
 20
140.934766912341388
 30
0.0000000000000104
 40
3.5
 50
180.0
 51
0.0
  0
LINE
  5
6815
  8
0
  6
CONTINUOUS
 62
     0
 10
55.3641175861546131
 20
152.934766912341388
 30
0.0000000000000127
 11
55.3641175861546202
 21
166.9347669123415017
 31
0.0000000000000127
  0
ARC
  5
6816
  8
0
  6
CONTINUOUS
 62
     0
 10
58.8641175861545989
 20
166.9347669123415017
 30
0.0000000000000135
 40
3.5
 50
0.0
 51
180.0
  0
LINE
  5
6817
  8
0
  6
CONTINUOUS
 62
     0
 10
55.3641175861546273
 20
179.934766912341388
 30
0.0000000000000127
 11
55.3641175861546131
 21
193.9347669123415017
 31
0.0000000000000127
  0
ARC
  5
6818
  8
0
  6
CONTINUOUS
 62
     0
 10
58.8641175861545989
 20
193.9347669123415017
 30
0.0000000000000135
 40
3.5
 50
0.0
 51
180.0
  0
LINE
  5
6819
  8
0
  6
CONTINUOUS
 62
     0
 10
42.3641175861545989
 20
179.934766912341388
 30
0.0000000000000098
 11
42.3641175861546202
 21
205.9347669123415017
 31
0.0000000000000098
  0
ARC
  5
681A
  8
0
  6
CONTINUOUS
 62
     0
 10
45.8641175861546131
 20
205.9347669123415017
 30
0.0000000000000104
 40
3.4999999999999938
 50
0.0
 51
180.0
  0
LINE
  5
681B
  8
0
  6
CONTINUOUS
 62
     0
 10
29.3641175861546415
 20
179.934766912341388
 30
0.0000000000000067
 11
29.3641175861546309
 21
210.9347669123415017
 31
0.0000000000000067
  0
ARC
  5
681C
  8
0
  6
CONTINUOUS
 62
     0
 10
32.8641175861546202
 20
210.9347669123415017
 30
0.0000000000000075
 40
3.5000000000000022
 50
0.0
 51
180.0
  0
LINE
  5
681D
  8
0
  6
CONTINUOUS
 62
     0
 10
16.3641175861545989
 20
179.934766912341388
 30
0.0000000000000038
 11
16.3641175861545989
 21
210.9347669123415017
 31
0.0000000000000038
  0
ARC
  5
681E
  8
0
  6
CONTINUOUS
 62
     0
 10
19.8641175861546415
 20
210.9347669123415017
 30
0.0000000000000044
 40
3.5000000000000022
 50
0.0
 51
180.0
  0
LINE
  5
681F
  8
0
  6
CONTINUOUS
 62
     0
 10
3.3641175861546122
 20
179.934766912341388
 30
0.0000000000000007
 11
3.3641175861546229
 21
205.9347669123415017
 31
0.0000000000000007
  0
ARC
  5
6820
  8
0
  6
CONTINUOUS
 62
     0
 10
6.8641175861546371
 20
205.9347669123415017
 30
0.0000000000000016
 40
3.5
 50
0.0
 51
180.0
  0
LINE
  5
6821
  8
0
  6
CONTINUOUS
 62
     0
 10
-9.6358824138453834
 20
179.9347669123415017
 30
-0.0000000000000022
 11
-9.6358824138453691
 21
193.9347669123415017
 31
-0.0000000000000022
  0
ARC
  5
6822
  8
0
  6
CONTINUOUS
 62
     0
 10
-6.1358824138453691
 20
193.9347669123415017
 30
-0.0000000000000013
 40
3.5
 50
0.0
 51
180.0
  0
LINE
  5
6823
  8
0
  6
CONTINUOUS
 62
     0
 10
-9.6358824138453691
 20
152.934766912341388
 30
-0.0000000000000022
 11
-9.6358824138453905
 21
166.934766912341388
 31
-0.0000000000000022
  0
ARC
  5
6824
  8
0
  6
CONTINUOUS
 62
     0
 10
-6.1358824138453762
 20
166.934766912341388
 30
-0.0000000000000013
 40
3.5
 50
0.0
 51
180.0
  0
LINE
  5
6825
  8
0
  6
CONTINUOUS
 62
     0
 10
3.3641175861546229
 20
140.934766912341388
 30
0.0000000000000007
 11
3.3641175861546122
 21
166.934766912341388
 31
0.0000000000000007
  0
ARC
  5
6826
  8
0
  6
CONTINUOUS
 62
     0
 10
6.8641175861546229
 20
166.9347669123415017
 30
0.0000000000000016
 40
3.5
 50
0.0
 51
180.0
  0
LINE
  5
6827
  8
0
  6
CONTINUOUS
 62
     0
 10
16.3641175861545989
 20
135.934766912341388
 30
0.0000000000000038
 11
16.3641175861545989
 21
166.9347669123415017
 31
0.0000000000000038
  0
ARC
  5
6828
  8
0
  6
CONTINUOUS
 62
     0
 10
19.8641175861545989
 20
166.9347669123415017
 30
0.0000000000000044
 40
3.5
 50
0.0
 51
180.0
  0
LINE
  5
6829
  8
0
  6
CONTINUOUS
 62
     0
 10
29.3641175861546415
 20
135.934766912341388
 30
0.0000000000000067
 11
29.3641175861546415
 21
166.9347669123415017
 31
0.0000000000000067
  0
ARC
  5
682A
  8
0
  6
CONTINUOUS
 62
     0
 10
32.8641175861546415
 20
166.9347669123415017
 30
0.0000000000000075
 40
3.5
 50
0.0
 51
180.0
  0
LINE
  5
682B
  8
0
  6
CONTINUOUS
 62
     0
 10
42.3641175861546202
 20
140.934766912341388
 30
0.0000000000000098
 11
42.3641175861545989
 21
166.9347669123415017
 31
0.0000000000000098
  0
ARC
  5
682C
  8
0
  6
CONTINUOUS
 62
     0
 10
45.8641175861546131
 20
166.9347669123415017
 30
0.0000000000000104
 40
3.5
 50
0.0
 51
180.0
  0
LINE
  5
682D
  8
0
  6
CONTINUOUS
 62
     0
 10
62.3641175861546202
 20
166.9347669123415017
 30
0.0000000000000142
 11
62.3641175861545989
 21
152.934766912341388
 31
0.0000000000000142
  0
ARC
  5
682E
  8
0
  6
CONTINUOUS
 62
     0
 10
58.8641175861545989
 20
152.934766912341388
 30
0.0000000000000135
 40
3.5
 50
180.0
 51
0.0
  0
LINE
  5
682F
  8
0
  6
CONTINUOUS
 62
     0
 10
62.3641175861546202
 20
193.9347669123415017
 30
0.0000000000000142
 11
62.3641175861546273
 21
179.934766912341388
 31
0.0000000000000142
  0
ARC
  5
6830
  8
0
  6
CONTINUOUS
 62
     0
 10
58.8641175861545989
 20
179.934766912341388
 30
0.0000000000000135
 40
3.5
 50
180.0
 51
0.0000000000000509
  0
LINE
  5
6831
  8
0
  6
CONTINUOUS
 62
     0
 10
49.3641175861546273
 20
205.9347669123415017
 30
0.0000000000000113
 11
49.3641175861546202
 21
179.934766912341388
 31
0.0000000000000113
  0
ARC
  5
6832
  8
0
  6
CONTINUOUS
 62
     0
 10
45.8641175861546131
 20
179.934766912341388
 30
0.0000000000000104
 40
3.5
 50
180.0
 51
0.0
  0
LINE
  5
6833
  8
0
  6
CONTINUOUS
 62
     0
 10
36.3641175861546486
 20
210.9347669123415017
 30
0.0000000000000082
 11
36.3641175861546415
 21
179.934766912341388
 31
0.0000000000000082
  0
ARC
  5
6834
  8
0
  6
CONTINUOUS
 62
     0
 10
32.8641175861546415
 20
179.934766912341388
 30
0.0000000000000075
 40
3.5
 50
180.0
 51
0.0
  0
LINE
  5
6835
  8
0
  6
CONTINUOUS
 62
     0
 10
23.3641175861546202
 20
210.9347669123415017
 30
0.0000000000000053
 11
23.3641175861545989
 21
179.934766912341388
 31
0.0000000000000053
  0
ARC
  5
6836
  8
0
  6
CONTINUOUS
 62
     0
 10
19.8641175861545989
 20
179.934766912341388
 30
0.0000000000000044
 40
3.5
 50
180.0
 51
0.0000000000000254
  0
LINE
  5
6837
  8
0
  6
CONTINUOUS
 62
     0
 10
10.3641175861546202
 20
205.9347669123415017
 30
0.0000000000000024
 11
10.3641175861546309
 21
179.934766912341388
 31
0.0000000000000024
  0
ARC
  5
6838
  8
0
  6
CONTINUOUS
 62
     0
 10
6.8641175861546229
 20
179.934766912341388
 30
0.0000000000000016
 40
3.5
 50
180.0
 51
0.0
  0
LINE
  5
6839
  8
0
  6
CONTINUOUS
 62
     0
 10
-2.6358824138453691
 20
193.9347669123415017
 30
-0.0000000000000007
 11
-2.635882413845394
 21
179.9347669123415017
 31
-0.0000000000000007
  0
ARC
  5
683A
  8
0
  6
CONTINUOUS
 62
     0
 10
-6.1358824138453762
 20
179.9347669123415017
 30
-0.0000000000000013
 40
3.5
 50
180.0
 51
0.0
  0
LINE
  5
683B
  8
0
  6
CONTINUOUS
 62
     0
 10
-45.6358824138454011
 20
168.434766912341388
 30
-0.0000000000000104
 11
-45.6358824138453585
 21
104.4347669123414022
 31
-0.0000000000000104
  0
ARC
  5
683C
  8
0
  6
CONTINUOUS
 62
     0
 10
-42.6358824138453869
 20
104.4347669123414022
 30
-0.0000000000000098
 40
3.0
 50
180.0
 51
270.0
  0
ARC
  5
683D
  8
0
  6
CONTINUOUS
 62
     0
 10
95.3641175861546344
 20
104.4347669123415017
 30
0.0000000000000218
 40
3.0000000000000142
 50
270.0000000000002274
 51
359.9999999999993747
  0
LINE
  5
683E
  8
0
  6
CONTINUOUS
 62
     0
 10
21.3641175861546095
 20
245.4347669123415017
 30
0.0000000000000049
 11
-42.6358824138454224
 21
245.4347669123415017
 31
-0.0000000000000098
  0
ARC
  5
683F
  8
0
  6
CONTINUOUS
 62
     0
 10
95.3641175861546628
 20
242.434766912341388
 30
0.0000000000000218
 40
3.0
 50
0.0
 51
90.0
  0
ARC
  5
6840
  8
0
  6
CONTINUOUS
 62
     0
 10
-42.6358824138453798
 20
242.4347669123415017
 30
-0.0000000000000098
 40
3.0000000000000142
 50
90.0000000000002558
 51
180.0000000000007958
  0
LINE
  5
6841
  8
0
  6
VERDECKT
 62
     1
 10
95.364117586154677
 20
243.9347669123415017
 30
0.0000000000000218
 11
31.3641175861546202
 21
243.9347669123415017
 31
0.0000000000000071
  0
LINE
  5
6842
  8
0
  6
VERDECKT
 62
     1
 10
21.3641175861546095
 20
243.9347669123415017
 30
0.0000000000000049
 11
-42.6358824138454224
 21
243.9347669123415017
 31
-0.0000000000000098
  0
LINE
  5
6843
  8
0
  6
VERDECKT
 62
     1
 10
31.3641175861546415
 20
102.9347669123414022
 30
0.0000000000000071
 11
95.3641175861546628
 21
102.9347669123415017
 31
0.0000000000000217
  0
LINE
  5
6844
  8
0
  6
VERDECKT
 62
     1
 10
96.8641175861546344
 20
178.4347669123415017
 30
0.0000000000000222
 11
96.8641175861546344
 21
242.434766912341388
 31
0.0000000000000222
  0
LINE
  5
6845
  8
0
  6
VERDECKT
 62
     1
 10
-44.1358824138454224
 20
242.434766912341388
 30
-0.00000000000001
 11
-44.1358824138453869
 21
178.434766912341388
 31
-0.00000000000001
  0
LINE
  5
6846
  8
0
  6
VERDECKT
 62
     1
 10
-44.1358824138453869
 20
168.434766912341388
 30
-0.00000000000001
 11
-44.1358824138453514
 21
104.4347669123414022
 31
-0.00000000000001
  0
LINE
  5
6847
  8
0
  6
VERDECKT
 62
     1
 10
96.8641175861546344
 20
104.4347669123415017
 30
0.0000000000000222
 11
96.8641175861546344
 21
168.4347669123415017
 31
0.0000000000000222
  0
LINE
  5
6848
  8
0
  6
VERDECKT
 62
     1
 10
-42.6358824138453869
 20
102.9347669123414022
 30
-0.0000000000000098
 11
21.3641175861546415
 21
102.9347669123414022
 31
0.0000000000000049
  0
LINE
  5
6849
  8
0
  6
VERDECKT
 62
     1
 10
-1.135882413845394
 20
166.9347669123415017
 30
-0.0000000000000002
 11
-1.1358824138453689
 21
152.934766912341388
 31
-0.0000000000000002
  0
ARC
  5
684A
  8
0
  6
VERDECKT
 62
     1
 10
-6.1358824138453762
 20
166.934766912341388
 30
-0.0000000000000013
 40
5.0
 50
360.0
 51
179.9999999999998863
  0
LINE
  5
684B
  8
0
  6
VERDECKT
 62
     1
 10
11.8641175861546202
 20
166.9347669123415017
 30
0.0000000000000027
 11
11.8641175861546202
 21
140.934766912341388
 31
0.0000000000000027
  0
ARC
  5
684C
  8
0
  6
VERDECKT
 62
     1
 10
6.8641175861546229
 20
166.9347669123415017
 30
0.0000000000000016
 40
5.0
 50
0.0
 51
180.0
  0
LINE
  5
684D
  8
0
  6
VERDECKT
 62
     1
 10
24.8641175861545989
 20
166.9347669123415017
 30
0.0000000000000058
 11
24.8641175861546202
 21
135.934766912341388
 31
0.0000000000000058
  0
ARC
  5
684E
  8
0
  6
VERDECKT
 62
     1
 10
19.8641175861545989
 20
166.9347669123415017
 30
0.0000000000000044
 40
5.0
 50
0.0
 51
180.0
  0
LINE
  5
684F
  8
0
  6
VERDECKT
 62
     1
 10
37.8641175861546273
 20
166.9347669123415017
 30
0.0000000000000087
 11
37.8641175861546415
 21
135.934766912341388
 31
0.0000000000000087
  0
ARC
  5
6850
  8
0
  6
VERDECKT
 62
     1
 10
32.8641175861546415
 20
166.9347669123415017
 30
0.0000000000000075
 40
5.0
 50
0.0
 51
180.0
  0
LINE
  5
6851
  8
0
  6
VERDECKT
 62
     1
 10
50.8641175861546202
 20
166.9347669123415017
 30
0.0000000000000115
 11
50.8641175861546273
 21
140.934766912341388
 31
0.0000000000000115
  0
ARC
  5
6852
  8
0
  6
VERDECKT
 62
     1
 10
45.8641175861546131
 20
166.9347669123415017
 30
0.0000000000000104
 40
5.0
 50
0.0
 51
180.0
  0
LINE
  5
6853
  8
0
  6
VERDECKT
 62
     1
 10
53.8641175861545989
 20
152.934766912341388
 30
0.0000000000000122
 11
53.8641175861546202
 21
166.9347669123415017
 31
0.0000000000000122
  0
ARC
  5
6854
  8
0
  6
VERDECKT
 62
     1
 10
58.8641175861545989
 20
152.934766912341388
 30
0.0000000000000135
 40
5.0
 50
180.0
 51
0.0
  0
LINE
  5
6855
  8
0
  6
VERDECKT
 62
     1
 10
53.8641175861546202
 20
179.934766912341388
 30
0.0000000000000122
 11
53.8641175861546131
 21
193.9347669123415017
 31
0.0000000000000122
  0
ARC
  5
6856
  8
0
  6
VERDECKT
 62
     1
 10
58.8641175861545989
 20
179.934766912341388
 30
0.0000000000000135
 40
5.0
 50
180.0
 51
0.0
  0
LINE
  5
6857
  8
0
  6
VERDECKT
 62
     1
 10
40.8641175861546131
 20
179.934766912341388
 30
0.0000000000000093
 11
40.8641175861546202
 21
205.9347669123415017
 31
0.0000000000000093
  0
ARC
  5
6858
  8
0
  6
VERDECKT
 62
     1
 10
45.8641175861546131
 20
179.934766912341388
 30
0.0000000000000104
 40
5.0
 50
180.0
 51
0.0
  0
LINE
  5
6859
  8
0
  6
VERDECKT
 62
     1
 10
27.8641175861546415
 20
179.934766912341388
 30
0.0000000000000064
 11
27.8641175861546415
 21
210.9347669123415017
 31
0.0000000000000064
  0
ARC
  5
685A
  8
0
  6
VERDECKT
 62
     1
 10
32.8641175861546415
 20
179.934766912341388
 30
0.0000000000000075
 40
5.0
 50
180.0
 51
0.0
  0
LINE
  5
685B
  8
0
  6
VERDECKT
 62
     1
 10
14.8641175861546007
 20
179.934766912341388
 30
0.0000000000000033
 11
14.8641175861546095
 21
210.9347669123415017
 31
0.0000000000000033
  0
ARC
  5
685C
  8
0
  6
VERDECKT
 62
     1
 10
19.8641175861545989
 20
179.934766912341388
 30
0.0000000000000044
 40
5.0
 50
180.0
 51
0.0
  0
LINE
  5
685D
  8
0
  6
VERDECKT
 62
     1
 10
1.864117586154616
 20
179.934766912341388
 30
0.0000000000000004
 11
1.864117586154626
 21
205.9347669123415017
 31
0.0000000000000004
  0
ARC
  5
685E
  8
0
  6
VERDECKT
 62
     1
 10
6.8641175861546229
 20
179.934766912341388
 30
0.0000000000000016
 40
5.0
 50
180.0
 51
0.0
  0
LINE
  5
685F
  8
0
  6
VERDECKT
 62
     1
 10
-11.1358824138453798
 20
179.9347669123415017
 30
-0.0000000000000024
 11
-11.1358824138453691
 21
193.9347669123415017
 31
-0.0000000000000024
  0
ARC
  5
6860
  8
0
  6
VERDECKT
 62
     1
 10
-6.1358824138453762
 20
179.9347669123415017
 30
-0.0000000000000013
 40
5.0
 50
180.0
 51
0.0
  0
ARC
  5
6861
  8
0
  6
VERDECKT
 62
     1
 10
-6.1358824138453691
 20
152.934766912341388
 30
-0.0000000000000013
 40
5.0
 50
180.0
 51
0.0
  0
LINE
  5
6862
  8
0
  6
VERDECKT
 62
     1
 10
-11.1358824138453691
 20
152.934766912341388
 30
-0.0000000000000024
 11
-11.1358824138453905
 21
166.934766912341388
 31
-0.0000000000000024
  0
ARC
  5
6863
  8
0
  6
VERDECKT
 62
     1
 10
6.8641175861546371
 20
140.934766912341388
 30
0.0000000000000016
 40
5.0
 50
180.0
 51
0.0
  0
LINE
  5
6864
  8
0
  6
VERDECKT
 62
     1
 10
1.864117586154626
 20
140.934766912341388
 30
0.0000000000000004
 11
1.864117586154616
 21
166.934766912341388
 31
0.0000000000000004
  0
ARC
  5
6865
  8
0
  6
VERDECKT
 62
     1
 10
19.8641175861546415
 20
135.934766912341388
 30
0.0000000000000044
 40
4.9999999999999991
 50
180.0
 51
0.0
  0
LINE
  5
6866
  8
0
  6
VERDECKT
 62
     1
 10
14.8641175861546095
 20
135.934766912341388
 30
0.0000000000000033
 11
14.8641175861546007
 21
166.9347669123415017
 31
0.0000000000000033
  0
ARC
  5
6867
  8
0
  6
VERDECKT
 62
     1
 10
32.8641175861546202
 20
135.934766912341388
 30
0.0000000000000075
 40
5.0
 50
180.0
 51
0.0
  0
LINE
  5
6868
  8
0
  6
VERDECKT
 62
     1
 10
27.8641175861546415
 20
135.934766912341388
 30
0.0000000000000064
 11
27.8641175861546415
 21
166.9347669123415017
 31
0.0000000000000064
  0
ARC
  5
6869
  8
0
  6
VERDECKT
 62
     1
 10
45.8641175861546131
 20
140.934766912341388
 30
0.0000000000000104
 40
5.0
 50
180.0
 51
0.0
  0
LINE
  5
686A
  8
0
  6
VERDECKT
 62
     1
 10
40.8641175861546202
 20
140.934766912341388
 30
0.0000000000000093
 11
40.8641175861546131
 21
166.9347669123415017
 31
0.0000000000000093
  0
ARC
  5
686B
  8
0
  6
VERDECKT
 62
     1
 10
58.8641175861545989
 20
166.9347669123415017
 30
0.0000000000000135
 40
5.0
 50
0.0
 51
180.0
  0
LINE
  5
686C
  8
0
  6
VERDECKT
 62
     1
 10
63.8641175861546202
 20
166.9347669123415017
 30
0.0000000000000147
 11
63.8641175861545989
 21
152.934766912341388
 31
0.0000000000000147
  0
ARC
  5
686D
  8
0
  6
VERDECKT
 62
     1
 10
58.8641175861545989
 20
193.9347669123415017
 30
0.0000000000000135
 40
5.0
 50
0.0
 51
180.0
  0
LINE
  5
686E
  8
0
  6
VERDECKT
 62
     1
 10
63.8641175861546202
 20
193.9347669123415017
 30
0.0000000000000147
 11
63.8641175861546202
 21
179.934766912341388
 31
0.0000000000000147
  0
ARC
  5
686F
  8
0
  6
VERDECKT
 62
     1
 10
45.8641175861546131
 20
205.9347669123415017
 30
0.0000000000000104
 40
4.9999999999999938
 50
0.0
 51
180.0
  0
LINE
  5
6870
  8
0
  6
VERDECKT
 62
     1
 10
50.8641175861546273
 20
205.9347669123415017
 30
0.0000000000000115
 11
50.8641175861546202
 21
179.934766912341388
 31
0.0000000000000115
  0
ARC
  5
6871
  8
0
  6
VERDECKT
 62
     1
 10
32.8641175861546202
 20
210.9347669123415017
 30
0.0000000000000075
 40
5.0000000000000009
 50
0.0
 51
180.0
  0
LINE
  5
6872
  8
0
  6
VERDECKT
 62
     1
 10
37.8641175861546486
 20
210.9347669123415017
 30
0.0000000000000087
 11
37.8641175861546415
 21
179.934766912341388
 31
0.0000000000000087
  0
ARC
  5
6873
  8
0
  6
VERDECKT
 62
     1
 10
19.8641175861546415
 20
210.9347669123415017
 30
0.0000000000000044
 40
5.0000000000000018
 50
0.0
 51
180.0
  0
LINE
  5
6874
  8
0
  6
VERDECKT
 62
     1
 10
24.8641175861546202
 20
210.9347669123415017
 30
0.0000000000000058
 11
24.8641175861545989
 21
179.934766912341388
 31
0.0000000000000058
  0
ARC
  5
6875
  8
0
  6
VERDECKT
 62
     1
 10
6.8641175861546371
 20
205.9347669123415017
 30
0.0000000000000016
 40
5.0
 50
0.0
 51
180.0
  0
LINE
  5
6876
  8
0
  6
VERDECKT
 62
     1
 10
11.8641175861546202
 20
205.9347669123415017
 30
0.0000000000000027
 11
11.8641175861546309
 21
179.934766912341388
 31
0.0000000000000027
  0
ARC
  5
6877
  8
0
  6
VERDECKT
 62
     1
 10
-6.1358824138453691
 20
193.9347669123415017
 30
-0.0000000000000013
 40
5.0
 50
0.0
 51
180.0
  0
LINE
  5
6878
  8
0
  6
VERDECKT
 62
     1
 10
-1.1358824138453689
 20
193.9347669123415017
 30
-0.0000000000000002
 11
-1.135882413845394
 21
179.9347669123415017
 31
-0.0000000000000002
  0
ARC
  5
6879
  8
0
  6
VERDECKT
 62
     1
 10
-42.6358824138453869
 20
104.4347669123414022
 30
-0.0000000000000098
 40
1.5
 50
180.0
 51
270.0
  0
ARC
  5
687A
  8
0
  6
VERDECKT
 62
     1
 10
95.3641175861546628
 20
104.4347669123415017
 30
0.0000000000000218
 40
1.5
 50
270.0
 51
359.9999999999994884
  0
ARC
  5
687B
  8
0
  6
VERDECKT
 62
     1
 10
95.3641175861546344
 20
242.434766912341388
 30
0.0000000000000218
 40
1.500000000000028
 50
0.0
 51
89.9999999999983373
  0
ARC
  5
687C
  8
0
  6
VERDECKT
 62
     1
 10
-42.6358824138453585
 20
242.434766912341388
 30
-0.0000000000000098
 40
1.500000000000028
 50
90.0000000000010374
 51
180.0000000000005116
  0
ENDBLK
  5
687E
  8
0
  0
BLOCK
  8
0
  2
A$C9B2C80FF
 70
     0
 10
0.0
 20
0.0
 30
0.0
  3
A$C9B2C80FF
  1

  0
LINE
  5
6882
  8
0
  6
CONTINUOUS
 62
     0
 10
31.3641175861546415
 20
0.000000000000008
 30
0.0
 11
21.3641175861546415
 21
0.000000000000008
 31
0.0
210
0.0
220
1.0
230
-0.0000000000000002
  0
LINE
  5
6883
  8
0
  6
CONTINUOUS
 62
     0
 10
31.3641175861546415
 20
1.5000000000000071
 30
-0.0000000000000003
 11
21.3641175861546415
 21
1.5000000000000071
 31
-0.0000000000000003
210
0.0
220
1.0
230
-0.0000000000000002
  0
LINE
  5
6884
  8
0
  6
CONTINUOUS
 62
     0
 10
31.3641175861546415
 20
-1.4999999999999869
 30
0.0000000000000003
 11
31.3641175861546415
 21
1.500000000000008
 31
-0.0000000000000003
210
0.0
220
1.0
230
-0.0000000000000002
  0
LINE
  5
6885
  8
0
  6
CONTINUOUS
 62
     0
 10
95.364117586154677
 20
1.5000000000000071
 30
-0.0000000000000003
 11
31.3641175861546486
 21
1.5000000000000071
 31
-0.0000000000000003
210
0.0
220
1.0
230
-0.0000000000000002
  0
LINE
  5
6886
  8
0
  6
CONTINUOUS
 62
     0
 10
21.3641175861546095
 20
1.500000000000006
 30
-0.0000000000000003
 11
21.3641175861546593
 21
-1.499999999999992
 31
0.0000000000000003
210
0.0
220
1.0
230
-0.0000000000000002
  0
LINE
  5
6887
  8
0
  6
CONTINUOUS
 62
     0
 10
21.3641175861546415
 20
1.5000000000000071
 30
-0.0000000000000003
 11
-42.6358824138453585
 21
1.5000000000000071
 31
-0.0000000000000003
210
0.0
220
1.0
230
-0.0000000000000002
  0
ARC
  5
6888
  8
0
  6
CONTINUOUS
 62
     0
 10
-95.3641175861546628
 20
-1.4999999999999869
 30
0.0
 40
2.9999999999999951
210
0.0
220
-0.0000000000000002
230
-1.0
 50
89.99999999999973
 51
180.0
  0
LINE
  5
6889
  8
0
  6
CONTINUOUS
 62
     0
 10
98.3641175861546344
 20
-6.4999999999999929
 30
0.0000000000000014
 11
98.3641175861546344
 21
-1.499999999999992
 31
0.0000000000000003
210
0.0
220
1.0
230
-0.0000000000000002
  0
LINE
  5
688A
  8
0
  6
CONTINUOUS
 62
     0
 10
98.3641175861546486
 20
-6.4999999999999929
 30
0.0000000000000014
 11
95.3641175861546628
 21
-6.4999999999999929
 31
0.0000000000000014
210
0.0
220
1.0
230
-0.0000000000000002
  0
LINE
  5
688B
  8
0
  6
CONTINUOUS
 62
     0
 10
31.3641175861546309
 20
-6.4999999999999929
 30
0.0000000000000014
 11
95.3641175861546628
 21
-6.4999999999999929
 31
0.0000000000000014
210
0.0
220
1.0
230
-0.0000000000000002
  0
LINE
  5
688C
  8
0
  6
CONTINUOUS
 62
     0
 10
-42.6358824138453869
 20
-6.4999999999999929
 30
0.0000000000000014
 11
21.3641175861546415
 21
-6.4999999999999929
 31
0.0000000000000014
210
0.0
220
1.0
230
-0.0000000000000002
  0
LINE
  5
688D
  8
0
  6
CONTINUOUS
 62
     0
 10
-42.6358824138453869
 20
-6.4999999999999929
 30
0.0000000000000014
 11
-45.6358824138453869
 21
-6.4999999999999929
 31
0.0000000000000014
210
0.0
220
1.0
230
-0.0000000000000002
  0
LINE
  5
688E
  8
0
  6
CONTINUOUS
 62
     0
 10
21.3641175861546415
 20
-6.4999999999999938
 30
0.0000000000000014
 11
21.3641175861546415
 21
-1.499999999999992
 31
0.0000000000000003
210
0.0
220
1.0
230
-0.0000000000000002
  0
LINE
  5
688F
  8
0
  6
CONTINUOUS
 62
     0
 10
31.3641175861546415
 20
-1.499999999999992
 30
0.0000000000000003
 11
31.3641175861546415
 21
-6.4999999999999929
 31
0.0000000000000014
210
0.0
220
1.0
230
-0.0000000000000002
  0
LINE
  5
6890
  8
0
  6
CONTINUOUS
 62
     0
 10
31.3641175861546309
 20
-2.4999999999999929
 30
0.0000000000000006
 11
27.8641175861546202
 21
-2.4999999999999938
 31
0.0000000000000006
210
0.0
220
1.0
230
-0.0000000000000002
  0
LINE
  5
6891
  8
0
  6
CONTINUOUS
 62
     0
 10
24.8641175861546309
 20
-2.4999999999999938
 30
0.0000000000000006
 11
21.3641175861546415
 21
-2.4999999999999929
 31
0.0000000000000006
210
0.0
220
1.0
230
-0.0000000000000002
  0
LINE
  5
6892
  8
0
  6
CONTINUOUS
 62
     0
 10
24.8641175861546202
 20
-2.4999999999999938
 30
0.0000000000000006
 11
24.8641175861546202
 21
-1.4999999999999929
 31
0.0000000000000003
210
0.0
220
1.0
230
-0.0000000000000002
  0
ARC
  5
6893
  8
0
  6
CONTINUOUS
 62
     0
 10
26.3641175861546415
 20
-1.499999999999994
 30
0.0000000000000003
 40
1.5
 50
90.0000000000007816
 51
180.0
  0
ARC
  5
6894
  8
0
  6
CONTINUOUS
 62
     0
 10
26.3641175861546202
 20
-1.4999999999999929
 30
0.0000000000000003
 40
1.5000000000000211
 50
0.0
 51
89.9999999999999858
  0
LINE
  5
6895
  8
0
  6
CONTINUOUS
 62
     0
 10
27.8641175861546415
 20
-2.4999999999999938
 30
0.0000000000000006
 11
27.8641175861546415
 21
-1.4999999999999929
 31
0.0000000000000003
210
0.0
220
1.0
230
-0.0000000000000002
  0
ARC
  5
6896
  8
0
  6
CONTINUOUS
 62
     0
 10
42.6358824138453585
 20
-1.499999999999986
 30
0.0
 40
3.0
210
0.0
220
-0.0000000000000002
230
-1.0
 50
359.9999999999998863
 51
90.0
  0
LINE
  5
6897
  8
0
  6
CONTINUOUS
 62
     0
 10
-45.6358824138453585
 20
-6.4999999999999929
 30
0.0000000000000014
 11
-45.6358824138453585
 21
-1.499999999999992
 31
0.0000000000000003
210
0.0
220
1.0
230
-0.0000000000000002
  0
LINE
  5
6898
  8
0
  6
VERDECKT
 62
     1
 10
95.364117586154677
 20
0.000000000000008
 30
0.0
 11
31.3641175861546486
 21
0.000000000000008
 31
0.0
210
0.0
220
1.0
230
-0.0000000000000002
  0
LINE
  5
6899
  8
0
  6
VERDECKT
 62
     1
 10
95.3641175861546344
 20
1.5000000000000031
 30
-0.0000000000000003
 11
95.3641175861546344
 21
0.0000000000000036
 31
0.0
210
0.0
220
1.0
230
-0.0000000000000002
  0
LINE
  5
689A
  8
0
  6
VERDECKT
 62
     1
 10
-42.6358824138453869
 20
1.5000000000000031
 30
-0.0000000000000003
 11
-42.6358824138453869
 21
0.0000000000000036
 31
0.0
210
0.0
220
1.0
230
-0.0000000000000002
  0
ARC
  5
689B
  8
0
  6
VERDECKT
 62
     1
 10
42.6358824138453798
 20
-1.500000000000002
 30
0.0
 40
1.5
210
0.0
220
-0.0000000000000002
230
-1.0
 50
0.0000000000003817
 51
90.0000000000000284
  0
ARC
  5
689C
  8
0
  6
VERDECKT
 62
     1
 10
-95.3641175861546628
 20
-1.4999999999999929
 30
0.0
 40
1.5
210
0.0
220
-0.0000000000000002
230
-1.0
 50
90.0000000000010942
 51
180.0
  0
LINE
  5
689D
  8
0
  6
VERDECKT
 62
     1
 10
96.8641175861546344
 20
-6.4999999999999929
 30
0.0000000000000014
 11
96.8641175861546344
 21
-1.499999999999992
 31
0.0000000000000003
210
0.0
220
1.0
230
-0.0000000000000002
  0
LINE
  5
689E
  8
0
  6
VERDECKT
 62
     1
 10
21.3641175861546415
 20
0.000000000000008
 30
0.0
 11
-42.6358824138453585
 21
0.000000000000008
 31
0.0
210
0.0
220
1.0
230
-0.0000000000000002
  0
LINE
  5
689F
  8
0
  6
VERDECKT
 62
     1
 10
63.8641175861545989
 20
-2.499999999999996
 30
0.0000000000000006
 11
53.8641175861545989
 21
-2.499999999999996
 31
0.0000000000000006
210
0.0
220
1.0
230
-0.0000000000000002
  0
LINE
  5
68A0
  8
0
  6
VERDECKT
 62
     1
 10
50.8641175861546131
 20
-2.4999999999999951
 30
0.0000000000000006
 11
40.8641175861546131
 21
-2.4999999999999951
 31
0.0000000000000006
210
0.0
220
1.0
230
-0.0000000000000002
  0
LINE
  5
68A1
  8
0
  6
VERDECKT
 62
     1
 10
37.8641175861546131
 20
-2.4999999999999938
 30
0.0000000000000006
 11
31.3641175861546309
 21
-2.4999999999999929
 31
0.0000000000000006
210
0.0
220
1.0
230
-0.0000000000000002
  0
LINE
  5
68A2
  8
0
  6
VERDECKT
 62
     1
 10
21.3641175861546415
 20
-2.4999999999999929
 30
0.0000000000000006
 11
14.8641175861546309
 21
-2.4999999999999938
 31
0.0000000000000006
210
0.0
220
1.0
230
-0.0000000000000002
  0
LINE
  5
68A3
  8
0
  6
VERDECKT
 62
     1
 10
11.8641175861546397
 20
-2.4999999999999951
 30
0.0000000000000006
 11
1.8641175861546371
 21
-2.4999999999999951
 31
0.0000000000000006
210
0.0
220
1.0
230
-0.0000000000000002
  0
LINE
  5
68A4
  8
0
  6
VERDECKT
 62
     1
 10
-1.1358824138453689
 20
-2.499999999999996
 30
0.0000000000000006
 11
-11.1358824138453691
 21
-2.499999999999996
 31
0.0000000000000006
210
0.0
220
1.0
230
-0.0000000000000002
  0
LINE
  5
68A5
  8
0
  6
VERDECKT
 62
     1
 10
-1.1358824138453689
 20
-2.499999999999996
 30
0.0000000000000006
 11
-1.1358824138453689
 21
-1.4999999999999949
 31
0.0000000000000003
210
0.0
220
1.0
230
-0.0000000000000002
  0
LINE
  5
68A6
  8
0
  6
VERDECKT
 62
     1
 10
11.8641175861546202
 20
-2.4999999999999951
 30
0.0000000000000006
 11
11.8641175861546202
 21
-1.499999999999994
 31
0.0000000000000003
210
0.0
220
1.0
230
-0.0000000000000002
  0
LINE
  5
68A7
  8
0
  6
VERDECKT
 62
     1
 10
37.8641175861546415
 20
-2.4999999999999938
 30
0.0000000000000006
 11
37.8641175861546415
 21
-1.4999999999999929
 31
0.0000000000000003
210
0.0
220
1.0
230
-0.0000000000000002
  0
LINE
  5
68A8
  8
0
  6
VERDECKT
 62
     1
 10
50.8641175861546202
 20
-2.4999999999999951
 30
0.0000000000000006
 11
50.8641175861546202
 21
-1.499999999999994
 31
0.0000000000000003
210
0.0
220
1.0
230
-0.0000000000000002
  0
LINE
  5
68A9
  8
0
  6
VERDECKT
 62
     1
 10
53.8641175861546131
 20
-2.499999999999996
 30
0.0000000000000006
 11
53.8641175861546131
 21
-1.4999999999999949
 31
0.0000000000000003
210
0.0
220
1.0
230
-0.0000000000000002
  0
LINE
  5
68AA
  8
0
  6
VERDECKT
 62
     1
 10
63.8641175861545989
 20
-2.499999999999996
 30
0.0000000000000006
 11
63.8641175861545989
 21
-1.4999999999999949
 31
0.0000000000000003
210
0.0
220
1.0
230
-0.0000000000000002
  0
LINE
  5
68AB
  8
0
  6
VERDECKT
 62
     1
 10
-2.6358824138453691
 20
-2.499999999999996
 30
0.0000000000000006
 11
-2.6358824138453691
 21
-1.4999999999999949
 31
0.0000000000000003
210
0.0
220
1.0
230
-0.0000000000000002
  0
LINE
  5
68AC
  8
0
  6
VERDECKT
 62
     1
 10
-9.6358824138453691
 20
-2.499999999999996
 30
0.0000000000000006
 11
-9.6358824138453691
 21
-1.4999999999999949
 31
0.0000000000000003
210
0.0
220
1.0
230
-0.0000000000000002
  0
LINE
  5
68AD
  8
0
  6
VERDECKT
 62
     1
 10
10.3641175861546202
 20
-2.4999999999999951
 30
0.0000000000000006
 11
10.3641175861546202
 21
-1.499999999999994
 31
0.0000000000000003
210
0.0
220
1.0
230
-0.0000000000000002
  0
LINE
  5
68AE
  8
0
  6
VERDECKT
 62
     1
 10
3.3641175861546229
 20
-2.4999999999999951
 30
0.0000000000000006
 11
3.3641175861546229
 21
-1.499999999999994
 31
0.0000000000000003
210
0.0
220
1.0
230
-0.0000000000000002
  0
LINE
  5
68AF
  8
0
  6
VERDECKT
 62
     1
 10
23.3641175861546202
 20
-2.4999999999999938
 30
0.0000000000000006
 11
23.3641175861546202
 21
-1.4999999999999929
 31
0.0000000000000003
210
0.0
220
1.0
230
-0.0000000000000002
  0
LINE
  5
68B0
  8
0
  6
VERDECKT
 62
     1
 10
16.3641175861545989
 20
-2.4999999999999938
 30
0.0000000000000006
 11
16.3641175861545989
 21
-1.4999999999999929
 31
0.0000000000000003
210
0.0
220
1.0
230
-0.0000000000000002
  0
LINE
  5
68B1
  8
0
  6
VERDECKT
 62
     1
 10
36.3641175861546415
 20
-2.4999999999999938
 30
0.0000000000000006
 11
36.3641175861546415
 21
-1.4999999999999929
 31
0.0000000000000003
210
0.0
220
1.0
230
-0.0000000000000002
  0
LINE
  5
68B2
  8
0
  6
VERDECKT
 62
     1
 10
29.3641175861546415
 20
-2.4999999999999938
 30
0.0000000000000006
 11
29.3641175861546415
 21
-1.4999999999999929
 31
0.0000000000000003
210
0.0
220
1.0
230
-0.0000000000000002
  0
LINE
  5
68B3
  8
0
  6
VERDECKT
 62
     1
 10
49.3641175861546273
 20
-2.4999999999999951
 30
0.0000000000000006
 11
49.3641175861546273
 21
-1.499999999999994
 31
0.0000000000000003
210
0.0
220
1.0
230
-0.0000000000000002
  0
LINE
  5
68B4
  8
0
  6
VERDECKT
 62
     1
 10
42.3641175861546202
 20
-2.4999999999999951
 30
0.0000000000000006
 11
42.3641175861546202
 21
-1.499999999999994
 31
0.0000000000000003
210
0.0
220
1.0
230
-0.0000000000000002
  0
LINE
  5
68B5
  8
0
  6
VERDECKT
 62
     1
 10
55.3641175861546131
 20
-2.499999999999996
 30
0.0000000000000006
 11
55.3641175861546131
 21
-1.4999999999999949
 31
0.0000000000000003
210
0.0
220
1.0
230
-0.0000000000000002
  0
ARC
  5
68B6
  8
0
  6
VERDECKT
 62
     1
 10
0.3641175861546309
 20
-1.4999999999999969
 30
0.0000000000000003
 40
1.5000000000000011
 50
90.0000000000006679
 51
179.9999999999998863
  0
ARC
  5
68B7
  8
0
  6
VERDECKT
 62
     1
 10
-12.6358824138453603
 20
-1.499999999999994
 30
0.0000000000000003
 40
1.499999999999992
 50
360.0
 51
90.0000000000002842
  0
LINE
  5
68B8
  8
0
  6
VERDECKT
 62
     1
 10
-11.1358824138453691
 20
-2.499999999999996
 30
0.0000000000000006
 11
-11.1358824138453691
 21
-1.4999999999999949
 31
0.0000000000000003
210
0.0
220
1.0
230
-0.0000000000000002
  0
ARC
  5
68B9
  8
0
  6
VERDECKT
 62
     1
 10
13.3641175861546397
 20
-1.499999999999994
 30
0.0000000000000003
 40
1.5
 50
90.0000000000012648
 51
180.0
  0
ARC
  5
68BA
  8
0
  6
VERDECKT
 62
     1
 10
0.3641175861546415
 20
-1.4999999999999929
 30
0.0000000000000003
 40
1.499999999999982
 50
360.0
 51
90.0000000000001705
  0
LINE
  5
68BB
  8
0
  6
VERDECKT
 62
     1
 10
1.8641175861546231
 20
-2.4999999999999951
 30
0.0000000000000006
 11
1.8641175861546231
 21
-1.499999999999994
 31
0.0000000000000003
210
0.0
220
1.0
230
-0.0000000000000002
  0
ARC
  5
68BC
  8
0
  6
VERDECKT
 62
     1
 10
13.3641175861546397
 20
-1.499999999999992
 30
0.0000000000000003
 40
1.4999999999999709
 50
360.0
 51
90.0000000000000711
  0
LINE
  5
68BD
  8
0
  6
VERDECKT
 62
     1
 10
14.8641175861546095
 20
-2.4999999999999938
 30
0.0000000000000006
 11
14.8641175861546095
 21
-1.4999999999999929
 31
0.0000000000000003
210
0.0
220
1.0
230
-0.0000000000000002
  0
ARC
  5
68BE
  8
0
  6
VERDECKT
 62
     1
 10
39.3641175861546202
 20
-1.499999999999994
 30
0.0000000000000003
 40
1.5
 50
90.0
 51
180.0
  0
ARC
  5
68BF
  8
0
  6
VERDECKT
 62
     1
 10
52.3641175861545989
 20
-1.4999999999999929
 30
0.0000000000000003
 40
1.499999999999998
 50
90.0
 51
180.0
  0
ARC
  5
68C0
  8
0
  6
VERDECKT
 62
     1
 10
39.3641175861546131
 20
-1.499999999999994
 30
0.0000000000000003
 40
1.500000000000012
 50
0.0
 51
90.0000000000000711
  0
LINE
  5
68C1
  8
0
  6
VERDECKT
 62
     1
 10
40.8641175861546202
 20
-2.4999999999999951
 30
0.0000000000000006
 11
40.8641175861546202
 21
-1.499999999999994
 31
0.0000000000000003
210
0.0
220
1.0
230
-0.0000000000000002
  0
ARC
  5
68C2
  8
0
  6
VERDECKT
 62
     1
 10
-65.364117586154606
 20
-1.499999999999994
 30
0.0
 40
1.5
210
0.0
220
-0.0000000000000002
230
-1.0
 50
360.0
 51
90.0000000000000284
  0
ARC
  5
68C3
  8
0
  6
VERDECKT
 62
     1
 10
52.3641175861546131
 20
-1.4999999999999929
 30
0.0000000000000003
 40
1.499999999999996
 50
0.0
 51
90.0000000000000711
  0
LINE
  5
68C4
  8
0
  6
VERDECKT
 62
     1
 10
-44.1358824138453727
 20
-6.4999999999999929
 30
0.0000000000000014
 11
-44.1358824138453727
 21
-1.499999999999992
 31
0.0000000000000003
210
0.0
220
1.0
230
-0.0000000000000002
  0
ARC
  5
68C5
  8
0
  6
VERDECKT
 62
     1
 10
0.3641175861546309
 20
-1.4999999999999929
 30
0.0000000000000003
 40
2.9999999999999978
 50
90.0000000000003268
 51
180.0
  0
ARC
  5
68C6
  8
0
  6
VERDECKT
 62
     1
 10
-12.6358824138453691
 20
-1.5000000000000031
 30
0.0000000000000003
 40
3.0000000000000071
 50
0.0000000000001399
 51
89.9999999999998721
  0
ARC
  5
68C7
  8
0
  6
VERDECKT
 62
     1
 10
13.3641175861546397
 20
-1.4999999999999929
 30
0.0000000000000003
 40
2.9999999999999991
 50
90.0000000000006253
 51
180.0
  0
ARC
  5
68C8
  8
0
  6
VERDECKT
 62
     1
 10
0.364117586154638
 20
-1.4999999999999969
 30
0.0000000000000003
 40
2.9999999999999849
 50
0.0000000000000509
 51
90.0
  0
ARC
  5
68C9
  8
0
  6
VERDECKT
 62
     1
 10
26.3641175861546415
 20
-1.4999999999999929
 30
0.0000000000000003
 40
3.0
 50
90.0000000000003553
 51
180.0
  0
ARC
  5
68CA
  8
0
  6
VERDECKT
 62
     1
 10
13.3641175861546397
 20
-1.499999999999992
 30
0.0000000000000003
 40
2.9999999999999711
 50
0.0
 51
90.0000000000000711
  0
ARC
  5
68CB
  8
0
  6
VERDECKT
 62
     1
 10
39.3641175861546202
 20
-1.499999999999994
 30
0.0000000000000003
 40
3.0
 50
90.0
 51
180.0
  0
ARC
  5
68CC
  8
0
  6
VERDECKT
 62
     1
 10
26.3641175861546202
 20
-1.4999999999999929
 30
0.0000000000000003
 40
3.0000000000000191
 50
0.0
 51
90.0
  0
ARC
  5
68CD
  8
0
  6
VERDECKT
 62
     1
 10
52.3641175861545989
 20
-1.4999999999999949
 30
0.0000000000000003
 40
3.0
 50
90.0
 51
180.0
  0
ARC
  5
68CE
  8
0
  6
VERDECKT
 62
     1
 10
39.3641175861546131
 20
-1.4999999999999909
 30
0.0000000000000003
 40
3.0000000000000102
 50
360.0
 51
90.0000000000000568
  0
ARC
  5
68CF
  8
0
  6
VERDECKT
 62
     1
 10
-65.364117586154606
 20
-1.5000000000000031
 30
0.0
 40
3.0
210
0.0
220
-0.0000000000000002
230
-1.0
 50
0.0000000000001399
 51
90.0000000000000284
  0
ARC
  5
68D0
  8
0
  6
VERDECKT
 62
     1
 10
52.3641175861546131
 20
-1.499999999999992
 30
0.0000000000000003
 40
2.999999999999996
 50
360.0
 51
90.0000000000000284
  0
LINE
  5
68D1
  8
0
  6
VERDECKT
 62
     1
 10
62.3641175861546202
 20
-2.499999999999996
 30
0.0000000000000006
 11
62.3641175861546202
 21
-1.4999999999999949
 31
0.0000000000000003
210
0.0
220
1.0
230
-0.0000000000000002
  0
ENDBLK
  5
68D3
  8
0
  0
BLOCK
  8
0
  2
A$CA2E45A8B
 70
     0
 10
0.0
 20
0.0
 30
0.0
  3
A$CA2E45A8B
  1

  0
LINE
  5
68D7
  8
0
  6
CONTINUOUS
 62
     3
 10
21.3641175861545989
 20
242.4347669123415017
 30
0.0000000000000038
 11
31.3641175861546095
 21
242.4347669123415017
 31
0.0000000000000056
  0
LINE
  5
68D8
  8
0
  6
CONTINUOUS
 62
     3
 10
31.3641175861546415
 20
104.4347669123414022
 30
0.0000000000000056
 11
21.3641175861546415
 21
104.4347669123414022
 31
0.0000000000000038
  0
LINE
  5
68D9
  8
0
  6
CONTINUOUS
 62
     3
 10
31.3641175861546415
 20
242.4347669123415017
 30
0.0000000000000056
 11
31.3641175861545882
 21
245.4347669123415017
 31
0.0000000000000056
  0
LINE
  5
68DA
  8
0
  6
CONTINUOUS
 62
     3
 10
95.364117586154677
 20
245.434766912341388
 30
0.0000000000000171
 11
31.3641175861546202
 21
245.4347669123415017
 31
0.0000000000000056
  0
LINE
  5
68DB
  8
0
  6
CONTINUOUS
 62
     3
 10
31.3641175861546415
 20
101.4347669123414022
 30
0.0000000000000056
 11
31.3641175861546415
 21
104.4347669123414022
 31
0.0000000000000056
  0
LINE
  5
68DC
  8
0
  6
CONTINUOUS
 62
     3
 10
31.3641175861546415
 20
101.4347669123415017
 30
0.0000000000000056
 11
95.3641175861546628
 21
101.4347669123415017
 31
0.000000000000017
  0
LINE
  5
68DD
  8
0
  6
CONTINUOUS
 62
     3
 10
21.3641175861546095
 20
104.4347669123414022
 30
0.0000000000000038
 11
21.3641175861546593
 21
101.4347669123414022
 31
0.0000000000000038
  0
LINE
  5
68DE
  8
0
  6
CONTINUOUS
 62
     3
 10
-42.6358824138453869
 20
101.4347669123414022
 30
-0.0000000000000075
 11
21.3641175861546415
 21
101.4347669123415017
 31
0.0000000000000039
  0
LINE
  5
68DF
  8
0
  6
CONTINUOUS
 62
     3
 10
95.3641175861546344
 20
178.4347669123415017
 30
0.0000000000000171
 11
95.3641175861546344
 21
168.4347669123415017
 31
0.0000000000000171
  0
LINE
  5
68E0
  8
0
  6
CONTINUOUS
 62
     3
 10
98.3641175861546344
 20
178.4347669123415017
 30
0.0000000000000178
 11
95.3641175861546344
 21
178.4347669123415017
 31
0.0000000000000171
  0
LINE
  5
68E1
  8
0
  6
CONTINUOUS
 62
     3
 10
98.3641175861546344
 20
178.4347669123415017
 30
0.0000000000000178
 11
98.3641175861546344
 21
242.434766912341388
 31
0.0000000000000178
  0
LINE
  5
68E2
  8
0
  6
CONTINUOUS
 62
     3
 10
95.3641175861546344
 20
168.434766912341388
 30
0.0000000000000171
 11
98.3641175861546486
 21
168.4347669123415017
 31
0.0000000000000178
  0
LINE
  5
68E3
  8
0
  6
CONTINUOUS
 62
     3
 10
98.3641175861546344
 20
104.4347669123415017
 30
0.0000000000000178
 11
98.3641175861546344
 21
168.4347669123415017
 31
0.0000000000000178
  0
LINE
  5
68E4
  8
0
  6
CONTINUOUS
 62
     3
 10
-42.6358824138454082
 20
168.434766912341388
 30
-0.0000000000000075
 11
-42.6358824138454082
 21
178.434766912341388
 31
-0.0000000000000075
  0
LINE
  5
68E5
  8
0
  6
CONTINUOUS
 62
     3
 10
-42.6358824138454082
 20
178.4347669123415017
 30
-0.0000000000000075
 11
-45.6358824138454011
 21
178.434766912341388
 31
-0.0000000000000082
  0
LINE
  5
68E6
  8
0
  6
CONTINUOUS
 62
     3
 10
-45.6358824138454295
 20
242.434766912341388
 30
-0.0000000000000082
 11
-45.6358824138454011
 21
178.434766912341388
 31
-0.0000000000000082
  0
LINE
  5
68E7
  8
0
  6
CONTINUOUS
 62
     3
 10
21.3641175861545989
 20
245.4347669123415017
 30
0.0000000000000038
 11
21.3641175861545989
 21
242.4347669123415017
 31
0.0000000000000038
  0
LINE
  5
68E8
  8
0
  6
CONTINUOUS
 62
     3
 10
-45.6358824138454011
 20
168.434766912341388
 30
-0.0000000000000082
 11
-42.6358824138453869
 21
168.434766912341388
 31
-0.0000000000000075
  0
LINE
  5
68E9
  8
0
  6
CONTINUOUS
 62
     3
 10
-2.635882413845394
 20
166.934766912341388
 30
-0.0000000000000004
 11
-2.6358824138453691
 21
152.934766912341388
 31
-0.0000000000000004
  0
ARC
  5
68EA
  8
0
  6
CONTINUOUS
 62
     3
 10
-6.1358824138453691
 20
152.934766912341388
 30
-0.0000000000000011
 40
3.5
 50
180.0
 51
0.0
  0
LINE
  5
68EB
  8
0
  6
CONTINUOUS
 62
     3
 10
10.3641175861546309
 20
166.9347669123415017
 30
0.0000000000000018
 11
10.3641175861546202
 21
140.934766912341388
 31
0.0000000000000018
  0
ARC
  5
68EC
  8
0
  6
CONTINUOUS
 62
     3
 10
6.8641175861546371
 20
140.934766912341388
 30
0.0000000000000013
 40
3.4999999999999978
 50
180.0
 51
0.0
  0
LINE
  5
68ED
  8
0
  6
CONTINUOUS
 62
     3
 10
23.3641175861545989
 20
166.9347669123415017
 30
0.0000000000000042
 11
23.3641175861546202
 21
135.934766912341388
 31
0.0000000000000042
  0
ARC
  5
68EE
  8
0
  6
CONTINUOUS
 62
     3
 10
19.8641175861546415
 20
135.934766912341388
 30
0.0000000000000036
 40
3.4999999999999991
 50
180.0
 51
0.0
  0
LINE
  5
68EF
  8
0
  6
CONTINUOUS
 62
     3
 10
36.3641175861546415
 20
166.9347669123415017
 30
0.0000000000000064
 11
36.3641175861546415
 21
135.934766912341388
 31
0.0000000000000064
  0
ARC
  5
68F0
  8
0
  6
CONTINUOUS
 62
     3
 10
32.8641175861546202
 20
135.934766912341388
 30
0.000000000000006
 40
3.5000000000000009
 50
180.0
 51
0.0
  0
LINE
  5
68F1
  8
0
  6
CONTINUOUS
 62
     3
 10
49.3641175861546202
 20
166.9347669123415017
 30
0.0000000000000089
 11
49.3641175861546273
 21
140.934766912341388
 31
0.0000000000000089
  0
ARC
  5
68F2
  8
0
  6
CONTINUOUS
 62
     3
 10
45.8641175861546131
 20
140.934766912341388
 30
0.0000000000000082
 40
3.5
 50
180.0
 51
0.0
  0
LINE
  5
68F3
  8
0
  6
CONTINUOUS
 62
     3
 10
55.3641175861546131
 20
152.934766912341388
 30
0.00000000000001
 11
55.3641175861546202
 21
166.9347669123415017
 31
0.00000000000001
  0
ARC
  5
68F4
  8
0
  6
CONTINUOUS
 62
     3
 10
58.8641175861545989
 20
166.9347669123415017
 30
0.0000000000000107
 40
3.5
 50
0.0
 51
180.0
  0
LINE
  5
68F5
  8
0
  6
CONTINUOUS
 62
     3
 10
55.3641175861546273
 20
179.934766912341388
 30
0.00000000000001
 11
55.3641175861546131
 21
193.9347669123415017
 31
0.00000000000001
  0
ARC
  5
68F6
  8
0
  6
CONTINUOUS
 62
     3
 10
58.8641175861545989
 20
193.9347669123415017
 30
0.0000000000000107
 40
3.5
 50
0.0
 51
180.0
  0
LINE
  5
68F7
  8
0
  6
CONTINUOUS
 62
     3
 10
42.3641175861545989
 20
179.934766912341388
 30
0.0000000000000075
 11
42.3641175861546202
 21
205.9347669123415017
 31
0.0000000000000075
  0
ARC
  5
68F8
  8
0
  6
CONTINUOUS
 62
     3
 10
45.8641175861546131
 20
205.9347669123415017
 30
0.0000000000000082
 40
3.4999999999999938
 50
0.0
 51
180.0
  0
LINE
  5
68F9
  8
0
  6
CONTINUOUS
 62
     3
 10
29.3641175861546415
 20
179.934766912341388
 30
0.0000000000000053
 11
29.3641175861546309
 21
210.9347669123415017
 31
0.0000000000000053
  0
ARC
  5
68FA
  8
0
  6
CONTINUOUS
 62
     3
 10
32.8641175861546202
 20
210.9347669123415017
 30
0.000000000000006
 40
3.5000000000000022
 50
0.0
 51
180.0
  0
LINE
  5
68FB
  8
0
  6
CONTINUOUS
 62
     3
 10
16.3641175861545989
 20
179.934766912341388
 30
0.0000000000000029
 11
16.3641175861545989
 21
210.9347669123415017
 31
0.0000000000000029
  0
ARC
  5
68FC
  8
0
  6
CONTINUOUS
 62
     3
 10
19.8641175861546415
 20
210.9347669123415017
 30
0.0000000000000036
 40
3.5000000000000022
 50
0.0
 51
180.0
  0
LINE
  5
68FD
  8
0
  6
CONTINUOUS
 62
     3
 10
3.3641175861546122
 20
179.934766912341388
 30
0.0000000000000007
 11
3.3641175861546229
 21
205.9347669123415017
 31
0.0000000000000007
  0
ARC
  5
68FE
  8
0
  6
CONTINUOUS
 62
     3
 10
6.8641175861546371
 20
205.9347669123415017
 30
0.0000000000000013
 40
3.5
 50
0.0
 51
180.0
  0
LINE
  5
68FF
  8
0
  6
CONTINUOUS
 62
     3
 10
-9.6358824138453834
 20
179.9347669123415017
 30
-0.0000000000000018
 11
-9.6358824138453691
 21
193.9347669123415017
 31
-0.0000000000000018
  0
ARC
  5
6900
  8
0
  6
CONTINUOUS
 62
     3
 10
-6.1358824138453691
 20
193.9347669123415017
 30
-0.0000000000000011
 40
3.5
 50
0.0
 51
180.0
  0
LINE
  5
6901
  8
0
  6
CONTINUOUS
 62
     3
 10
-9.6358824138453691
 20
152.934766912341388
 30
-0.0000000000000018
 11
-9.6358824138453905
 21
166.934766912341388
 31
-0.0000000000000018
  0
ARC
  5
6902
  8
0
  6
CONTINUOUS
 62
     3
 10
-6.1358824138453762
 20
166.934766912341388
 30
-0.0000000000000011
 40
3.5
 50
0.0
 51
180.0
  0
LINE
  5
6903
  8
0
  6
CONTINUOUS
 62
     3
 10
3.3641175861546229
 20
140.934766912341388
 30
0.0000000000000007
 11
3.3641175861546122
 21
166.934766912341388
 31
0.0000000000000007
  0
ARC
  5
6904
  8
0
  6
CONTINUOUS
 62
     3
 10
6.8641175861546229
 20
166.9347669123415017
 30
0.0000000000000013
 40
3.5
 50
0.0
 51
180.0
  0
LINE
  5
6905
  8
0
  6
CONTINUOUS
 62
     3
 10
16.3641175861545989
 20
135.934766912341388
 30
0.0000000000000029
 11
16.3641175861545989
 21
166.9347669123415017
 31
0.0000000000000029
  0
ARC
  5
6906
  8
0
  6
CONTINUOUS
 62
     3
 10
19.8641175861545989
 20
166.9347669123415017
 30
0.0000000000000036
 40
3.5
 50
0.0
 51
180.0
  0
LINE
  5
6907
  8
0
  6
CONTINUOUS
 62
     3
 10
29.3641175861546415
 20
135.934766912341388
 30
0.0000000000000053
 11
29.3641175861546415
 21
166.9347669123415017
 31
0.0000000000000053
  0
ARC
  5
6908
  8
0
  6
CONTINUOUS
 62
     3
 10
32.8641175861546415
 20
166.9347669123415017
 30
0.000000000000006
 40
3.5
 50
0.0
 51
180.0
  0
LINE
  5
6909
  8
0
  6
CONTINUOUS
 62
     3
 10
42.3641175861546202
 20
140.934766912341388
 30
0.0000000000000075
 11
42.3641175861545989
 21
166.9347669123415017
 31
0.0000000000000075
  0
ARC
  5
690A
  8
0
  6
CONTINUOUS
 62
     3
 10
45.8641175861546131
 20
166.9347669123415017
 30
0.0000000000000082
 40
3.5
 50
0.0
 51
180.0
  0
LINE
  5
690B
  8
0
  6
CONTINUOUS
 62
     3
 10
62.3641175861546202
 20
166.9347669123415017
 30
0.0000000000000111
 11
62.3641175861545989
 21
152.934766912341388
 31
0.0000000000000111
  0
ARC
  5
690C
  8
0
  6
CONTINUOUS
 62
     3
 10
58.8641175861545989
 20
152.934766912341388
 30
0.0000000000000107
 40
3.5
 50
180.0
 51
0.0
  0
LINE
  5
690D
  8
0
  6
CONTINUOUS
 62
     3
 10
62.3641175861546202
 20
193.9347669123415017
 30
0.0000000000000111
 11
62.3641175861546273
 21
179.934766912341388
 31
0.0000000000000111
  0
ARC
  5
690E
  8
0
  6
CONTINUOUS
 62
     3
 10
58.8641175861545989
 20
179.934766912341388
 30
0.0000000000000107
 40
3.5
 50
180.0
 51
0.0000000000000509
  0
LINE
  5
690F
  8
0
  6
CONTINUOUS
 62
     3
 10
49.3641175861546273
 20
205.9347669123415017
 30
0.0000000000000089
 11
49.3641175861546202
 21
179.934766912341388
 31
0.0000000000000089
  0
ARC
  5
6910
  8
0
  6
CONTINUOUS
 62
     3
 10
45.8641175861546131
 20
179.934766912341388
 30
0.0000000000000082
 40
3.5
 50
180.0
 51
0.0
  0
LINE
  5
6911
  8
0
  6
CONTINUOUS
 62
     3
 10
36.3641175861546486
 20
210.9347669123415017
 30
0.0000000000000064
 11
36.3641175861546415
 21
179.934766912341388
 31
0.0000000000000064
  0
ARC
  5
6912
  8
0
  6
CONTINUOUS
 62
     3
 10
32.8641175861546415
 20
179.934766912341388
 30
0.000000000000006
 40
3.5
 50
180.0
 51
0.0
  0
LINE
  5
6913
  8
0
  6
CONTINUOUS
 62
     3
 10
23.3641175861546202
 20
210.9347669123415017
 30
0.0000000000000042
 11
23.3641175861545989
 21
179.934766912341388
 31
0.0000000000000042
  0
ARC
  5
6914
  8
0
  6
CONTINUOUS
 62
     3
 10
19.8641175861545989
 20
179.934766912341388
 30
0.0000000000000036
 40
3.5
 50
180.0
 51
0.0000000000000254
  0
LINE
  5
6915
  8
0
  6
CONTINUOUS
 62
     3
 10
10.3641175861546202
 20
205.9347669123415017
 30
0.0000000000000018
 11
10.3641175861546309
 21
179.934766912341388
 31
0.0000000000000018
  0
ARC
  5
6916
  8
0
  6
CONTINUOUS
 62
     3
 10
6.8641175861546229
 20
179.934766912341388
 30
0.0000000000000013
 40
3.5
 50
180.0
 51
0.0
  0
LINE
  5
6917
  8
0
  6
CONTINUOUS
 62
     3
 10
-2.6358824138453691
 20
193.9347669123415017
 30
-0.0000000000000004
 11
-2.635882413845394
 21
179.9347669123415017
 31
-0.0000000000000004
  0
ARC
  5
6918
  8
0
  6
CONTINUOUS
 62
     3
 10
-6.1358824138453762
 20
179.9347669123415017
 30
-0.0000000000000011
 40
3.5
 50
180.0
 51
0.0
  0
LINE
  5
6919
  8
0
  6
CONTINUOUS
 62
     3
 10
-45.6358824138454011
 20
168.434766912341388
 30
-0.0000000000000082
 11
-45.6358824138453585
 21
104.4347669123414022
 31
-0.0000000000000082
  0
ARC
  5
691A
  8
0
  6
CONTINUOUS
 62
     3
 10
-42.6358824138453869
 20
104.4347669123414022
 30
-0.0000000000000075
 40
3.0
 50
180.0
 51
270.0
  0
ARC
  5
691B
  8
0
  6
CONTINUOUS
 62
     3
 10
95.3641175861546344
 20
104.4347669123415017
 30
0.0000000000000171
 40
3.0000000000000142
 50
270.0000000000002274
 51
359.9999999999993747
  0
LINE
  5
691C
  8
0
  6
CONTINUOUS
 62
     3
 10
21.3641175861546095
 20
245.4347669123415017
 30
0.0000000000000038
 11
-42.6358824138454224
 21
245.4347669123415017
 31
-0.0000000000000077
  0
ARC
  5
691D
  8
0
  6
CONTINUOUS
 62
     3
 10
95.3641175861546628
 20
242.434766912341388
 30
0.0000000000000171
 40
3.0
 50
0.0
 51
90.0
  0
ARC
  5
691E
  8
0
  6
CONTINUOUS
 62
     3
 10
-42.6358824138453798
 20
242.4347669123415017
 30
-0.0000000000000075
 40
3.0000000000000142
 50
90.0000000000002558
 51
180.0000000000007958
  0
LINE
  5
691F
  8
0
  6
VERDECKT
 62
     1
 10
95.364117586154677
 20
243.9347669123415017
 30
0.0000000000000171
 11
31.3641175861546202
 21
243.9347669123415017
 31
0.0000000000000056
  0
LINE
  5
6920
  8
0
  6
VERDECKT
 62
     1
 10
21.3641175861546095
 20
243.9347669123415017
 30
0.0000000000000038
 11
-42.6358824138454224
 21
243.9347669123415017
 31
-0.0000000000000077
  0
LINE
  5
6921
  8
0
  6
VERDECKT
 62
     1
 10
31.3641175861546415
 20
102.9347669123414022
 30
0.0000000000000056
 11
95.3641175861546628
 21
102.9347669123415017
 31
0.000000000000017
  0
LINE
  5
6922
  8
0
  6
VERDECKT
 62
     1
 10
96.8641175861546344
 20
178.4347669123415017
 30
0.0000000000000173
 11
96.8641175861546344
 21
242.434766912341388
 31
0.0000000000000173
  0
LINE
  5
6923
  8
0
  6
VERDECKT
 62
     1
 10
-44.1358824138454224
 20
242.434766912341388
 30
-0.000000000000008
 11
-44.1358824138453869
 21
178.434766912341388
 31
-0.000000000000008
  0
LINE
  5
6924
  8
0
  6
VERDECKT
 62
     1
 10
-44.1358824138453869
 20
168.434766912341388
 30
-0.000000000000008
 11
-44.1358824138453514
 21
104.4347669123414022
 31
-0.000000000000008
  0
LINE
  5
6925
  8
0
  6
VERDECKT
 62
     1
 10
96.8641175861546344
 20
104.4347669123415017
 30
0.0000000000000173
 11
96.8641175861546344
 21
168.4347669123415017
 31
0.0000000000000173
  0
LINE
  5
6926
  8
0
  6
VERDECKT
 62
     1
 10
-42.6358824138453869
 20
102.9347669123414022
 30
-0.0000000000000075
 11
21.3641175861546415
 21
102.9347669123414022
 31
0.0000000000000039
  0
LINE
  5
6927
  8
0
  6
VERDECKT
 62
     1
 10
-1.135882413845394
 20
166.9347669123415017
 30
-0.0000000000000002
 11
-1.1358824138453689
 21
152.934766912341388
 31
-0.0000000000000002
  0
ARC
  5
6928
  8
0
  6
VERDECKT
 62
     1
 10
-6.1358824138453762
 20
166.934766912341388
 30
-0.0000000000000011
 40
5.0
 50
360.0
 51
179.9999999999998863
  0
LINE
  5
6929
  8
0
  6
VERDECKT
 62
     1
 10
11.8641175861546202
 20
166.9347669123415017
 30
0.0000000000000022
 11
11.8641175861546202
 21
140.934766912341388
 31
0.0000000000000022
  0
ARC
  5
692A
  8
0
  6
VERDECKT
 62
     1
 10
6.8641175861546229
 20
166.9347669123415017
 30
0.0000000000000013
 40
5.0
 50
0.0
 51
180.0
  0
LINE
  5
692B
  8
0
  6
VERDECKT
 62
     1
 10
24.8641175861545989
 20
166.9347669123415017
 30
0.0000000000000044
 11
24.8641175861546202
 21
135.934766912341388
 31
0.0000000000000044
  0
ARC
  5
692C
  8
0
  6
VERDECKT
 62
     1
 10
19.8641175861545989
 20
166.9347669123415017
 30
0.0000000000000036
 40
5.0
 50
0.0
 51
180.0
  0
LINE
  5
692D
  8
0
  6
VERDECKT
 62
     1
 10
37.8641175861546273
 20
166.9347669123415017
 30
0.0000000000000069
 11
37.8641175861546415
 21
135.934766912341388
 31
0.0000000000000069
  0
ARC
  5
692E
  8
0
  6
VERDECKT
 62
     1
 10
32.8641175861546415
 20
166.9347669123415017
 30
0.000000000000006
 40
5.0
 50
0.0
 51
180.0
  0
LINE
  5
692F
  8
0
  6
VERDECKT
 62
     1
 10
50.8641175861546202
 20
166.9347669123415017
 30
0.0000000000000091
 11
50.8641175861546273
 21
140.934766912341388
 31
0.0000000000000091
  0
ARC
  5
6930
  8
0
  6
VERDECKT
 62
     1
 10
45.8641175861546131
 20
166.9347669123415017
 30
0.0000000000000082
 40
5.0
 50
0.0
 51
180.0
  0
LINE
  5
6931
  8
0
  6
VERDECKT
 62
     1
 10
53.8641175861545989
 20
152.934766912341388
 30
0.0000000000000098
 11
53.8641175861546202
 21
166.9347669123415017
 31
0.0000000000000098
  0
ARC
  5
6932
  8
0
  6
VERDECKT
 62
     1
 10
58.8641175861545989
 20
152.934766912341388
 30
0.0000000000000107
 40
5.0
 50
180.0
 51
0.0
  0
LINE
  5
6933
  8
0
  6
VERDECKT
 62
     1
 10
53.8641175861546202
 20
179.934766912341388
 30
0.0000000000000098
 11
53.8641175861546131
 21
193.9347669123415017
 31
0.0000000000000098
  0
ARC
  5
6934
  8
0
  6
VERDECKT
 62
     1
 10
58.8641175861545989
 20
179.934766912341388
 30
0.0000000000000107
 40
5.0
 50
180.0
 51
0.0
  0
LINE
  5
6935
  8
0
  6
VERDECKT
 62
     1
 10
40.8641175861546131
 20
179.934766912341388
 30
0.0000000000000073
 11
40.8641175861546202
 21
205.9347669123415017
 31
0.0000000000000073
  0
ARC
  5
6936
  8
0
  6
VERDECKT
 62
     1
 10
45.8641175861546131
 20
179.934766912341388
 30
0.0000000000000082
 40
5.0
 50
180.0
 51
0.0
  0
LINE
  5
6937
  8
0
  6
VERDECKT
 62
     1
 10
27.8641175861546415
 20
179.934766912341388
 30
0.0000000000000051
 11
27.8641175861546415
 21
210.9347669123415017
 31
0.0000000000000051
  0
ARC
  5
6938
  8
0
  6
VERDECKT
 62
     1
 10
32.8641175861546415
 20
179.934766912341388
 30
0.000000000000006
 40
5.0
 50
180.0
 51
0.0
  0
LINE
  5
6939
  8
0
  6
VERDECKT
 62
     1
 10
14.8641175861546007
 20
179.934766912341388
 30
0.0000000000000027
 11
14.8641175861546095
 21
210.9347669123415017
 31
0.0000000000000027
  0
ARC
  5
693A
  8
0
  6
VERDECKT
 62
     1
 10
19.8641175861545989
 20
179.934766912341388
 30
0.0000000000000036
 40
5.0
 50
180.0
 51
0.0
  0
LINE
  5
693B
  8
0
  6
VERDECKT
 62
     1
 10
1.864117586154616
 20
179.934766912341388
 30
0.0000000000000004
 11
1.8641175861546271
 21
205.9347669123415017
 31
0.0000000000000004
  0
ARC
  5
693C
  8
0
  6
VERDECKT
 62
     1
 10
6.8641175861546229
 20
179.934766912341388
 30
0.0000000000000013
 40
5.0
 50
180.0
 51
0.0
  0
LINE
  5
693D
  8
0
  6
VERDECKT
 62
     1
 10
-11.1358824138453798
 20
179.9347669123415017
 30
-0.000000000000002
 11
-11.1358824138453691
 21
193.9347669123415017
 31
-0.000000000000002
  0
ARC
  5
693E
  8
0
  6
VERDECKT
 62
     1
 10
-6.1358824138453762
 20
179.9347669123415017
 30
-0.0000000000000011
 40
5.0
 50
180.0
 51
0.0
  0
ARC
  5
693F
  8
0
  6
VERDECKT
 62
     1
 10
-6.1358824138453691
 20
152.934766912341388
 30
-0.0000000000000011
 40
5.0
 50
180.0
 51
0.0
  0
LINE
  5
6940
  8
0
  6
VERDECKT
 62
     1
 10
-11.1358824138453691
 20
152.934766912341388
 30
-0.000000000000002
 11
-11.1358824138453905
 21
166.934766912341388
 31
-0.000000000000002
  0
ARC
  5
6941
  8
0
  6
VERDECKT
 62
     1
 10
6.8641175861546371
 20
140.934766912341388
 30
0.0000000000000013
 40
5.0
 50
180.0
 51
0.0
  0
LINE
  5
6942
  8
0
  6
VERDECKT
 62
     1
 10
1.8641175861546271
 20
140.934766912341388
 30
0.0000000000000004
 11
1.864117586154616
 21
166.934766912341388
 31
0.0000000000000004
  0
ARC
  5
6943
  8
0
  6
VERDECKT
 62
     1
 10
19.8641175861546415
 20
135.934766912341388
 30
0.0000000000000036
 40
4.9999999999999991
 50
180.0
 51
0.0
  0
LINE
  5
6944
  8
0
  6
VERDECKT
 62
     1
 10
14.8641175861546095
 20
135.934766912341388
 30
0.0000000000000027
 11
14.8641175861546007
 21
166.9347669123415017
 31
0.0000000000000027
  0
ARC
  5
6945
  8
0
  6
VERDECKT
 62
     1
 10
32.8641175861546202
 20
135.934766912341388
 30
0.000000000000006
 40
5.0
 50
180.0
 51
0.0
  0
LINE
  5
6946
  8
0
  6
VERDECKT
 62
     1
 10
27.8641175861546415
 20
135.934766912341388
 30
0.0000000000000051
 11
27.8641175861546415
 21
166.9347669123415017
 31
0.0000000000000051
  0
ARC
  5
6947
  8
0
  6
VERDECKT
 62
     1
 10
45.8641175861546131
 20
140.934766912341388
 30
0.0000000000000082
 40
5.0
 50
180.0
 51
0.0
  0
LINE
  5
6948
  8
0
  6
VERDECKT
 62
     1
 10
40.8641175861546202
 20
140.934766912341388
 30
0.0000000000000073
 11
40.8641175861546131
 21
166.9347669123415017
 31
0.0000000000000073
  0
ARC
  5
6949
  8
0
  6
VERDECKT
 62
     1
 10
58.8641175861545989
 20
166.9347669123415017
 30
0.0000000000000107
 40
5.0
 50
0.0
 51
180.0
  0
LINE
  5
694A
  8
0
  6
VERDECKT
 62
     1
 10
63.8641175861546202
 20
166.9347669123415017
 30
0.0000000000000115
 11
63.8641175861545989
 21
152.934766912341388
 31
0.0000000000000115
  0
ARC
  5
694B
  8
0
  6
VERDECKT
 62
     1
 10
58.8641175861545989
 20
193.9347669123415017
 30
0.0000000000000107
 40
5.0
 50
0.0
 51
180.0
  0
LINE
  5
694C
  8
0
  6
VERDECKT
 62
     1
 10
63.8641175861546202
 20
193.9347669123415017
 30
0.0000000000000115
 11
63.8641175861546202
 21
179.934766912341388
 31
0.0000000000000115
  0
ARC
  5
694D
  8
0
  6
VERDECKT
 62
     1
 10
45.8641175861546131
 20
205.9347669123415017
 30
0.0000000000000082
 40
4.9999999999999938
 50
0.0
 51
180.0
  0
LINE
  5
694E
  8
0
  6
VERDECKT
 62
     1
 10
50.8641175861546273
 20
205.9347669123415017
 30
0.0000000000000091
 11
50.8641175861546202
 21
179.934766912341388
 31
0.0000000000000091
  0
ARC
  5
694F
  8
0
  6
VERDECKT
 62
     1
 10
32.8641175861546202
 20
210.9347669123415017
 30
0.000000000000006
 40
5.0000000000000009
 50
0.0
 51
180.0
  0
LINE
  5
6950
  8
0
  6
VERDECKT
 62
     1
 10
37.8641175861546486
 20
210.9347669123415017
 30
0.0000000000000069
 11
37.8641175861546415
 21
179.934766912341388
 31
0.0000000000000069
  0
ARC
  5
6951
  8
0
  6
VERDECKT
 62
     1
 10
19.8641175861546415
 20
210.9347669123415017
 30
0.0000000000000036
 40
5.0000000000000018
 50
0.0
 51
180.0
  0
LINE
  5
6952
  8
0
  6
VERDECKT
 62
     1
 10
24.8641175861546202
 20
210.9347669123415017
 30
0.0000000000000044
 11
24.8641175861545989
 21
179.934766912341388
 31
0.0000000000000044
  0
ARC
  5
6953
  8
0
  6
VERDECKT
 62
     1
 10
6.8641175861546371
 20
205.9347669123415017
 30
0.0000000000000013
 40
5.0
 50
0.0
 51
180.0
  0
LINE
  5
6954
  8
0
  6
VERDECKT
 62
     1
 10
11.8641175861546202
 20
205.9347669123415017
 30
0.0000000000000022
 11
11.8641175861546309
 21
179.934766912341388
 31
0.0000000000000022
  0
ARC
  5
6955
  8
0
  6
VERDECKT
 62
     1
 10
-6.1358824138453691
 20
193.9347669123415017
 30
-0.0000000000000011
 40
5.0
 50
0.0
 51
180.0
  0
LINE
  5
6956
  8
0
  6
VERDECKT
 62
     1
 10
-1.1358824138453689
 20
193.9347669123415017
 30
-0.0000000000000002
 11
-1.135882413845394
 21
179.9347669123415017
 31
-0.0000000000000002
  0
ARC
  5
6957
  8
0
  6
VERDECKT
 62
     1
 10
-42.6358824138453869
 20
104.4347669123414022
 30
-0.0000000000000075
 40
1.5
 50
180.0
 51
270.0
  0
ARC
  5
6958
  8
0
  6
VERDECKT
 62
     1
 10
95.3641175861546628
 20
104.4347669123415017
 30
0.0000000000000171
 40
1.5
 50
270.0
 51
359.9999999999994884
  0
ARC
  5
6959
  8
0
  6
VERDECKT
 62
     1
 10
95.3641175861546344
 20
242.434766912341388
 30
0.0000000000000171
 40
1.500000000000028
 50
0.0
 51
89.9999999999983373
  0
ARC
  5
695A
  8
0
  6
VERDECKT
 62
     1
 10
-42.6358824138453585
 20
242.434766912341388
 30
-0.0000000000000075
 40
1.500000000000028
 50
90.0000000000010374
 51
180.0000000000005116
  0
ENDBLK
  5
695C
  8
0
  0
BLOCK
  8
0
  2
A$CE91EA7D9
 70
     0
 10
0.0
 20
0.0
 30
0.0
  3
A$CE91EA7D9
  1

  0
LINE
  5
6960
  8
0
  6
CONTINUOUS
 62
     3
 10
31.3641175861546415
 20
0.000000000000008
 30
0.0
 11
21.3641175861546415
 21
0.000000000000008
 31
0.0
210
0.0
220
1.0
230
-0.0000000000000002
  0
LINE
  5
6961
  8
0
  6
CONTINUOUS
 62
     3
 10
31.3641175861546415
 20
1.5000000000000071
 30
-0.0000000000000003
 11
21.3641175861546415
 21
1.5000000000000071
 31
-0.0000000000000003
210
0.0
220
1.0
230
-0.0000000000000002
  0
LINE
  5
6962
  8
0
  6
CONTINUOUS
 62
     3
 10
31.3641175861546415
 20
-1.4999999999999869
 30
0.0000000000000003
 11
31.3641175861546415
 21
1.500000000000008
 31
-0.0000000000000003
210
0.0
220
1.0
230
-0.0000000000000002
  0
LINE
  5
6963
  8
0
  6
CONTINUOUS
 62
     3
 10
95.364117586154677
 20
1.5000000000000071
 30
-0.0000000000000003
 11
31.3641175861546486
 21
1.5000000000000071
 31
-0.0000000000000003
210
0.0
220
1.0
230
-0.0000000000000002
  0
LINE
  5
6964
  8
0
  6
CONTINUOUS
 62
     3
 10
21.3641175861546095
 20
1.500000000000006
 30
-0.0000000000000003
 11
21.3641175861546593
 21
-1.499999999999992
 31
0.0000000000000003
210
0.0
220
1.0
230
-0.0000000000000002
  0
LINE
  5
6965
  8
0
  6
CONTINUOUS
 62
     3
 10
21.3641175861546415
 20
1.5000000000000071
 30
-0.0000000000000003
 11
-42.6358824138453585
 21
1.5000000000000071
 31
-0.0000000000000003
210
0.0
220
1.0
230
-0.0000000000000002
  0
ARC
  5
6966
  8
0
  6
CONTINUOUS
 62
     3
 10
-95.3641175861546628
 20
-1.4999999999999869
 30
0.0
 40
2.9999999999999951
210
0.0
220
-0.0000000000000002
230
-1.0
 50
89.99999999999973
 51
180.0
  0
LINE
  5
6967
  8
0
  6
CONTINUOUS
 62
     3
 10
98.3641175861546344
 20
-6.4999999999999929
 30
0.0000000000000014
 11
98.3641175861546344
 21
-1.499999999999992
 31
0.0000000000000003
210
0.0
220
1.0
230
-0.0000000000000002
  0
LINE
  5
6968
  8
0
  6
CONTINUOUS
 62
     3
 10
98.3641175861546486
 20
-6.4999999999999929
 30
0.0000000000000014
 11
95.3641175861546628
 21
-6.4999999999999929
 31
0.0000000000000014
210
0.0
220
1.0
230
-0.0000000000000002
  0
LINE
  5
6969
  8
0
  6
CONTINUOUS
 62
     3
 10
31.3641175861546309
 20
-6.4999999999999929
 30
0.0000000000000014
 11
95.3641175861546628
 21
-6.4999999999999929
 31
0.0000000000000014
210
0.0
220
1.0
230
-0.0000000000000002
  0
LINE
  5
696A
  8
0
  6
CONTINUOUS
 62
     3
 10
-42.6358824138453869
 20
-6.4999999999999929
 30
0.0000000000000014
 11
21.3641175861546415
 21
-6.4999999999999929
 31
0.0000000000000014
210
0.0
220
1.0
230
-0.0000000000000002
  0
LINE
  5
696B
  8
0
  6
CONTINUOUS
 62
     3
 10
-42.6358824138453869
 20
-6.4999999999999929
 30
0.0000000000000014
 11
-45.6358824138453869
 21
-6.4999999999999929
 31
0.0000000000000014
210
0.0
220
1.0
230
-0.0000000000000002
  0
LINE
  5
696C
  8
0
  6
CONTINUOUS
 62
     3
 10
21.3641175861546415
 20
-6.4999999999999938
 30
0.0000000000000014
 11
21.3641175861546415
 21
-1.499999999999992
 31
0.0000000000000003
210
0.0
220
1.0
230
-0.0000000000000002
  0
LINE
  5
696D
  8
0
  6
CONTINUOUS
 62
     3
 10
31.3641175861546415
 20
-1.499999999999992
 30
0.0000000000000003
 11
31.3641175861546415
 21
-6.4999999999999929
 31
0.0000000000000014
210
0.0
220
1.0
230
-0.0000000000000002
  0
LINE
  5
696E
  8
0
  6
CONTINUOUS
 62
     3
 10
31.3641175861546309
 20
-2.4999999999999929
 30
0.0000000000000006
 11
27.8641175861546202
 21
-2.4999999999999938
 31
0.0000000000000006
210
0.0
220
1.0
230
-0.0000000000000002
  0
LINE
  5
696F
  8
0
  6
CONTINUOUS
 62
     3
 10
24.8641175861546309
 20
-2.4999999999999938
 30
0.0000000000000006
 11
21.3641175861546415
 21
-2.4999999999999929
 31
0.0000000000000006
210
0.0
220
1.0
230
-0.0000000000000002
  0
LINE
  5
6970
  8
0
  6
CONTINUOUS
 62
     3
 10
24.8641175861546202
 20
-2.4999999999999938
 30
0.0000000000000006
 11
24.8641175861546202
 21
-1.4999999999999929
 31
0.0000000000000003
210
0.0
220
1.0
230
-0.0000000000000002
  0
ARC
  5
6971
  8
0
  6
CONTINUOUS
 62
     3
 10
26.3641175861546415
 20
-1.499999999999994
 30
0.0000000000000003
 40
1.5
 50
90.0000000000007816
 51
180.0
  0
ARC
  5
6972
  8
0
  6
CONTINUOUS
 62
     3
 10
26.3641175861546202
 20
-1.4999999999999929
 30
0.0000000000000003
 40
1.5000000000000211
 50
0.0
 51
89.9999999999999858
  0
LINE
  5
6973
  8
0
  6
CONTINUOUS
 62
     3
 10
27.8641175861546415
 20
-2.4999999999999938
 30
0.0000000000000006
 11
27.8641175861546415
 21
-1.4999999999999929
 31
0.0000000000000003
210
0.0
220
1.0
230
-0.0000000000000002
  0
ARC
  5
6974
  8
0
  6
CONTINUOUS
 62
     3
 10
42.6358824138453585
 20
-1.499999999999986
 30
0.0
 40
3.0
210
0.0
220
-0.0000000000000002
230
-1.0
 50
359.9999999999998863
 51
90.0
  0
LINE
  5
6975
  8
0
  6
CONTINUOUS
 62
     3
 10
-45.6358824138453585
 20
-6.4999999999999929
 30
0.0000000000000014
 11
-45.6358824138453585
 21
-1.499999999999992
 31
0.0000000000000003
210
0.0
220
1.0
230
-0.0000000000000002
  0
LINE
  5
6976
  8
0
  6
VERDECKT
 62
     1
 10
95.364117586154677
 20
0.000000000000008
 30
0.0
 11
31.3641175861546486
 21
0.000000000000008
 31
0.0
210
0.0
220
1.0
230
-0.0000000000000002
  0
LINE
  5
6977
  8
0
  6
VERDECKT
 62
     1
 10
95.3641175861546344
 20
1.5000000000000031
 30
-0.0000000000000003
 11
95.3641175861546344
 21
0.0000000000000036
 31
0.0
210
0.0
220
1.0
230
-0.0000000000000002
  0
LINE
  5
6978
  8
0
  6
VERDECKT
 62
     1
 10
-42.6358824138453869
 20
1.5000000000000031
 30
-0.0000000000000003
 11
-42.6358824138453869
 21
0.0000000000000036
 31
0.0
210
0.0
220
1.0
230
-0.0000000000000002
  0
ARC
  5
6979
  8
0
  6
VERDECKT
 62
     1
 10
42.6358824138453798
 20
-1.500000000000002
 30
0.0
 40
1.5
210
0.0
220
-0.0000000000000002
230
-1.0
 50
0.0000000000003817
 51
90.0000000000000284
  0
ARC
  5
697A
  8
0
  6
VERDECKT
 62
     1
 10
-95.3641175861546628
 20
-1.4999999999999929
 30
0.0
 40
1.5
210
0.0
220
-0.0000000000000002
230
-1.0
 50
90.0000000000010942
 51
180.0
  0
LINE
  5
697B
  8
0
  6
VERDECKT
 62
     1
 10
96.8641175861546344
 20
-6.4999999999999929
 30
0.0000000000000014
 11
96.8641175861546344
 21
-1.499999999999992
 31
0.0000000000000003
210
0.0
220
1.0
230
-0.0000000000000002
  0
LINE
  5
697C
  8
0
  6
VERDECKT
 62
     1
 10
21.3641175861546415
 20
0.000000000000008
 30
0.0
 11
-42.6358824138453585
 21
0.000000000000008
 31
0.0
210
0.0
220
1.0
230
-0.0000000000000002
  0
LINE
  5
697D
  8
0
  6
VERDECKT
 62
     1
 10
63.8641175861545989
 20
-2.499999999999996
 30
0.0000000000000006
 11
53.8641175861545989
 21
-2.499999999999996
 31
0.0000000000000006
210
0.0
220
1.0
230
-0.0000000000000002
  0
LINE
  5
697E
  8
0
  6
VERDECKT
 62
     1
 10
50.8641175861546131
 20
-2.4999999999999951
 30
0.0000000000000006
 11
40.8641175861546131
 21
-2.4999999999999951
 31
0.0000000000000006
210
0.0
220
1.0
230
-0.0000000000000002
  0
LINE
  5
697F
  8
0
  6
VERDECKT
 62
     1
 10
37.8641175861546131
 20
-2.4999999999999938
 30
0.0000000000000006
 11
31.3641175861546309
 21
-2.4999999999999929
 31
0.0000000000000006
210
0.0
220
1.0
230
-0.0000000000000002
  0
LINE
  5
6980
  8
0
  6
VERDECKT
 62
     1
 10
21.3641175861546415
 20
-2.4999999999999929
 30
0.0000000000000006
 11
14.8641175861546309
 21
-2.4999999999999938
 31
0.0000000000000006
210
0.0
220
1.0
230
-0.0000000000000002
  0
LINE
  5
6981
  8
0
  6
VERDECKT
 62
     1
 10
11.8641175861546397
 20
-2.4999999999999951
 30
0.0000000000000006
 11
1.8641175861546371
 21
-2.4999999999999951
 31
0.0000000000000006
210
0.0
220
1.0
230
-0.0000000000000002
  0
LINE
  5
6982
  8
0
  6
VERDECKT
 62
     1
 10
-1.1358824138453689
 20
-2.499999999999996
 30
0.0000000000000006
 11
-11.1358824138453691
 21
-2.499999999999996
 31
0.0000000000000006
210
0.0
220
1.0
230
-0.0000000000000002
  0
LINE
  5
6983
  8
0
  6
VERDECKT
 62
     1
 10
-1.1358824138453689
 20
-2.499999999999996
 30
0.0000000000000006
 11
-1.1358824138453689
 21
-1.4999999999999949
 31
0.0000000000000003
210
0.0
220
1.0
230
-0.0000000000000002
  0
LINE
  5
6984
  8
0
  6
VERDECKT
 62
     1
 10
11.8641175861546202
 20
-2.4999999999999951
 30
0.0000000000000006
 11
11.8641175861546202
 21
-1.499999999999994
 31
0.0000000000000003
210
0.0
220
1.0
230
-0.0000000000000002
  0
LINE
  5
6985
  8
0
  6
VERDECKT
 62
     1
 10
37.8641175861546415
 20
-2.4999999999999938
 30
0.0000000000000006
 11
37.8641175861546415
 21
-1.4999999999999929
 31
0.0000000000000003
210
0.0
220
1.0
230
-0.0000000000000002
  0
LINE
  5
6986
  8
0
  6
VERDECKT
 62
     1
 10
50.8641175861546202
 20
-2.4999999999999951
 30
0.0000000000000006
 11
50.8641175861546202
 21
-1.499999999999994
 31
0.0000000000000003
210
0.0
220
1.0
230
-0.0000000000000002
  0
LINE
  5
6987
  8
0
  6
VERDECKT
 62
     1
 10
53.8641175861546131
 20
-2.499999999999996
 30
0.0000000000000006
 11
53.8641175861546131
 21
-1.4999999999999949
 31
0.0000000000000003
210
0.0
220
1.0
230
-0.0000000000000002
  0
LINE
  5
6988
  8
0
  6
VERDECKT
 62
     1
 10
63.8641175861545989
 20
-2.499999999999996
 30
0.0000000000000006
 11
63.8641175861545989
 21
-1.4999999999999949
 31
0.0000000000000003
210
0.0
220
1.0
230
-0.0000000000000002
  0
LINE
  5
6989
  8
0
  6
VERDECKT
 62
     1
 10
-2.6358824138453691
 20
-2.499999999999996
 30
0.0000000000000006
 11
-2.6358824138453691
 21
-1.4999999999999949
 31
0.0000000000000003
210
0.0
220
1.0
230
-0.0000000000000002
  0
LINE
  5
698A
  8
0
  6
VERDECKT
 62
     1
 10
-9.6358824138453691
 20
-2.499999999999996
 30
0.0000000000000006
 11
-9.6358824138453691
 21
-1.4999999999999949
 31
0.0000000000000003
210
0.0
220
1.0
230
-0.0000000000000002
  0
LINE
  5
698B
  8
0
  6
VERDECKT
 62
     1
 10
10.3641175861546202
 20
-2.4999999999999951
 30
0.0000000000000006
 11
10.3641175861546202
 21
-1.499999999999994
 31
0.0000000000000003
210
0.0
220
1.0
230
-0.0000000000000002
  0
LINE
  5
698C
  8
0
  6
VERDECKT
 62
     1
 10
3.3641175861546229
 20
-2.4999999999999951
 30
0.0000000000000006
 11
3.3641175861546229
 21
-1.499999999999994
 31
0.0000000000000003
210
0.0
220
1.0
230
-0.0000000000000002
  0
LINE
  5
698D
  8
0
  6
VERDECKT
 62
     1
 10
23.3641175861546202
 20
-2.4999999999999938
 30
0.0000000000000006
 11
23.3641175861546202
 21
-1.4999999999999929
 31
0.0000000000000003
210
0.0
220
1.0
230
-0.0000000000000002
  0
LINE
  5
698E
  8
0
  6
VERDECKT
 62
     1
 10
16.3641175861545989
 20
-2.4999999999999938
 30
0.0000000000000006
 11
16.3641175861545989
 21
-1.4999999999999929
 31
0.0000000000000003
210
0.0
220
1.0
230
-0.0000000000000002
  0
LINE
  5
698F
  8
0
  6
VERDECKT
 62
     1
 10
36.3641175861546415
 20
-2.4999999999999938
 30
0.0000000000000006
 11
36.3641175861546415
 21
-1.4999999999999929
 31
0.0000000000000003
210
0.0
220
1.0
230
-0.0000000000000002
  0
LINE
  5
6990
  8
0
  6
VERDECKT
 62
     1
 10
29.3641175861546415
 20
-2.4999999999999938
 30
0.0000000000000006
 11
29.3641175861546415
 21
-1.4999999999999929
 31
0.0000000000000003
210
0.0
220
1.0
230
-0.0000000000000002
  0
LINE
  5
6991
  8
0
  6
VERDECKT
 62
     1
 10
49.3641175861546273
 20
-2.4999999999999951
 30
0.0000000000000006
 11
49.3641175861546273
 21
-1.499999999999994
 31
0.0000000000000003
210
0.0
220
1.0
230
-0.0000000000000002
  0
LINE
  5
6992
  8
0
  6
VERDECKT
 62
     1
 10
42.3641175861546202
 20
-2.4999999999999951
 30
0.0000000000000006
 11
42.3641175861546202
 21
-1.499999999999994
 31
0.0000000000000003
210
0.0
220
1.0
230
-0.0000000000000002
  0
LINE
  5
6993
  8
0
  6
VERDECKT
 62
     1
 10
55.3641175861546131
 20
-2.499999999999996
 30
0.0000000000000006
 11
55.3641175861546131
 21
-1.4999999999999949
 31
0.0000000000000003
210
0.0
220
1.0
230
-0.0000000000000002
  0
ARC
  5
6994
  8
0
  6
VERDECKT
 62
     1
 10
0.3641175861546309
 20
-1.4999999999999969
 30
0.0000000000000003
 40
1.5000000000000011
 50
90.0000000000006679
 51
179.9999999999998863
  0
ARC
  5
6995
  8
0
  6
VERDECKT
 62
     1
 10
-12.6358824138453603
 20
-1.499999999999994
 30
0.0000000000000003
 40
1.499999999999992
 50
360.0
 51
90.0000000000002842
  0
LINE
  5
6996
  8
0
  6
VERDECKT
 62
     1
 10
-11.1358824138453691
 20
-2.499999999999996
 30
0.0000000000000006
 11
-11.1358824138453691
 21
-1.4999999999999949
 31
0.0000000000000003
210
0.0
220
1.0
230
-0.0000000000000002
  0
ARC
  5
6997
  8
0
  6
VERDECKT
 62
     1
 10
13.3641175861546397
 20
-1.499999999999994
 30
0.0000000000000003
 40
1.5
 50
90.0000000000012648
 51
180.0
  0
ARC
  5
6998
  8
0
  6
VERDECKT
 62
     1
 10
0.3641175861546415
 20
-1.4999999999999929
 30
0.0000000000000003
 40
1.499999999999982
 50
360.0
 51
90.0000000000001705
  0
LINE
  5
6999
  8
0
  6
VERDECKT
 62
     1
 10
1.8641175861546231
 20
-2.4999999999999951
 30
0.0000000000000006
 11
1.8641175861546231
 21
-1.499999999999994
 31
0.0000000000000003
210
0.0
220
1.0
230
-0.0000000000000002
  0
ARC
  5
699A
  8
0
  6
VERDECKT
 62
     1
 10
13.3641175861546397
 20
-1.499999999999992
 30
0.0000000000000003
 40
1.4999999999999709
 50
360.0
 51
90.0000000000000711
  0
LINE
  5
699B
  8
0
  6
VERDECKT
 62
     1
 10
14.8641175861546095
 20
-2.4999999999999938
 30
0.0000000000000006
 11
14.8641175861546095
 21
-1.4999999999999929
 31
0.0000000000000003
210
0.0
220
1.0
230
-0.0000000000000002
  0
ARC
  5
699C
  8
0
  6
VERDECKT
 62
     1
 10
39.3641175861546202
 20
-1.499999999999994
 30
0.0000000000000003
 40
1.5
 50
90.0
 51
180.0
  0
ARC
  5
699D
  8
0
  6
VERDECKT
 62
     1
 10
52.3641175861545989
 20
-1.4999999999999929
 30
0.0000000000000003
 40
1.499999999999998
 50
90.0
 51
180.0
  0
ARC
  5
699E
  8
0
  6
VERDECKT
 62
     1
 10
39.3641175861546131
 20
-1.499999999999994
 30
0.0000000000000003
 40
1.500000000000012
 50
0.0
 51
90.0000000000000711
  0
LINE
  5
699F
  8
0
  6
VERDECKT
 62
     1
 10
40.8641175861546202
 20
-2.4999999999999951
 30
0.0000000000000006
 11
40.8641175861546202
 21
-1.499999999999994
 31
0.0000000000000003
210
0.0
220
1.0
230
-0.0000000000000002
  0
ARC
  5
69A0
  8
0
  6
VERDECKT
 62
     1
 10
-65.364117586154606
 20
-1.499999999999994
 30
0.0
 40
1.5
210
0.0
220
-0.0000000000000002
230
-1.0
 50
360.0
 51
90.0000000000000284
  0
ARC
  5
69A1
  8
0
  6
VERDECKT
 62
     1
 10
52.3641175861546131
 20
-1.4999999999999929
 30
0.0000000000000003
 40
1.499999999999996
 50
0.0
 51
90.0000000000000711
  0
LINE
  5
69A2
  8
0
  6
VERDECKT
 62
     1
 10
-44.1358824138453727
 20
-6.4999999999999929
 30
0.0000000000000014
 11
-44.1358824138453727
 21
-1.499999999999992
 31
0.0000000000000003
210
0.0
220
1.0
230
-0.0000000000000002
  0
ARC
  5
69A3
  8
0
  6
VERDECKT
 62
     1
 10
0.3641175861546309
 20
-1.4999999999999929
 30
0.0000000000000003
 40
2.9999999999999978
 50
90.0000000000003268
 51
180.0
  0
ARC
  5
69A4
  8
0
  6
VERDECKT
 62
     1
 10
-12.6358824138453691
 20
-1.5000000000000031
 30
0.0000000000000003
 40
3.0000000000000071
 50
0.0000000000001399
 51
89.9999999999998721
  0
ARC
  5
69A5
  8
0
  6
VERDECKT
 62
     1
 10
13.3641175861546397
 20
-1.4999999999999929
 30
0.0000000000000003
 40
2.9999999999999991
 50
90.0000000000006253
 51
180.0
  0
ARC
  5
69A6
  8
0
  6
VERDECKT
 62
     1
 10
0.364117586154638
 20
-1.4999999999999969
 30
0.0000000000000003
 40
2.9999999999999849
 50
0.0000000000000509
 51
90.0
  0
ARC
  5
69A7
  8
0
  6
VERDECKT
 62
     1
 10
26.3641175861546415
 20
-1.4999999999999929
 30
0.0000000000000003
 40
3.0
 50
90.0000000000003553
 51
180.0
  0
ARC
  5
69A8
  8
0
  6
VERDECKT
 62
     1
 10
13.3641175861546397
 20
-1.499999999999992
 30
0.0000000000000003
 40
2.9999999999999711
 50
0.0
 51
90.0000000000000711
  0
ARC
  5
69A9
  8
0
  6
VERDECKT
 62
     1
 10
39.3641175861546202
 20
-1.499999999999994
 30
0.0000000000000003
 40
3.0
 50
90.0
 51
180.0
  0
ARC
  5
69AA
  8
0
  6
VERDECKT
 62
     1
 10
26.3641175861546202
 20
-1.4999999999999929
 30
0.0000000000000003
 40
3.0000000000000191
 50
0.0
 51
90.0
  0
ARC
  5
69AB
  8
0
  6
VERDECKT
 62
     1
 10
52.3641175861545989
 20
-1.4999999999999949
 30
0.0000000000000003
 40
3.0
 50
90.0
 51
180.0
  0
ARC
  5
69AC
  8
0
  6
VERDECKT
 62
     1
 10
39.3641175861546131
 20
-1.4999999999999909
 30
0.0000000000000003
 40
3.0000000000000102
 50
360.0
 51
90.0000000000000568
  0
ARC
  5
69AD
  8
0
  6
VERDECKT
 62
     1
 10
-65.364117586154606
 20
-1.5000000000000031
 30
0.0
 40
3.0
210
0.0
220
-0.0000000000000002
230
-1.0
 50
0.0000000000001399
 51
90.0000000000000284
  0
ARC
  5
69AE
  8
0
  6
VERDECKT
 62
     1
 10
52.3641175861546131
 20
-1.499999999999992
 30
0.0000000000000003
 40
2.999999999999996
 50
360.0
 51
90.0000000000000284
  0
LINE
  5
69AF
  8
0
  6
VERDECKT
 62
     1
 10
62.3641175861546202
 20
-2.499999999999996
 30
0.0000000000000006
 11
62.3641175861546202
 21
-1.4999999999999949
 31
0.0000000000000003
210
0.0
220
1.0
230
-0.0000000000000002
  0
ENDBLK
  5
69B1
  8
0
  0
ENDSEC
  0
SECTION
  2
ENTITIES
  0
TEXT
  5
2998
  8
VOLL
 10
78.076754716981128
 20
31.025947764705851
 30
0.0
 40
1.8
  1

  7
GREEKS
  0
INSERT
  5
2999
  8
ADSK_ASSOC_ENTITY_BACKUPS
  2
*S0
 10
0.0
 20
0.0
 30
0.0
  0
INSERT
  5
695D
  8
MITTEL
  2
A$CA2E45A8B
 10
-3.879819704391763
 20
174.1828253587603967
 30
0.0
  0
INSERT
  5
69B2
  8
MITTEL
  2
A$CE91EA7D9
 10
-3.8798197043917741
 20
455.5660498792452131
 30
0.0000000000000071
  0
VIEWPORT
  5
928
 67
     1
  8
0
 10
183.1876015240771949
 20
145.875074783745589
 30
0.0
 40
807.7225395665916494
 41
466.0353608476585805
 68
     1
 69
     1
1001
ACAD
1000
MVIEW
1002
{
1070
    16
1010
0.0
1020
0.0
1030
0.0
1010
0.0
1020
0.0
1030
1.0
1040
0.0
1040
466.0353608476585805
1040
183.1876015240771949
1040
145.875074783745589
1040
50.0
1040
0.0
1040
0.0
1070
     0
1070
  1500
1070
     1
1070
     1
1070
     0
1070
     0
1070
     0
1070
     0
1040
0.0
1040
0.0
1040
0.0
1040
10.0
1040
10.0
1040
10.0
1040
10.0
1070
     0
1002
{
1002
}
1002
}
  0
ENDSEC
  0
EOF
