  0
SECTION
  2
HEADER
  9
$ACADVER
  1
AC1009
  9
$INSBASE
 10
0.0
 20
0.0
 30
0.0
  9
$EXTMIN
 10
-46.3537501895509294
 20
100.4455017067980975
 30
-6.5000000000000027
  9
$EXTMAX
 10
253.4691934942493106
 20
298.6497513639183126
 30
48.3559758907281321
  9
$LIMMIN
 10
0.0
 20
0.0
  9
$LIMMAX
 10
210.0
 20
297.0
  9
$ORTHOMODE
 70
     1
  9
$REGENMODE
 70
     1
  9
$FILLMODE
 70
     1
  9
$QTEXTMODE
 70
     0
  9
$MIRRTEXT
 70
     1
  9
$DRAGMODE
 70
     2
  9
$LTSCALE
 40
10.0
  9
$OSMODE
 70
    39
  9
$ATTMODE
 70
     1
  9
$TEXTSIZE
 40
3.5
  9
$TRACEWID
 40
0.5
  9
$TEXTSTYLE
  7
STANDARD
  9
$CLAYER
  8
BLECH
  9
$CELTYPE
  6
BYLAYER
  9
$CECOLOR
 62
   256
  9
$DIMSCALE
 40
1.0
  9
$DIMASZ
 40
3.5
  9
$DIMEXO
 40
1.0
  9
$DIMDLI
 40
7.0
  9
$DIMRND
 40
0.0
  9
$DIMDLE
 40
0.0
  9
$DIMEXE
 40
1.0
  9
$DIMTP
 40
0.2
  9
$DIMTM
 40
0.5
  9
$DIMTXT
 40
3.5
  9
$DIMCEN
 40
1.5
  9
$DIMTSZ
 40
0.0
  9
$DIMTOL
 70
     0
  9
$DIMLIM
 70
     0
  9
$DIMTIH
 70
     0
  9
$DIMTOH
 70
     0
  9
$DIMSE1
 70
     0
  9
$DIMSE2
 70
     0
  9
$DIMTAD
 70
     1
  9
$DIMZIN
 70
     8
  9
$DIMBLK
  1

  9
$DIMASO
 70
     1
  9
$DIMSHO
 70
     0
  9
$DIMPOST
  1

  9
$DIMAPOST
  1

  9
$DIMALT
 70
     0
  9
$DIMALTD
 70
     2
  9
$DIMALTF
 40
25.3999999999999986
  9
$DIMLFAC
 40
2.0
  9
$DIMTOFL
 70
     1
  9
$DIMTVP
 40
0.0
  9
$DIMTIX
 70
     0
  9
$DIMSOXD
 70
     0
  9
$DIMSAH
 70
     0
  9
$DIMBLK1
  1

  9
$DIMBLK2
  1

  9
$DIMSTYLE
  2
STANDARD
  9
$DIMCLRD
 70
     0
  9
$DIMCLRE
 70
     0
  9
$DIMCLRT
 70
     1
  9
$DIMTFAC
 40
0.5
  9
$DIMGAP
 40
1.5
  9
$LUNITS
 70
     2
  9
$LUPREC
 70
     2
  9
$SKETCHINC
 40
1.0
  9
$FILLETRAD
 40
15.0
  9
$AUNITS
 70
     0
  9
$AUPREC
 70
     0
  9
$MENU
  1
ACAD
  9
$ELEVATION
 40
0.0
  9
$PELEVATION
 40
0.0
  9
$THICKNESS
 40
0.0
  9
$LIMCHECK
 70
     0
  9
$BLIPMODE
 70
     0
  9
$CHAMFERA
 40
0.0
  9
$CHAMFERB
 40
0.0
  9
$SKPOLY
 70
     0
  9
$TDCREATE
 40
2455397.8646990740671754
  9
$TDUPDATE
 40
2460115.523726852145046
  9
$TDINDWG
 40
0.3068327778
  9
$TDUSRTIMER
 40
0.3068327778
  9
$USRTIMER
 70
     1
  9
$ANGBASE
 50
0.0
  9
$ANGDIR
 70
     0
  9
$PDMODE
 70
     0
  9
$PDSIZE
 40
0.0
  9
$PLINEWID
 40
0.0
  9
$COORDS
 70
     1
  9
$SPLFRAME
 70
     0
  9
$SPLINETYPE
 70
     6
  9
$SPLINESEGS
 70
     8
  9
$ATTDIA
 70
     1
  9
$ATTREQ
 70
     1
  9
$HANDLING
 70
     1
  9
$HANDSEED
  5
6202
  9
$SURFTAB1
 70
     6
  9
$SURFTAB2
 70
     6
  9
$SURFTYPE
 70
     6
  9
$SURFU
 70
     6
  9
$SURFV
 70
     6
  9
$UCSNAME
  2

  9
$UCSORG
 10
0.0
 20
0.0
 30
0.0
  9
$UCSXDIR
 10
1.0
 20
0.0
 30
0.0
  9
$UCSYDIR
 10
0.0
 20
1.0
 30
0.0
  9
$PUCSNAME
  2

  9
$PUCSORG
 10
0.0
 20
0.0
 30
0.0
  9
$PUCSXDIR
 10
1.0
 20
0.0
 30
0.0
  9
$PUCSYDIR
 10
0.0
 20
1.0
 30
0.0
  9
$USERI1
 70
     0
  9
$USERI2
 70
     0
  9
$USERI3
 70
     0
  9
$USERI4
 70
     0
  9
$USERI5
 70
     0
  9
$USERR1
 40
0.0
  9
$USERR2
 40
0.0
  9
$USERR3
 40
0.0
  9
$USERR4
 40
0.0
  9
$USERR5
 40
0.0
  9
$WORLDVIEW
 70
     1
  9
$SHADEDGE
 70
     3
  9
$SHADEDIF
 70
    70
  9
$TILEMODE
 70
     1
  9
$MAXACTVP
 70
    16
  9
$PLIMCHECK
 70
     0
  9
$PEXTMIN
 10
1.8751784229342541
 20
2.0309589986441088
 30
-0.0000000349181948
  9
$PEXTMAX
 10
211.9008139709000886
 20
299.0672149879102903
 30
0.0000000814935746
  9
$PLIMMIN
 10
1.887995218998582
 20
2.049085610220942
  9
$PLIMMAX
 10
211.8879952189986113
 20
299.0490856102209136
  9
$UNITMODE
 70
     0
  9
$VISRETAIN
 70
     0
  9
$PLINEGEN
 70
     0
  9
$PSLTSCALE
 70
     0
  0
ENDSEC
  0
SECTION
  2
TABLES
  0
TABLE
  2
VPORT
 70
     1
  0
VPORT
  2
*ACTIVE
 70
     0
 10
0.0
 20
0.0
 11
1.0
 21
1.0
 12
0.0
 22
0.0
 13
0.0
 23
0.0
 14
1.0
 24
1.0
 15
10.0
 25
10.0
 16
-0.0000000000004547
 26
0.0
 36
854.9196884054985048
 17
286.9138651807887754
 27
193.6706991814185983
 37
20.9279879453641513
 40
358.8909825793988944
 41
1.7331786542923431
 42
50.0
 43
0.0
 44
0.0
 50
0.0
 51
0.0
 71
     0
 72
  1500
 73
     1
 74
     0
 75
     0
 76
     0
 77
     0
 78
     0
  0
ENDTAB
  0
TABLE
  2
LTYPE
 70
     6
  0
LTYPE
  2
CONTINUOUS
 70
     0
  3
Solid line
 72
    65
 73
     0
 40
0.0
  0
LTYPE
  2
PHANTOM2
 70
     0
  3
Phantom (.5x) ___ _ _ ___ _ _ ___ _ _ ___ _ _
 72
    65
 73
     6
 40
1.25
 49
0.625
 49
-0.125
 49
0.125
 49
-0.125
 49
0.125
 49
-0.125
  0
LTYPE
  2
VERDECKT
 70
     0
  3
Verdeckt __ __ __ __ __ __ __ __ __ __ __ __ __
 72
    65
 73
     2
 40
0.375
 49
0.25
 49
-0.125
  0
ENDTAB
  0
TABLE
  2
LAYER
 70
    14
  0
LAYER
  2
0
 70
     0
 62
     7
  6
CONTINUOUS
  0
LAYER
  2
VOLL
 70
     0
 62
     1
  6
CONTINUOUS
  0
LAYER
  2
DEFPOINTS
 70
     0
 62
     7
  6
CONTINUOUS
  0
LAYER
  2
ADSK_ASSOC_ENTITY_BACKUPS
 70
     1
 62
    -7
  6
CONTINUOUS
  0
LAYER
  2
BLECH
 70
     0
 62
   254
  6
CONTINUOUS
  0
ENDTAB
  0
TABLE
  2
STYLE
 70
     5
  0
STYLE
  2
STANDARD
 70
     0
 40
0.0
 41
0.8
 50
0.0
 71
     0
 42
3.5
  3
simplex.shx
  4

  0
STYLE
  2
GREEKS
 70
     0
 40
0.0
 41
0.8
 50
0.0
 71
     0
 42
2.5
  3
SIMPLEX.shx
  4

  0
STYLE
  2

 70
     1
 40
0.0
 41
1.0
 50
0.0
 71
     0
 42
3.5
  3
ltypeshp.shx
  4

  0
ENDTAB
  0
TABLE
  2
VIEW
 70
     1
  0
ENDTAB
  0
TABLE
  2
UCS
 70
     0
  0
ENDTAB
  0
TABLE
  2
APPID
 70
    29
  0
APPID
  2
ACAD
 70
     0
  0
APPID
  2
ACAD_NAV_VCDISPLAY
 70
     0
  0
APPID
  2
ACAD_MLEADERVER
 70
     0
  0
APPID
  2
ACAD_EXEMPT_FROM_CAD_STANDARDS
 70
     0
  0
APPID
  2
ACAD_PSEXT
 70
     0
  0
APPID
  2
ACAECLAYERSTANDARD
 70
     0
  0
APPID
  2
ACAUTHENVIRON
 70
     0
  0
APPID
  2
ACCMTRANSPARENCY
 70
     0
  0
APPID
  2
ACAD_STEPID
 70
     0
  0
APPID
  2
ACSYNERGY
 70
     0
  0
APPID
  2
SYNERGY_BODY_TBR_ID
 70
     0
  0
APPID
  2
ACAD_VIEW_EDGE_ID
 70
     0
  0
APPID
  2
ACSYNERGYSKETCH
 70
     0
  0
APPID
  2
ACAD_MODELDOC_XFORM
 70
     0
  0
APPID
  2
ACAD_DSTYLE_DIMJAG
 70
     0
  0
APPID
  2
ACAD_DSTYLE_DIMTALN
 70
     0
  0
APPID
  2
ACADANNOMONITORALERTICONDI
 70
     0
  0
APPID
  2
ACAD_DIMASSOC_CALC_DIMLFAC
 70
     0
  0
APPID
  2
ACAD_DIMASSOC_DIMLFAC
 70
     0
  0
APPID
  2
ACAD_DIMASSOC_OVERRIDDEN_D
 70
     0
  0
APPID
  2
ACAD_DSTYLE_DIMRADIAL_EXTENSION
 70
     0
  0
APPID
  2
ACADANNOAV
 70
     0
  0
APPID
  2
ACDBDYNAMICBLOCKTRUENAME
 70
     0
  0
APPID
  2
ACDBDYNAMICBLOCKGUID
 70
     0
  0
APPID
  2
ACAD_DSTYLE_DIMBREAK
 70
     0
  0
APPID
  2
GRADIENTCOLOR1ACI
 70
     0
  0
APPID
  2
GRADIENTCOLOR2ACI
 70
     0
  0
APPID
  2
ACAD_TC
 70
     0
  0
APPID
  2
AcDbAttr
 70
     0
  0
ENDTAB
  0
TABLE
  2
DIMSTYLE
 70
     2
  0
DIMSTYLE
  2
STANDARD
 70
     0
  3

  4

  5

  6

  7

 40
1.0
 41
0.18
 42
0.0625
 43
0.38
 44
0.18
 45
0.0
 46
0.0
 47
0.0
 48
0.0
140
0.18
141
0.09
142
0.0
143
25.3999999999999986
144
1.0
145
0.0
146
1.0
147
0.09
 71
     0
 72
     0
 73
     1
 74
     1
 75
     0
 76
     0
 77
     0
 78
     0
170
     0
171
     2
172
     0
173
     0
174
     0
175
     0
176
     0
177
     0
178
     0
  0
ENDTAB
  0
ENDSEC
  0
SECTION
  2
BLOCKS
  0
BLOCK
  8
0
  2
$MODEL_SPACE
 70
     0
 10
0.0
 20
0.0
 30
0.0
  3
$MODEL_SPACE
  1

  0
ENDBLK
  5
36
  8
0
  0
BLOCK
 67
     1
  8
0
  2
$PAPER_SPACE
 70
     0
 10
0.0
 20
0.0
 30
0.0
  3
$PAPER_SPACE
  1

  0
ENDBLK
  5
34
 67
     1
  8
0
  0
BLOCK
  8
0
  2
*S0
 70
     1
 10
0.0
 20
0.0
 30
0.0
  3
*S0
  1

  0
ENDBLK
  5
B3A
  8
0
  0
BLOCK
  8
0
  2
A$C24CC5E64
 70
     0
 10
0.0
 20
0.0
 30
0.0
  3
A$C24CC5E64
  1

  0
LINE
  5
60E7
  8
0
  6
CONTINUOUS
 62
     3
 10
31.3641175861547197
 20
243.6242887764236116
 30
0.0
 11
21.3641175861547197
 21
243.6242887764236116
 31
0.0
  0
LINE
  5
60E8
  8
0
  6
CONTINUOUS
 62
     3
 10
31.3641175861547197
 20
243.6242887764234979
 30
0.0
 11
31.3641175861547197
 21
245.4347669123415869
 31
0.0
  0
LINE
  5
60E9
  8
0
  6
CONTINUOUS
 62
     3
 10
21.3641175861547197
 20
245.4347669123415869
 30
0.0
 11
21.3641175861547197
 21
243.6242887764234979
 31
0.0
  0
LINE
  5
60EA
  8
0
  6
CONTINUOUS
 62
     3
 10
31.3641175861547197
 20
245.4347669123415869
 30
0.0
 11
95.3641175861547055
 21
245.4347669123415869
 31
0.0
  0
LINE
  5
60EB
  8
0
  6
CONTINUOUS
 62
     3
 10
-42.635882413845259
 20
245.4347669123415869
 30
0.0
 11
21.3641175861547197
 21
245.4347669123415869
 31
0.0
  0
LINE
  5
60EC
  8
0
  6
CONTINUOUS
 62
     3
 10
-43.8254042779271984
 20
178.4347669123415869
 30
0.0
 11
-43.8254042779271984
 21
168.4347669123415869
 31
0.0
  0
LINE
  5
60ED
  8
0
  6
CONTINUOUS
 62
     3
 10
-43.8254042779272126
 20
178.4347669123415869
 30
0.0
 11
-45.6358824138452874
 21
178.4347669123415869
 31
0.0
  0
LINE
  5
60EE
  8
0
  6
CONTINUOUS
 62
     3
 10
-45.6358824138453016
 20
168.4347669123415869
 30
0.0
 11
-43.8254042779272126
 21
168.4347669123415869
 31
0.0
  0
LINE
  5
60EF
  8
0
  6
CONTINUOUS
 62
     3
 10
-45.6358824138453869
 20
168.4347669123415869
 30
0.0
 11
-45.6358824138459269
 21
104.4347669123414022
 31
0.0
  0
LINE
  5
60F0
  8
0
  6
CONTINUOUS
 62
     3
 10
-45.6358824138447687
 20
242.4347669123415017
 30
0.0
 11
-45.6358824138453087
 21
178.4347669123415869
 31
0.0
  0
LINE
  5
60F1
  8
0
  6
CONTINUOUS
 62
     3
 10
96.5536394502366164
 20
168.8651274469081045
 30
0.0
 11
96.5536394502366164
 21
178.8651274469081045
 31
0.0
  0
LINE
  5
60F2
  8
0
  6
CONTINUOUS
 62
     3
 10
96.5536394502366022
 20
168.8651274469081045
 30
0.0
 11
98.3641175861546913
 21
168.8651274469081045
 31
0.0
  0
LINE
  5
60F3
  8
0
  6
CONTINUOUS
 62
     3
 10
98.3641175861546913
 20
178.8651274469081045
 30
0.0
 11
96.5536394502366022
 21
178.8651274469081045
 31
0.0
  0
LINE
  5
60F4
  8
0
  6
CONTINUOUS
 62
     3
 10
98.3641175861546913
 20
168.8651274469081045
 30
0.0
 11
98.3641175861546913
 21
104.4347669123416011
 31
0.0
  0
LINE
  5
60F5
  8
0
  6
CONTINUOUS
 62
     3
 10
98.3641175861546913
 20
242.4347669123415869
 30
0.0
 11
98.3641175861546913
 21
178.8651274469081045
 31
0.0
  0
LINE
  5
60F6
  8
0
  6
CONTINUOUS
 62
     3
 10
21.3641175861547303
 20
103.2452450482597044
 30
0.0
 11
31.3641175861547303
 21
103.2452450482597044
 31
0.0
  0
LINE
  5
60F7
  8
0
  6
CONTINUOUS
 62
     3
 10
21.3641175861547303
 20
103.2452450482597044
 30
0.0
 11
21.3641175861547303
 21
101.4347669123416011
 31
0.0
  0
LINE
  5
60F8
  8
0
  6
CONTINUOUS
 62
     3
 10
31.3641175861547303
 20
101.4347669123416011
 30
0.0
 11
31.3641175861547303
 21
103.2452450482597044
 31
0.0
  0
LINE
  5
60F9
  8
0
  6
CONTINUOUS
 62
     3
 10
95.3641175861547055
 20
101.4347669123415017
 30
0.0
 11
31.3641175861547303
 21
101.4347669123416011
 31
0.0
  0
LINE
  5
60FA
  8
0
  6
CONTINUOUS
 62
     3
 10
21.3641175861547303
 20
101.4347669123417006
 30
0.0
 11
-42.6358824138452732
 21
101.4347669123417006
 31
0.0
  0
ARC
  5
60FB
  8
0
  6
CONTINUOUS
 62
     3
 10
26.3641175861546593
 20
173.4347669123415017
 30
0.0
 40
44.0000000000000924
 50
53.7500000000000426
 51
81.2499999999999858
  0
ARC
  5
60FC
  8
0
  6
CONTINUOUS
 62
     3
 10
33.6660401232707116
 20
220.8761194147942035
 30
0.0
 40
4.0000000000000107
 50
81.2499999999998863
 51
261.2499999999998863
  0
ARC
  5
60FD
  8
0
  6
CONTINUOUS
 62
     3
 10
26.3641175861547907
 20
173.4347669123415869
 30
0.0
 40
43.9999999999998792
 50
8.7499999999999893
 51
36.2500000000000284
  0
ARC
  5
60FE
  8
0
  6
CONTINUOUS
 62
     3
 10
65.0734585909939085
 20
201.8176300337935913
 30
0.0
 40
4.0000000000000151
 50
36.2499999999999503
 51
216.25
  0
ARC
  5
60FF
  8
0
  6
CONTINUOUS
 62
     3
 10
26.3641175861546806
 20
173.4347669123415869
 30
0.0
 40
44.0000000000000071
 50
323.75
 51
351.25
  0
ARC
  5
6100
  8
0
  6
CONTINUOUS
 62
     3
 10
73.8054700886072368
 20
166.1328443752256021
 30
0.0
 40
4.0000000000000107
 50
351.2499999999997726
 51
171.249999999999801
  0
ARC
  5
6101
  8
0
  6
CONTINUOUS
 62
     3
 10
26.3641175861547197
 20
173.4347669123415869
 30
0.0
 40
43.9999999999999503
 50
278.75
 51
306.25
  0
ARC
  5
6102
  8
0
  6
CONTINUOUS
 62
     3
 10
54.746980707606653
 20
134.7254259075023981
 30
0.0
 40
4.0000000000000151
 50
306.2499999999996021
 51
126.2499999999996021
  0
ARC
  5
6103
  8
0
  6
CONTINUOUS
 62
     3
 10
26.3641175861546593
 20
173.4347669123415017
 30
0.0
 40
43.9999999999998721
 50
233.7499999999998863
 51
261.25
  0
ARC
  5
6104
  8
0
  6
CONTINUOUS
 62
     3
 10
19.0621950490386602
 20
125.9934144098890982
 30
0.0
 40
4.0000000000000098
 50
261.25
 51
81.2499999999999574
  0
ARC
  5
6105
  8
0
  6
CONTINUOUS
 62
     3
 10
26.3641175861546415
 20
173.4347669123415869
 30
0.0
 40
51.9999999999999503
 50
188.7499999999998863
 51
216.25
  0
ARC
  5
6106
  8
0
  6
CONTINUOUS
 62
     3
 10
-21.0772349162978792
 20
166.1328443752256021
 30
0.0
 40
3.9999999999999991
 50
8.7500000000002185
 51
188.750000000000199
  0
ARC
  5
6107
  8
0
  6
CONTINUOUS
 62
     3
 10
26.3641175861547303
 20
173.4347669123415869
 30
0.0
 40
52.0000000000000568
 50
143.75
 51
171.2499999999998863
  0
ARC
  5
6108
  8
0
  6
CONTINUOUS
 62
     3
 10
-12.34522341868451
 20
201.8176300337935913
 30
0.0
 40
3.9999999999999991
 50
323.7499999999998863
 51
143.75
  0
ARC
  5
6109
  8
0
  6
CONTINUOUS
 62
     3
 10
26.3641175861546806
 20
173.4347669123417006
 30
0.0
 40
51.9999999999999503
 50
98.75
 51
126.25
  0
ARC
  5
610A
  8
0
  6
CONTINUOUS
 62
     3
 10
19.0621950490386887
 20
220.8761194147942888
 30
0.0
 40
3.9999999999999978
 50
278.7500000000001137
 51
98.7500000000000995
  0
ARC
  5
610B
  8
0
  6
CONTINUOUS
 62
     3
 10
26.364117586154741
 20
173.4347669123417006
 30
0.0
 40
51.9999999999998934
 50
53.7499999999999716
 51
81.2500000000000284
  0
ARC
  5
610C
  8
0
  6
CONTINUOUS
 62
     3
 10
54.7469807076066814
 20
212.1441079171808894
 30
0.0
 40
3.9999999999999978
 50
233.75
 51
53.7499999999999289
  0
ARC
  5
610D
  8
0
  6
CONTINUOUS
 62
     3
 10
26.3641175861546415
 20
173.4347669123415869
 30
0.0
 40
52.0000000000000711
 50
8.7499999999999893
 51
36.2499999999999503
  0
ARC
  5
610E
  8
0
  6
CONTINUOUS
 62
     3
 10
73.805470088607251
 20
180.7366894494576002
 30
0.0
 40
4.0000000000000018
 50
188.7499999999996874
 51
8.7499999999998117
  0
ARC
  5
610F
  8
0
  6
CONTINUOUS
 62
     3
 10
26.3641175861548582
 20
173.4347669123415869
 30
0.0
 40
51.9999999999998508
 50
323.7499999999998863
 51
351.25
  0
ARC
  5
6110
  8
0
  6
CONTINUOUS
 62
     3
 10
65.0734585909939085
 20
145.0519037908896962
 30
0.0
 40
3.9999999999999991
 50
143.7499999999998863
 51
323.7499999999998863
  0
ARC
  5
6111
  8
0
  6
CONTINUOUS
 62
     3
 10
26.3641175861547588
 20
173.4347669123415017
 30
0.0
 40
51.9999999999998792
 50
278.75
 51
306.25
  0
ARC
  5
6112
  8
0
  6
CONTINUOUS
 62
     3
 10
33.6660401232707116
 20
125.9934144098889988
 30
0.0
 40
3.999999999999996
 50
98.7499999999999147
 51
278.7499999999998863
  0
ARC
  5
6113
  8
0
  6
CONTINUOUS
 62
     3
 10
26.3641175861546699
 20
173.4347669123415869
 30
0.0
 40
51.9999999999999787
 50
233.75
 51
261.25
  0
ARC
  5
6114
  8
0
  6
CONTINUOUS
 62
     3
 10
-2.0187455352972949
 20
134.7254259075023981
 30
0.0
 40
3.9999999999999978
 50
53.7499999999999716
 51
233.75
  0
ARC
  5
6115
  8
0
  6
CONTINUOUS
 62
     3
 10
26.3641175861546095
 20
173.4347669123415869
 30
0.0
 40
43.9999999999999076
 50
188.7499999999998863
 51
216.25
  0
ARC
  5
6116
  8
0
  6
CONTINUOUS
 62
     3
 10
-12.3452234186845207
 20
145.0519037908896962
 30
0.0
 40
4.0000000000000133
 50
216.25
 51
36.2499999999999929
  0
ARC
  5
6117
  8
0
  6
CONTINUOUS
 62
     3
 10
26.3641175861545882
 20
173.4347669123415869
 30
0.0
 40
43.9999999999999005
 50
143.75
 51
171.25
  0
ARC
  5
6118
  8
0
  6
CONTINUOUS
 62
     3
 10
-21.0772349162978792
 20
180.7366894494576002
 30
0.0
 40
4.000000000000008
 50
171.250000000000199
 51
351.2500000000002274
  0
ARC
  5
6119
  8
0
  6
CONTINUOUS
 62
     3
 10
26.3641175861546486
 20
173.4347669123417006
 30
0.0
 40
43.9999999999998721
 50
98.7499999999999574
 51
126.25
  0
ARC
  5
611A
  8
0
  6
CONTINUOUS
 62
     3
 10
-2.0187455352972812
 20
212.1441079171808894
 30
0.0
 40
4.0000000000000133
 50
126.2500000000000995
 51
306.25
  0
CIRCLE
  5
611B
  8
0
  6
CONTINUOUS
 62
     3
 10
26.3641175861546913
 20
173.4347669123415869
 30
0.0
 40
37.5
  0
ARC
  5
611C
  8
0
  6
CONTINUOUS
 62
     3
 10
-42.6358824138452519
 20
104.4347669123416011
 30
0.0
 40
3.0000000000000142
 50
180.0000000000005116
 51
269.9999999999997158
  0
ARC
  5
611D
  8
0
  6
CONTINUOUS
 62
     3
 10
95.3641175861547055
 20
104.4347669123416011
 30
0.0
 40
3.0
 50
270.0
 51
359.9999999999994884
  0
ARC
  5
611E
  8
0
  6
CONTINUOUS
 62
     3
 10
95.364117586154677
 20
242.4347669123415869
 30
0.0
 40
3.0000000000000142
 50
0.0
 51
89.9999999999992042
  0
ARC
  5
611F
  8
0
  6
CONTINUOUS
 62
     3
 10
-42.6358824138452519
 20
242.4347669123415869
 30
0.0
 40
3.0000000000000142
 50
90.0000000000002558
 51
180.000000000000199
  0
LINE
  5
6120
  8
0
  6
VERDECKT
 62
     1
 10
21.3641175861547197
 20
243.6242887764234979
 30
0.0
 11
21.3641175861547197
 21
243.0295278443826135
 31
0.0
  0
LINE
  5
6121
  8
0
  6
VERDECKT
 62
     1
 10
31.3641175861547197
 20
243.6242887764234979
 30
0.0
 11
31.3641175861547197
 21
243.0295278443826135
 31
0.0
  0
LINE
  5
6122
  8
0
  6
VERDECKT
 62
     1
 10
21.3641175861547197
 20
243.0295278443826135
 30
0.0
 11
31.3641175861547197
 21
243.0295278443826135
 31
0.0
  0
LINE
  5
6123
  8
0
  6
VERDECKT
 62
     1
 10
-42.635882413845259
 20
243.9347669123415869
 30
0.0
 11
21.3641175861547197
 21
243.9347669123415869
 31
0.0
  0
LINE
  5
6124
  8
0
  6
VERDECKT
 62
     1
 10
31.3641175861547197
 20
243.9347669123415869
 30
0.0
 11
95.3641175861547055
 21
243.9347669123415869
 31
0.0
  0
LINE
  5
6125
  8
0
  6
VERDECKT
 62
     1
 10
-43.8254042779272126
 20
168.4347669123415869
 30
0.0
 11
-43.2306433458862429
 21
168.4347669123415869
 31
0.0
  0
LINE
  5
6126
  8
0
  6
VERDECKT
 62
     1
 10
-43.8254042779272126
 20
178.4347669123415869
 30
0.0
 11
-43.2306433458862429
 21
178.4347669123415869
 31
0.0
  0
LINE
  5
6127
  8
0
  6
VERDECKT
 62
     1
 10
-43.2306433458862287
 20
168.4347669123415869
 30
0.0
 11
-43.2306433458862287
 21
178.4347669123415869
 31
0.0
  0
LINE
  5
6128
  8
0
  6
VERDECKT
 62
     1
 10
-44.1358824138453016
 20
242.4347669123417006
 30
0.0
 11
-44.1358824138452803
 21
178.4347669123415869
 31
0.0
  0
LINE
  5
6129
  8
0
  6
VERDECKT
 62
     1
 10
-44.1358824138452803
 20
168.4347669123415869
 30
0.0
 11
-44.1358824138452519
 21
104.4347669123416011
 31
0.0
  0
LINE
  5
612A
  8
0
  6
VERDECKT
 62
     1
 10
96.5536394502366022
 20
178.8651274469081045
 30
0.0
 11
95.9588785181956325
 21
178.8651274469081045
 31
0.0
  0
LINE
  5
612B
  8
0
  6
VERDECKT
 62
     1
 10
96.5536394502366022
 20
168.8651274469081045
 30
0.0
 11
95.9588785181956325
 21
168.8651274469081045
 31
0.0
  0
LINE
  5
612C
  8
0
  6
VERDECKT
 62
     1
 10
95.9588785181956467
 20
178.8651274469081045
 30
0.0
 11
95.9588785181956467
 21
168.8651274469081045
 31
0.0
  0
LINE
  5
612D
  8
0
  6
VERDECKT
 62
     1
 10
96.864117586154677
 20
178.8651274469081045
 30
0.0
 11
96.864117586154677
 21
242.4347669123417006
 31
0.0
  0
LINE
  5
612E
  8
0
  6
VERDECKT
 62
     1
 10
96.864117586154677
 20
104.4347669123416011
 30
0.0
 11
96.864117586154677
 21
168.8651274469081045
 31
0.0
  0
LINE
  5
612F
  8
0
  6
VERDECKT
 62
     1
 10
31.3641175861547303
 20
103.2452450482597044
 30
0.0
 11
31.3641175861547303
 21
103.840005980300603
 31
0.0
  0
LINE
  5
6130
  8
0
  6
VERDECKT
 62
     1
 10
21.3641175861547303
 20
103.2452450482597044
 30
0.0
 11
21.3641175861547303
 21
103.840005980300603
 31
0.0
  0
LINE
  5
6131
  8
0
  6
VERDECKT
 62
     1
 10
31.3641175861547303
 20
103.8400059803007025
 30
0.0
 11
21.3641175861547303
 21
103.8400059803007025
 31
0.0
  0
LINE
  5
6132
  8
0
  6
VERDECKT
 62
     1
 10
-42.6358824138452732
 20
102.9347669123416011
 30
0.0
 11
21.3641175861547303
 21
102.9347669123416011
 31
0.0
  0
LINE
  5
6133
  8
0
  6
VERDECKT
 62
     1
 10
31.3641175861547303
 20
102.9347669123416011
 30
0.0
 11
95.3641175861547055
 21
102.9347669123416011
 31
0.0
  0
ARC
  5
6134
  8
0
  6
VERDECKT
 62
     1
 10
26.3641175861546984
 20
173.4347669123415869
 30
0.0
 40
42.4999999999999929
 50
53.75
 51
81.25
  0
ARC
  5
6135
  8
0
  6
VERDECKT
 62
     1
 10
54.7469807076066814
 20
212.1441079171808894
 30
0.0
 40
5.5000000000000027
 50
233.75
 51
53.7500000000000213
  0
ARC
  5
6136
  8
0
  6
VERDECKT
 62
     1
 10
26.3641175861548511
 20
173.4347669123417006
 30
0.0
 40
42.4999999999998082
 50
8.7499999999999574
 51
36.2500000000000284
  0
ARC
  5
6137
  8
0
  6
VERDECKT
 62
     1
 10
73.805470088607251
 20
180.7366894494576002
 30
0.0
 40
5.5
 50
188.7499999999998863
 51
8.7499999999999645
  0
ARC
  5
6138
  8
0
  6
VERDECKT
 62
     1
 10
26.3641175861547303
 20
173.4347669123415869
 30
0.0
 40
42.4999999999999503
 50
323.75
 51
351.25
  0
ARC
  5
6139
  8
0
  6
VERDECKT
 62
     1
 10
65.0734585909939085
 20
145.0519037908896962
 30
0.0
 40
5.5000000000000018
 50
143.75
 51
323.75
  0
ARC
  5
613A
  8
0
  6
VERDECKT
 62
     1
 10
26.3641175861546699
 20
173.4347669123417006
 30
0.0
 40
42.5000000000000711
 50
278.75
 51
306.25
  0
ARC
  5
613B
  8
0
  6
VERDECKT
 62
     1
 10
33.6660401232707116
 20
125.9934144098889988
 30
0.0
 40
5.5
 50
98.7499999999998437
 51
278.7499999999998863
  0
ARC
  5
613C
  8
0
  6
VERDECKT
 62
     1
 10
26.3641175861546806
 20
173.4347669123415869
 30
0.0
 40
42.4999999999999503
 50
233.75
 51
261.25
  0
ARC
  5
613D
  8
0
  6
VERDECKT
 62
     1
 10
-2.0187455352972981
 20
134.7254259075023981
 30
0.0
 40
5.5
 50
53.75
 51
233.75
  0
ARC
  5
613E
  8
0
  6
VERDECKT
 62
     1
 10
26.3641175861546984
 20
173.4347669123415869
 30
0.0
 40
53.5000000000000284
 50
188.75
 51
216.25
  0
ARC
  5
613F
  8
0
  6
VERDECKT
 62
     1
 10
-12.3452234186845207
 20
145.0519037908896962
 30
0.0
 40
5.5000000000000107
 50
216.25
 51
36.2499999999999929
  0
ARC
  5
6140
  8
0
  6
VERDECKT
 62
     1
 10
26.3641175861547801
 20
173.4347669123415869
 30
0.0
 40
53.5000000000001208
 50
143.75
 51
171.2499999999998863
  0
ARC
  5
6141
  8
0
  6
VERDECKT
 62
     1
 10
-21.0772349162978792
 20
180.7366894494576002
 30
0.0
 40
5.5000000000000151
 50
171.25
 51
351.2500000000001137
  0
ARC
  5
6142
  8
0
  6
VERDECKT
 62
     1
 10
26.3641175861546699
 20
173.4347669123415869
 30
0.0
 40
53.4999999999999716
 50
98.7499999999999574
 51
126.25
  0
ARC
  5
6143
  8
0
  6
VERDECKT
 62
     1
 10
-2.0187455352972772
 20
212.1441079171808894
 30
0.0
 40
5.5000000000000133
 50
126.2500000000000995
 51
306.25
  0
ARC
  5
6144
  8
0
  6
VERDECKT
 62
     1
 10
33.6660401232707116
 20
220.8761194147942035
 30
0.0
 40
5.5000000000000071
 50
81.2500000000000711
 51
261.2500000000001137
  0
ARC
  5
6145
  8
0
  6
VERDECKT
 62
     1
 10
26.3641175861546415
 20
173.4347669123415017
 30
0.0
 40
53.5000000000001279
 50
53.7500000000000213
 51
81.2499999999999574
  0
ARC
  5
6146
  8
0
  6
VERDECKT
 62
     1
 10
65.0734585909939085
 20
201.8176300337935913
 30
0.0
 40
5.5000000000000187
 50
36.2499999999998579
 51
216.2499999999998863
  0
ARC
  5
6147
  8
0
  6
VERDECKT
 62
     1
 10
26.3641175861546806
 20
173.4347669123415869
 30
0.0
 40
53.5000000000000284
 50
8.7499999999999645
 51
36.2499999999999503
  0
ARC
  5
6148
  8
0
  6
VERDECKT
 62
     1
 10
73.8054700886072226
 20
166.1328443752256021
 30
0.0
 40
5.5000000000000089
 50
351.2500000000001137
 51
171.25
  0
ARC
  5
6149
  8
0
  6
VERDECKT
 62
     1
 10
26.3641175861547588
 20
173.4347669123415869
 30
0.0
 40
53.4999999999999574
 50
323.7499999999998863
 51
351.25
  0
ARC
  5
614A
  8
0
  6
VERDECKT
 62
     1
 10
54.746980707606653
 20
134.7254259075023981
 30
0.0
 40
5.5000000000000133
 50
306.2499999999997726
 51
126.249999999999801
  0
ARC
  5
614B
  8
0
  6
VERDECKT
 62
     1
 10
26.3641175861547588
 20
173.434766912341388
 30
0.0
 40
53.4999999999998366
 50
278.75
 51
306.25
  0
ARC
  5
614C
  8
0
  6
VERDECKT
 62
     1
 10
19.0621950490386602
 20
125.9934144098890982
 30
0.0
 40
5.5000000000000089
 50
261.25
 51
81.2499999999999574
  0
ARC
  5
614D
  8
0
  6
VERDECKT
 62
     1
 10
26.3641175861546806
 20
173.4347669123415869
 30
0.0
 40
53.4999999999999787
 50
233.75
 51
261.25
  0
ARC
  5
614E
  8
0
  6
VERDECKT
 62
     1
 10
-21.0772349162978898
 20
166.1328443752256021
 30
0.0
 40
5.4999999999999956
 50
8.7500000000002451
 51
188.750000000000199
  0
ARC
  5
614F
  8
0
  6
VERDECKT
 62
     1
 10
26.3641175861547303
 20
173.4347669123415869
 30
0.0
 40
42.5000000000000497
 50
188.75
 51
216.25
  0
ARC
  5
6150
  8
0
  6
VERDECKT
 62
     1
 10
-12.34522341868451
 20
201.8176300337935913
 30
0.0
 40
5.5
 50
323.7499999999998863
 51
143.75
  0
ARC
  5
6151
  8
0
  6
VERDECKT
 62
     1
 10
26.3641175861546913
 20
173.4347669123415869
 30
0.0
 40
42.4999999999999929
 50
143.75
 51
171.2499999999998863
  0
ARC
  5
6152
  8
0
  6
VERDECKT
 62
     1
 10
19.0621950490386816
 20
220.8761194147942888
 30
0.0
 40
5.5000000000000018
 50
278.75
 51
98.7500000000000711
  0
ARC
  5
6153
  8
0
  6
VERDECKT
 62
     1
 10
26.3641175861546415
 20
173.4347669123417006
 30
0.0
 40
42.4999999999998508
 50
98.7499999999999574
 51
126.25
  0
CIRCLE
  5
6154
  8
0
  6
VERDECKT
 62
     1
 10
26.3641175861546913
 20
173.4347669123415869
 30
0.0
 40
39.0
  0
ARC
  5
6155
  8
0
  6
VERDECKT
 62
     1
 10
-42.635882413845259
 20
104.4347669123416011
 30
0.0
 40
1.5
 50
180.0000000000009948
 51
270.0
  0
ARC
  5
6156
  8
0
  6
VERDECKT
 62
     1
 10
95.3641175861547055
 20
104.4347669123416011
 30
0.0
 40
1.5
 50
270.0
 51
359.9999999999994884
  0
ARC
  5
6157
  8
0
  6
VERDECKT
 62
     1
 10
95.364117586154677
 20
242.4347669123415869
 30
0.0
 40
1.500000000000014
 50
0.0000000000010941
 51
89.99999999999946
  0
ARC
  5
6158
  8
0
  6
VERDECKT
 62
     1
 10
-42.635882413845259
 20
242.4347669123417006
 30
0.0
 40
1.5
 50
90.0
 51
180.0000000000005116
  0
ENDBLK
  5
615A
  8
0
  0
BLOCK
  8
0
  2
A$C4882E2D6
 70
     0
 10
0.0
 20
0.0
 30
0.0
  3
A$C4882E2D6
  1

  0
ARC
  5
615E
  8
0
  6
CONTINUOUS
 62
     3
 10
42.635882413845259
 20
-1.4999999999999889
 30
0.0
 40
3.0
210
0.0
220
-0.0000000000000002
230
-1.0
 50
359.9999999999998863
 51
90.0
  0
LINE
  5
615F
  8
0
  6
CONTINUOUS
 62
     3
 10
-45.635882413845259
 20
-6.4999999999999956
 30
0.0000000000000014
 11
-45.635882413845259
 21
-1.499999999999994
 31
0.0000000000000003
210
0.0
220
1.0
230
-0.0000000000000002
  0
LINE
  5
6160
  8
0
  6
CONTINUOUS
 62
     3
 10
98.3641175861546913
 20
-6.4999999999999956
 30
0.0000000000000014
 11
98.3641175861546913
 21
-1.499999999999994
 31
0.0000000000000003
210
0.0
220
1.0
230
-0.0000000000000002
  0
LINE
  5
6161
  8
0
  6
CONTINUOUS
 62
     3
 10
-42.635882413845259
 20
-6.4999999999999956
 30
0.0000000000000014
 11
21.3641175861547303
 21
-6.4999999999999956
 31
0.0000000000000014
210
0.0
220
1.0
230
-0.0000000000000002
  0
LINE
  5
6162
  8
0
  6
CONTINUOUS
 62
     3
 10
-42.635882413845259
 20
-6.4999999999999956
 30
0.0000000000000014
 11
-45.635882413845259
 21
-6.4999999999999956
 31
0.0000000000000014
210
0.0
220
1.0
230
-0.0000000000000002
  0
LINE
  5
6163
  8
0
  6
CONTINUOUS
 62
     3
 10
98.3641175861546913
 20
-6.4999999999999956
 30
0.0000000000000014
 11
95.3641175861547055
 21
-6.4999999999999956
 31
0.0000000000000014
210
0.0
220
1.0
230
-0.0000000000000002
  0
LINE
  5
6164
  8
0
  6
CONTINUOUS
 62
     3
 10
31.3641175861547303
 20
-6.4999999999999956
 30
0.0000000000000014
 11
95.364117586154677
 21
-6.4999999999999956
 31
0.0000000000000014
210
0.0
220
1.0
230
-0.0000000000000002
  0
LINE
  5
6165
  8
0
  6
CONTINUOUS
 62
     3
 10
21.3641175861547303
 20
1.2540947214776581
 30
-0.0000000000000003
 11
31.3641175861547303
 21
1.2540947214776581
 31
-0.0000000000000003
210
0.0
220
1.0
230
-0.0000000000000002
  0
LINE
  5
6166
  8
0
  6
CONTINUOUS
 62
     3
 10
31.3641175861547303
 20
-0.1229526392611655
 30
0.0
 11
21.3641175861547303
 21
-0.1229526392611655
 31
0.0
210
0.0
220
1.0
230
-0.0000000000000002
  0
LINE
  5
6167
  8
0
  6
CONTINUOUS
 62
     3
 10
21.3641175861547303
 20
1.2540947214776521
 30
-0.0000000000000003
 11
21.3641175861547303
 21
-1.499999999999994
 31
0.0000000000000003
210
0.0
220
1.0
230
-0.0000000000000002
  0
LINE
  5
6168
  8
0
  6
CONTINUOUS
 62
     3
 10
21.3641175861547303
 20
-6.499999999999968
 30
0.0000000000000014
 11
21.3641175861547303
 21
-1.499999999999994
 31
0.0000000000000003
210
0.0
220
1.0
230
-0.0000000000000002
  0
LINE
  5
6169
  8
0
  6
CONTINUOUS
 62
     3
 10
31.3641175861547303
 20
-1.499999999999994
 30
0.0000000000000003
 11
31.3641175861547303
 21
-6.499999999999968
 31
0.0000000000000014
210
0.0
220
1.0
230
-0.0000000000000002
  0
LINE
  5
616A
  8
0
  6
CONTINUOUS
 62
     3
 10
31.3641175861547303
 20
-1.499999999999994
 30
0.0000000000000003
 11
31.3641175861547303
 21
1.2540947214776521
 31
-0.0000000000000003
210
0.0
220
1.0
230
-0.0000000000000002
  0
LINE
  5
616B
  8
0
  6
CONTINUOUS
 62
     3
 10
95.3641175861547055
 20
1.500000000000004
 30
-0.0000000000000003
 11
-42.6358824138452519
 21
1.500000000000004
 31
-0.0000000000000003
210
0.0
220
1.0
230
-0.0000000000000002
  0
ARC
  5
616C
  8
0
  6
CONTINUOUS
 62
     3
 10
-95.3641175861547055
 20
-1.49999999999999
 30
0.0
 40
2.9999999999999951
210
0.0
220
-0.0000000000000002
230
-1.0
 50
89.99999999999973
 51
180.0
  0
LINE
  5
616D
  8
0
  6
CONTINUOUS
 62
     3
 10
28.1660401232707116
 20
-2.4999999999999969
 30
0.0000000000000006
 11
24.5621950490386887
 21
-2.4999999999999969
 31
0.0000000000000006
210
0.0
220
1.0
230
-0.0000000000000002
  0
LINE
  5
616E
  8
0
  6
CONTINUOUS
 62
     3
 10
24.5621950490386887
 20
-2.499999999999996
 30
0.0000000000000006
 11
21.3641175861547303
 21
-2.499999999999996
 31
0.0000000000000006
210
0.0
220
1.0
230
-0.0000000000000002
  0
LINE
  5
616F
  8
0
  6
CONTINUOUS
 62
     3
 10
31.3641175861547516
 20
-2.499999999999996
 30
0.0000000000000006
 11
28.1660401232707116
 21
-2.499999999999996
 31
0.0000000000000006
210
0.0
220
1.0
230
-0.0000000000000002
  0
LINE
  5
6170
  8
0
  6
CONTINUOUS
 62
     3
 10
28.1660401232707116
 20
-2.499999999999996
 30
0.0000000000000006
 11
28.1660401232707116
 21
-1.499999999999996
 31
0.0000000000000003
210
0.0
220
1.0
230
-0.0000000000000002
  0
ARC
  5
6171
  8
0
  6
CONTINUOUS
 62
     3
 10
-26.6660401232707009
 20
-1.499999999999998
 30
0.0
 40
1.500000000000002
210
0.0
220
-0.0000000000000002
230
-1.0
 50
113.3600129641746008
 51
179.9999999999998863
  0
ARC
  5
6172
  8
0
  6
CONTINUOUS
 62
     3
 10
-26.0621950490386816
 20
-1.499999999999998
 30
0.0
 40
1.5000000000000031
210
0.0
220
-0.0000000000000002
230
-1.0
 50
0.0000000000000509
 51
66.639987035825385
  0
LINE
  5
6173
  8
0
  6
CONTINUOUS
 62
     3
 10
24.5621950490386709
 20
-2.499999999999996
 30
0.0000000000000006
 11
24.5621950490386709
 21
-1.499999999999996
 31
0.0000000000000003
210
0.0
220
1.0
230
-0.0000000000000002
  0
LINE
  5
6174
  8
0
  6
VERDECKT
 62
     1
 10
-43.8254042779272126
 20
1.254094721477629
 30
-0.0000000000000003
 11
-43.2306433458862429
 21
-0.1229526392611993
 31
0.0
210
0.0
220
1.0
230
-0.0000000000000002
  0
ARC
  5
6175
  8
0
  6
VERDECKT
 62
     1
 10
42.6358824138452519
 20
-1.500000000000004
 30
0.0
 40
1.500000000000014
210
0.0
220
-0.0000000000000002
230
-1.0
 50
0.0000000000003817
 51
89.99999999999946
  0
LINE
  5
6176
  8
0
  6
VERDECKT
 62
     1
 10
96.5536394502366022
 20
1.254094721477629
 30
-0.0000000000000003
 11
95.9588785181956325
 21
-0.1229526392611993
 31
0.0
210
0.0
220
1.0
230
-0.0000000000000002
  0
LINE
  5
6177
  8
0
  6
VERDECKT
 62
     1
 10
96.864117586154677
 20
-6.4999999999999956
 30
0.0000000000000014
 11
96.864117586154677
 21
-1.499999999999994
 31
0.0000000000000003
210
0.0
220
1.0
230
-0.0000000000000002
  0
LINE
  5
6178
  8
0
  6
VERDECKT
 62
     1
 10
95.3641175861547055
 20
0.0000000000000053
 30
0.0
 11
-42.6358824138452519
 21
0.0000000000000053
 31
0.0
210
0.0
220
1.0
230
-0.0000000000000002
  0
ARC
  5
6179
  8
0
  6
VERDECKT
 62
     1
 10
-95.3641175861547055
 20
-1.499999999999988
 30
0.0
 40
1.4999999999999929
210
0.0
220
-0.0000000000000002
230
-1.0
 50
90.0000000000005542
 51
180.000000000000199
  0
LINE
  5
617A
  8
0
  6
VERDECKT
 62
     1
 10
-7.5187455352972989
 20
-2.4999999999999969
 30
0.0000000000000006
 11
-16.7806687421556795
 21
-2.4999999999999969
 31
0.0000000000000006
210
0.0
220
1.0
230
-0.0000000000000002
  0
LINE
  5
617B
  8
0
  6
VERDECKT
 62
     1
 10
-16.7806687421556617
 20
-2.4999999999999969
 30
0.0000000000000006
 11
-26.5132232238705292
 21
-2.4999999999999991
 31
0.0000000000000006
210
0.0
220
1.0
230
-0.0000000000000002
  0
LINE
  5
617C
  8
0
  6
VERDECKT
 62
     1
 10
-26.5132232238705612
 20
-2.4999999999999978
 30
0.0000000000000006
 11
-26.5772349162978792
 21
-2.4999999999999978
 31
0.0000000000000006
210
0.0
220
1.0
230
-0.0000000000000002
  0
LINE
  5
617D
  8
0
  6
VERDECKT
 62
     1
 10
18.2255164249941117
 20
-2.499999999999996
 30
0.0000000000000006
 11
-5.2709486012969817
 21
-2.499999999999996
 31
0.0000000000000006
210
0.0
220
1.0
230
-0.0000000000000002
  0
LINE
  5
617E
  8
0
  6
VERDECKT
 62
     1
 10
-5.2709486012970013
 20
-2.499999999999996
 30
0.0000000000000006
 11
-7.5187455352972981
 21
-2.499999999999996
 31
0.0000000000000006
210
0.0
220
1.0
230
-0.0000000000000002
  0
LINE
  5
617F
  8
0
  6
VERDECKT
 62
     1
 10
21.364117586154741
 20
-2.499999999999996
 30
0.0000000000000006
 11
18.2255164249941188
 21
-2.499999999999996
 31
0.0000000000000006
210
0.0
220
1.0
230
-0.0000000000000002
  0
LINE
  5
6180
  8
0
  6
VERDECKT
 62
     1
 10
57.9991837736063474
 20
-2.4999999999999969
 30
0.0000000000000006
 11
34.5027187473152424
 21
-2.499999999999996
 31
0.0000000000000006
210
0.0
220
1.0
230
-0.0000000000000002
  0
LINE
  5
6181
  8
0
  6
VERDECKT
 62
     1
 10
34.5027187473152495
 20
-2.499999999999996
 30
0.0000000000000006
 11
31.3641175861547516
 21
-2.499999999999996
 31
0.0000000000000006
210
0.0
220
1.0
230
-0.0000000000000002
  0
LINE
  5
6182
  8
0
  6
VERDECKT
 62
     1
 10
60.2469807076066672
 20
-2.499999999999996
 30
0.0000000000000006
 11
57.9991837736063687
 21
-2.499999999999996
 31
0.0000000000000006
210
0.0
220
1.0
230
-0.0000000000000002
  0
LINE
  5
6183
  8
0
  6
VERDECKT
 62
     1
 10
79.2414583961799082
 20
-2.4999999999999991
 30
0.0000000000000006
 11
69.5089039144650229
 21
-2.4999999999999969
 31
0.0000000000000006
210
0.0
220
1.0
230
-0.0000000000000002
  0
LINE
  5
6184
  8
0
  6
VERDECKT
 62
     1
 10
69.5089039144650656
 20
-2.4999999999999969
 30
0.0000000000000006
 11
60.2469807076066601
 21
-2.4999999999999969
 31
0.0000000000000006
210
0.0
220
1.0
230
-0.0000000000000002
  0
LINE
  5
6185
  8
0
  6
VERDECKT
 62
     1
 10
79.305470088607251
 20
-2.4999999999999978
 30
0.0000000000000006
 11
79.2414583961799224
 21
-2.4999999999999978
 31
0.0000000000000006
210
0.0
220
1.0
230
-0.0000000000000002
  0
LINE
  5
6186
  8
0
  6
VERDECKT
 62
     1
 10
-44.135882413845259
 20
-6.4999999999999956
 30
0.0000000000000014
 11
-44.135882413845259
 21
-1.499999999999994
 31
0.0000000000000003
210
0.0
220
1.0
230
-0.0000000000000002
  0
LINE
  5
6187
  8
0
  6
VERDECKT
 62
     1
 10
59.5734585909939014
 20
-2.4999999999999969
 30
0.0000000000000006
 11
59.5734585909939014
 21
-1.4999999999999969
 31
0.0000000000000003
210
0.0
220
1.0
230
-0.0000000000000002
  0
LINE
  5
6188
  8
0
  6
VERDECKT
 62
     1
 10
-7.5187455352972963
 20
-2.499999999999996
 30
0.0000000000000006
 11
-7.5187455352972963
 21
-1.499999999999996
 31
0.0000000000000003
210
0.0
220
1.0
230
-0.0000000000000002
  0
LINE
  5
6189
  8
0
  6
VERDECKT
 62
     1
 10
-6.8452234186845056
 20
-2.4999999999999969
 30
0.0000000000000006
 11
-6.8452234186845056
 21
-1.4999999999999969
 31
0.0000000000000003
210
0.0
220
1.0
230
-0.0000000000000002
  0
LINE
  5
618A
  8
0
  6
VERDECKT
 62
     1
 10
77.805470088607251
 20
-2.4999999999999978
 30
0.0000000000000006
 11
77.805470088607251
 21
-1.499999999999998
 31
0.0000000000000003
210
0.0
220
1.0
230
-0.0000000000000002
  0
LINE
  5
618B
  8
0
  6
VERDECKT
 62
     1
 10
58.7469807076066672
 20
-2.499999999999996
 30
0.0000000000000006
 11
58.7469807076066672
 21
-1.499999999999996
 31
0.0000000000000003
210
0.0
220
1.0
230
-0.0000000000000002
  0
LINE
  5
618C
  8
0
  6
VERDECKT
 62
     1
 10
23.0621950490386816
 20
-2.499999999999996
 30
0.0000000000000006
 11
23.0621950490386816
 21
-1.499999999999996
 31
0.0000000000000003
210
0.0
220
1.0
230
-0.0000000000000002
  0
LINE
  5
618D
  8
0
  6
VERDECKT
 62
     1
 10
-25.0772349162978792
 20
-2.4999999999999978
 30
0.0000000000000006
 11
-25.0772349162978792
 21
-1.499999999999998
 31
0.0000000000000003
210
0.0
220
1.0
230
-0.0000000000000002
  0
ARC
  5
618E
  8
0
  6
VERDECKT
 62
     1
 10
-80.8054700886072368
 20
-1.500000000000008
 30
0.0
 40
1.5
210
0.0
220
-0.0000000000000002
230
-1.0
 50
0.0000000000003689
 51
90.0000000000000284
  0
ARC
  5
618F
  8
0
  6
VERDECKT
 62
     1
 10
-58.0734585909939227
 20
-1.499999999999994
 30
0.0
 40
1.4999999999999969
210
0.0
220
-0.0000000000000002
230
-1.0
 50
89.9999999999997442
 51
180.0000000000001137
  0
LINE
  5
6190
  8
0
  6
VERDECKT
 62
     1
 10
79.305470088607251
 20
-2.4999999999999978
 30
0.0000000000000006
 11
79.305470088607251
 21
-1.499999999999998
 31
0.0000000000000003
210
0.0
220
1.0
230
-0.0000000000000002
  0
ARC
  5
6191
  8
0
  6
VERDECKT
 62
     1
 10
-61.7469807076066601
 20
-1.499999999999994
 30
0.0
 40
1.499999999999992
210
0.0
220
-0.0000000000000002
230
-1.0
 50
359.9999999999998863
 51
90.0000000000002842
  0
ARC
  5
6192
  8
0
  6
VERDECKT
 62
     1
 10
-26.6660401232707009
 20
-1.5
 30
0.0
 40
1.5000000000000031
210
0.0
220
-0.0000000000000002
230
-1.0
 50
90.0000000000001137
 51
113.3600129641746008
  0
LINE
  5
6193
  8
0
  6
VERDECKT
 62
     1
 10
60.2469807076066672
 20
-2.499999999999996
 30
0.0000000000000006
 11
60.2469807076066672
 21
-1.499999999999996
 31
0.0000000000000003
210
0.0
220
1.0
230
-0.0000000000000002
  0
ARC
  5
6194
  8
0
  6
VERDECKT
 62
     1
 10
-26.0621950490386816
 20
-1.5
 30
0.0
 40
1.5000000000000031
210
0.0
220
-0.0000000000000002
230
-1.0
 50
66.6399870358255413
 51
90.0
  0
ARC
  5
6195
  8
0
  6
VERDECKT
 62
     1
 10
9.0187455352972954
 20
-1.499999999999996
 30
0.0
 40
1.5
210
0.0
220
-0.0000000000000002
230
-1.0
 50
90.0
 51
180.0
  0
ARC
  5
6196
  8
0
  6
VERDECKT
 62
     1
 10
28.0772349162978792
 20
-1.4999999999999949
 30
0.0
 40
1.4999999999999969
210
0.0
220
-0.0000000000000002
230
-1.0
 50
89.9999999999998721
 51
180.0
  0
ARC
  5
6197
  8
0
  6
VERDECKT
 62
     1
 10
5.3452234186845047
 20
-1.499999999999998
 30
0.0
 40
1.5
210
0.0
220
-0.0000000000000002
230
-1.0
 50
0.0
 51
90.0
  0
LINE
  5
6198
  8
0
  6
VERDECKT
 62
     1
 10
-26.5772349162978792
 20
-2.4999999999999978
 30
0.0000000000000006
 11
-26.5772349162978792
 21
-1.499999999999998
 31
0.0000000000000003
210
0.0
220
1.0
230
-0.0000000000000002
  0
ARC
  5
6199
  8
0
  6
VERDECKT
 62
     1
 10
14.1358824138453105
 20
-1.4999999999999989
 30
0.0
 40
1.5
210
0.0
220
-0.0000000000000002
230
-1.0
 50
90.0
 51
180.0
  0
ARC
  5
619A
  8
0
  6
VERDECKT
 62
     1
 10
-66.8641175861546913
 20
-1.5000000000000091
 30
0.0
 40
1.5
210
0.0
220
-0.0000000000000002
230
-1.0
 50
0.0000000000003689
 51
90.0000000000000284
  0
LINE
  5
619B
  8
0
  6
VERDECKT
 62
     1
 10
-12.6358824138453105
 20
-2.4999999999999991
 30
0.0000000000000006
 11
-12.6358824138453105
 21
-1.4999999999999989
 31
0.0000000000000003
210
0.0
220
1.0
230
-0.0000000000000002
  0
LINE
  5
619C
  8
0
  6
VERDECKT
 62
     1
 10
65.3641175861546913
 20
-2.4999999999999991
 30
0.0000000000000006
 11
65.3641175861546913
 21
-1.4999999999999989
 31
0.0000000000000003
210
0.0
220
1.0
230
-0.0000000000000002
  0
ARC
  5
619D
  8
0
  6
VERDECKT
 62
     1
 10
-80.8054700886072368
 20
-1.4999999999999929
 30
0.0
 40
2.9999999999999849
210
0.0
220
-0.0000000000000002
230
-1.0
 50
359.9999999999998863
 51
90.0000000000002842
  0
ARC
  5
619E
  8
0
  6
VERDECKT
 62
     1
 10
-58.0734585909939227
 20
-1.499999999999992
 30
0.0
 40
2.9999999999999951
210
0.0
220
-0.0000000000000002
230
-1.0
 50
89.9999999999998721
 51
180.0
  0
ARC
  5
619F
  8
0
  6
VERDECKT
 62
     1
 10
-61.7469807076066601
 20
-1.4999999999999909
 30
0.0
 40
2.999999999999992
210
0.0
220
-0.0000000000000002
230
-1.0
 50
359.9999999999998863
 51
90.0000000000001421
  0
ARC
  5
61A0
  8
0
  6
VERDECKT
 62
     1
 10
-26.6660401232707009
 20
-1.4999999999999969
 30
0.0
 40
3.0000000000000009
210
0.0
220
-0.0000000000000002
230
-1.0
 50
90.0
 51
180.0
  0
ARC
  5
61A1
  8
0
  6
VERDECKT
 62
     1
 10
-26.0621950490386816
 20
-1.499999999999998
 30
0.0
 40
3.0
210
0.0
220
-0.0000000000000002
230
-1.0
 50
0.0
 51
89.9999999999999858
  0
ARC
  5
61A2
  8
0
  6
VERDECKT
 62
     1
 10
9.0187455352972954
 20
-1.499999999999996
 30
0.0
 40
3.0
210
0.0
220
-0.0000000000000002
230
-1.0
 50
90.0
 51
180.0
  0
ARC
  5
61A3
  8
0
  6
VERDECKT
 62
     1
 10
28.0772349162978792
 20
-1.4999999999999989
 30
0.0
 40
3.0000000000000009
210
0.0
220
-0.0000000000000002
230
-1.0
 50
90.0
 51
180.0
  0
ARC
  5
61A4
  8
0
  6
VERDECKT
 62
     1
 10
5.3452234186845082
 20
-1.4999999999999949
 30
0.0
 40
2.9999999999999978
210
0.0
220
-0.0000000000000002
230
-1.0
 50
360.0
 51
90.0000000000000284
  0
ARC
  5
61A5
  8
0
  6
VERDECKT
 62
     1
 10
14.1358824138453105
 20
-1.5
 30
0.0
 40
3.0000000000000009
210
0.0
220
-0.0000000000000002
230
-1.0
 50
90.0000000000000284
 51
180.0
  0
ARC
  5
61A6
  8
0
  6
VERDECKT
 62
     1
 10
-66.864117586154677
 20
-1.499999999999994
 30
0.0
 40
2.9999999999999849
210
0.0
220
-0.0000000000000002
230
-1.0
 50
359.9999999999998863
 51
90.0000000000002842
  0
LINE
  5
61A7
  8
0
  6
VERDECKT
 62
     1
 10
-11.1358824138453105
 20
-2.4999999999999991
 30
0.0000000000000006
 11
-11.1358824138453105
 21
-1.4999999999999989
 31
0.0000000000000003
210
0.0
220
1.0
230
-0.0000000000000002
  0
LINE
  5
61A8
  8
0
  6
VERDECKT
 62
     1
 10
63.8641175861546913
 20
-2.4999999999999991
 30
0.0000000000000006
 11
63.8641175861546913
 21
-1.4999999999999989
 31
0.0000000000000003
210
0.0
220
1.0
230
-0.0000000000000002
  0
LINE
  5
61A9
  8
0
  6
VERDECKT
 62
     1
 10
29.6660401232707116
 20
-2.499999999999996
 30
0.0000000000000006
 11
29.6660401232707116
 21
-1.499999999999996
 31
0.0000000000000003
210
0.0
220
1.0
230
-0.0000000000000002
  0
LINE
  5
61AA
  8
0
  6
VERDECKT
 62
     1
 10
-6.0187455352972954
 20
-2.499999999999996
 30
0.0000000000000006
 11
-6.0187455352972954
 21
-1.499999999999996
 31
0.0000000000000003
210
0.0
220
1.0
230
-0.0000000000000002
  0
LINE
  5
61AB
  8
0
  6
VERDECKT
 62
     1
 10
-8.3452234186845065
 20
-2.4999999999999969
 30
0.0000000000000006
 11
-8.3452234186845065
 21
-1.4999999999999969
 31
0.0000000000000003
210
0.0
220
1.0
230
-0.0000000000000002
  0
LINE
  5
61AC
  8
0
  6
VERDECKT
 62
     1
 10
61.0734585909939085
 20
-2.4999999999999969
 30
0.0000000000000006
 11
61.0734585909939085
 21
-1.4999999999999969
 31
0.0000000000000003
210
0.0
220
1.0
230
-0.0000000000000002
  0
ENDBLK
  5
61AE
  8
0
  0
ENDSEC
  0
SECTION
  2
ENTITIES
  0
TEXT
  5
2998
  8
VOLL
 10
78.076754716981128
 20
31.025947764705851
 30
0.0
 40
1.8
  1

  7
GREEKS
  0
INSERT
  5
2999
  8
ADSK_ASSOC_ENTITY_BACKUPS
  2
*S0
 10
0.0
 20
0.0
 30
0.0
  0
INSERT
  5
615B
  8
BLECH
  2
A$C24CC5E64
 10
155.1050759080945056
 20
-0.9892652055434324
 30
0.0
  0
INSERT
  5
61AF
  8
BLECH
  2
A$C4882E2D6
 10
155.1050759080945056
 20
297.1497513639183126
 30
0.0
  0
VIEWPORT
  5
928
 67
     1
  8
0
 10
278.8015389351147064
 20
155.6599267055495091
 30
0.0
 40
814.6571881401760038
 41
470.0364766913197059
 68
     1
 69
     1
1001
ACAD
1000
MVIEW
1002
{
1070
    16
1010
0.0
1020
0.0
1030
0.0
1010
0.0
1020
0.0
1030
1.0
1040
0.0
1040
470.0364766913197059
1040
278.8015389351147064
1040
155.6599267055495091
1040
50.0
1040
0.0
1040
0.0
1070
     0
1070
  1500
1070
     1
1070
     1
1070
     0
1070
     0
1070
     0
1070
     0
1040
0.0
1040
0.0
1040
0.0
1040
10.0
1040
10.0
1040
10.0
1040
10.0
1070
     0
1002
{
1002
}
1002
}
  0
ENDSEC
  0
EOF
