  0
SECTION
  2
HEADER
  9
$ACADVER
  1
AC1009
  9
$INSBASE
 10
0.0
 20
0.0
 30
0.0
  9
$EXTMIN
 10
-42.1000932431257198
 20
-42.1000932431257908
 30
-0.0000000000000304
  9
$EXTMAX
 10
42.1000932431258619
 20
232.9000000000000057
 30
0.0
  9
$LIMMIN
 10
0.0
 20
0.0
  9
$LIMMAX
 10
210.0
 20
297.0
  9
$ORTHOMODE
 70
     1
  9
$REGENMODE
 70
     1
  9
$FILLMODE
 70
     1
  9
$QTEXTMODE
 70
     0
  9
$MIRRTEXT
 70
     1
  9
$DRAGMODE
 70
     2
  9
$LTSCALE
 40
10.0
  9
$OSMODE
 70
  3255
  9
$ATTMODE
 70
     1
  9
$TEXTSIZE
 40
3.5
  9
$TRACEWID
 40
0.5
  9
$TEXTSTYLE
  7
STANDARD
  9
$CLAYER
  8
BEM
  9
$CELTYPE
  6
BYLAYER
  9
$CECOLOR
 62
   256
  9
$DIMSCALE
 40
1.0
  9
$DIMASZ
 40
3.5
  9
$DIMEXO
 40
1.0
  9
$DIMDLI
 40
7.0
  9
$DIMRND
 40
0.0
  9
$DIMDLE
 40
0.0
  9
$DIMEXE
 40
1.0
  9
$DIMTP
 40
0.0
  9
$DIMTM
 40
0.0
  9
$DIMTXT
 40
3.5
  9
$DIMCEN
 40
1.5
  9
$DIMTSZ
 40
0.0
  9
$DIMTOL
 70
     0
  9
$DIMLIM
 70
     0
  9
$DIMTIH
 70
     0
  9
$DIMTOH
 70
     0
  9
$DIMSE1
 70
     0
  9
$DIMSE2
 70
     0
  9
$DIMTAD
 70
     1
  9
$DIMZIN
 70
     8
  9
$DIMBLK
  1

  9
$DIMASO
 70
     1
  9
$DIMSHO
 70
     0
  9
$DIMPOST
  1

  9
$DIMAPOST
  1

  9
$DIMALT
 70
     0
  9
$DIMALTD
 70
     2
  9
$DIMALTF
 40
25.3999999999999986
  9
$DIMLFAC
 40
1.0
  9
$DIMTOFL
 70
     1
  9
$DIMTVP
 40
0.0
  9
$DIMTIX
 70
     0
  9
$DIMSOXD
 70
     0
  9
$DIMSAH
 70
     0
  9
$DIMBLK1
  1

  9
$DIMBLK2
  1

  9
$DIMSTYLE
  2
STANDARD
  9
$DIMCLRD
 70
     0
  9
$DIMCLRE
 70
     0
  9
$DIMCLRT
 70
     1
  9
$DIMTFAC
 40
0.5
  9
$DIMGAP
 40
1.5
  9
$LUNITS
 70
     2
  9
$LUPREC
 70
     2
  9
$SKETCHINC
 40
1.0
  9
$FILLETRAD
 40
0.0
  9
$AUNITS
 70
     0
  9
$AUPREC
 70
     0
  9
$MENU
  1
ACAD
  9
$ELEVATION
 40
0.0
  9
$PELEVATION
 40
0.0
  9
$THICKNESS
 40
0.0
  9
$LIMCHECK
 70
     0
  9
$BLIPMODE
 70
     0
  9
$CHAMFERA
 40
0.0
  9
$CHAMFERB
 40
0.0
  9
$SKPOLY
 70
     0
  9
$TDCREATE
 40
2455397.8646990740671754
  9
$TDUPDATE
 40
2458548.444085649214685
  9
$TDINDWG
 40
0.0926272222
  9
$TDUSRTIMER
 40
0.0926272222
  9
$USRTIMER
 70
     1
  9
$ANGBASE
 50
0.0
  9
$ANGDIR
 70
     0
  9
$PDMODE
 70
     0
  9
$PDSIZE
 40
0.0
  9
$PLINEWID
 40
0.0
  9
$COORDS
 70
     1
  9
$SPLFRAME
 70
     0
  9
$SPLINETYPE
 70
     6
  9
$SPLINESEGS
 70
     8
  9
$ATTDIA
 70
     1
  9
$ATTREQ
 70
     1
  9
$HANDLING
 70
     1
  9
$HANDSEED
  5
89D
  9
$SURFTAB1
 70
     6
  9
$SURFTAB2
 70
     6
  9
$SURFTYPE
 70
     6
  9
$SURFU
 70
     6
  9
$SURFV
 70
     6
  9
$UCSNAME
  2

  9
$UCSORG
 10
0.0
 20
0.0
 30
0.0
  9
$UCSXDIR
 10
1.0
 20
0.0
 30
0.0
  9
$UCSYDIR
 10
0.0
 20
1.0
 30
0.0
  9
$PUCSNAME
  2

  9
$PUCSORG
 10
0.0
 20
0.0
 30
0.0
  9
$PUCSXDIR
 10
1.0
 20
0.0
 30
0.0
  9
$PUCSYDIR
 10
0.0
 20
1.0
 30
0.0
  9
$USERI1
 70
     0
  9
$USERI2
 70
     0
  9
$USERI3
 70
     0
  9
$USERI4
 70
     0
  9
$USERI5
 70
     0
  9
$USERR1
 40
0.0
  9
$USERR2
 40
0.0
  9
$USERR3
 40
0.0
  9
$USERR4
 40
0.0
  9
$USERR5
 40
0.0
  9
$WORLDVIEW
 70
     1
  9
$SHADEDGE
 70
     3
  9
$SHADEDIF
 70
    70
  9
$TILEMODE
 70
     1
  9
$MAXACTVP
 70
    16
  9
$PLIMCHECK
 70
     0
  9
$PEXTMIN
 10
1.0000000000000000E+20
 20
1.0000000000000000E+20
 30
1.0000000000000000E+20
  9
$PEXTMAX
 10
-1.0000000000000000E+20
 20
-1.0000000000000000E+20
 30
-1.0000000000000000E+20
  9
$PLIMMIN
 10
-0.2500002402958907
 20
-0.2499999962453767
  9
$PLIMMAX
 10
10.7499995194082203
 20
8.2499997634587334
  9
$UNITMODE
 70
     0
  9
$VISRETAIN
 70
     0
  9
$PLINEGEN
 70
     0
  9
$PSLTSCALE
 70
     0
  0
ENDSEC
  0
SECTION
  2
TABLES
  0
TABLE
  2
VPORT
 70
     1
  0
VPORT
  2
*ACTIVE
 70
     0
 10
0.0
 20
0.0
 11
1.0
 21
1.0
 12
0.0
 22
0.0
 13
0.0
 23
0.0
 14
1.0
 24
1.0
 15
10.0
 25
10.0
 16
0.000000000000183
 26
0.0
 36
725.4025252228823319
 17
7.3149789719762879
 27
103.2567826446338017
 37
0.0000000000000053
 40
276.6145751995434239
 41
1.9627815866797249
 42
50.0
 43
0.0
 44
0.0
 50
0.0
 51
0.0
 71
     0
 72
  1500
 73
     1
 74
     0
 75
     0
 76
     0
 77
     0
 78
     0
  0
ENDTAB
  0
TABLE
  2
LTYPE
 70
     4
  0
LTYPE
  2
CONTINUOUS
 70
     0
  3
Solid line
 72
    65
 73
     0
 40
0.0
  0
LTYPE
  2
VERDECKT
 70
     0
  3
Verdeckt __ __ __ __ __ __ __ __ __ __ __ __ __
 72
    65
 73
     2
 40
0.375
 49
0.25
 49
-0.125
  0
ENDTAB
  0
TABLE
  2
LAYER
 70
    11
  0
LAYER
  2
0
 70
     0
 62
     7
  6
CONTINUOUS
  0
LAYER
  2
VOLL
 70
     0
 62
     1
  6
CONTINUOUS
  0
LAYER
  2
BEM
 70
     0
 62
     7
  6
CONTINUOUS
  0
LAYER
  2
DEFPOINTS
 70
     0
 62
     7
  6
CONTINUOUS
  0
LAYER
  2
ROHR
 70
     0
 62
     9
  6
CONTINUOUS
  0
LAYER
  2
ADSK_ASSOC_ENTITY_BACKUPS
 70
     1
 62
    -7
  6
CONTINUOUS
  0
ENDTAB
  0
TABLE
  2
STYLE
 70
     4
  0
STYLE
  2
STANDARD
 70
     0
 40
0.0
 41
0.8
 50
0.0
 71
     0
 42
3.5
  3
simplex.shx
  4

  0
STYLE
  2
GREEKS
 70
     0
 40
0.0
 41
0.8
 50
0.0
 71
     0
 42
2.5
  3
SIMPLEX.shx
  4

  0
STYLE
  2

 70
     1
 40
0.0
 41
1.0
 50
0.0
 71
     0
 42
2.5
  3
ltypeshp.shx
  4

  0
ENDTAB
  0
TABLE
  2
VIEW
 70
     1
  0
ENDTAB
  0
TABLE
  2
UCS
 70
     0
  0
ENDTAB
  0
TABLE
  2
APPID
 70
    11
  0
APPID
  2
ACAD
 70
     0
  0
APPID
  2
ACAD_NAV_VCDISPLAY
 70
     0
  0
APPID
  2
ACAECLAYERSTANDARD
 70
     0
  0
APPID
  2
ACCMTRANSPARENCY
 70
     0
  0
APPID
  2
ACAD_PSEXT
 70
     0
  0
APPID
  2
ACAD_EXEMPT_FROM_CAD_STANDARDS
 70
     0
  0
APPID
  2
ACSYNERGY
 70
     0
  0
APPID
  2
SYNERGY_BODY_TBR_ID
 70
     0
  0
APPID
  2
ACAD_VIEW_EDGE_ID
 70
     0
  0
APPID
  2
ACAD_MLEADERVER
 70
     0
  0
APPID
  2
ACADANNOMONITORALERTICONDI
 70
     0
  0
ENDTAB
  0
TABLE
  2
DIMSTYLE
 70
     2
  0
DIMSTYLE
  2
STANDARD
 70
     0
  3

  4

  5

  6

  7

 40
1.0
 41
0.18
 42
0.0625
 43
0.38
 44
0.18
 45
0.0
 46
0.0
 47
0.0
 48
0.0
140
0.18
141
0.09
142
0.0
143
25.3999999999999986
144
1.0
145
0.0
146
1.0
147
0.09
 71
     0
 72
     0
 73
     1
 74
     1
 75
     0
 76
     0
 77
     0
 78
     0
170
     0
171
     2
172
     0
173
     0
174
     0
175
     0
176
     0
177
     0
178
     0
  0
ENDTAB
  0
ENDSEC
  0
SECTION
  2
BLOCKS
  0
BLOCK
  8
0
  2
$MODEL_SPACE
 70
     0
 10
0.0
 20
0.0
 30
0.0
  3
$MODEL_SPACE
  1

  0
ENDBLK
  5
36
  8
0
  0
BLOCK
 67
     1
  8
0
  2
$PAPER_SPACE
 70
     0
 10
0.0
 20
0.0
 30
0.0
  3
$PAPER_SPACE
  1

  0
ENDBLK
  5
34
 67
     1
  8
0
  0
BLOCK
  8
0
  2
*S0
 70
     1
 10
0.0
 20
0.0
 30
0.0
  3
*S0
  1

  0
ENDBLK
  5
40A
  8
0
  0
BLOCK
  8
0
  2
A$CFF198FB2
 70
     0
 10
0.0
 20
0.0
 30
0.0
  3
A$CFF198FB2
  1

  0
CIRCLE
  5
810
  8
0
  6
CONTINUOUS
 62
     3
 10
112.4999999999999005
 20
179.4393822299317947
 30
0.0000000000000284
 40
34.2936678383717535
  0
CIRCLE
  5
811
  8
0
  6
CONTINUOUS
 62
     3
 10
112.4999999999999005
 20
179.4393822299317947
 30
0.0000000000000249
 40
34.9000000000000909
  0
CIRCLE
  5
812
  8
0
  6
CONTINUOUS
 62
     3
 10
112.5
 20
179.4393822299317947
 30
0.0000000000000284
 40
38.3148118992667719
  0
CIRCLE
  5
813
  8
0
  6
CONTINUOUS
 62
     3
 10
112.5
 20
179.4393822299317947
 30
0.0000000000000284
 40
39.7653973282752276
  0
CIRCLE
  5
814
  8
0
  6
CONTINUOUS
 62
     3
 10
112.5
 20
179.4393822299317947
 30
0.0000000000000284
 40
42.1000000000000512
  0
CIRCLE
  5
815
  8
0
  6
CONTINUOUS
 62
     3
 10
112.5
 20
179.4393822299317947
 30
0.0000000000000284
 40
42.1000932431257766
  0
CIRCLE
  5
816
  8
0
  6
VERDECKT
 62
     1
 10
112.4999999999999005
 20
179.4393822299317947
 30
0.0000000000000249
 40
36.5000000000000711
  0
CIRCLE
  5
817
  8
0
  6
VERDECKT
 62
     1
 10
112.4999999999999005
 20
179.4393822299317947
 30
0.0000000000000284
 40
35.8875793553185432
  0
CIRCLE
  5
818
  8
0
  6
VERDECKT
 62
     1
 10
112.5
 20
179.4393822299317947
 30
0.0000000000000284
 40
40.5000059675378807
  0
CIRCLE
  5
819
  8
0
  6
VERDECKT
 62
     1
 10
112.5
 20
179.4393822299317947
 30
0.0000000000000284
 40
40.5000000000000568
  0
CIRCLE
  5
81A
  8
0
  6
VERDECKT
 62
     1
 10
112.5
 20
179.4393822299317947
 30
0.0000000000000284
 40
40.5000932431257894
  0
ENDBLK
  5
81C
  8
0
  0
BLOCK
  8
0
  2
A$C4395F78D
 70
     0
 10
0.0
 20
0.0
 30
0.0
  3
A$C4395F78D
  1

  0
LINE
  5
820
  8
0
  6
CONTINUOUS
 62
     3
 10
-148.3875793553183939
 20
-68.5000000000000142
 30
-0.0000000000000152
 11
-76.6124206446813929
 21
-68.4999999999999858
 31
-0.0000000000000152
210
0.0000000000000001
220
1.0
230
0.0000000000000002
  0
LINE
  5
821
  8
0
  6
CONTINUOUS
 62
     3
 10
-152.2653973282752133
 20
68.4999999999999858
 30
0.0000000000000152
 11
-72.7346026717247298
 21
68.5000000000000426
 31
0.0000000000000152
210
0.0000000000000001
220
1.0
230
0.0000000000000002
  0
LINE
  5
822
  8
0
  6
CONTINUOUS
 62
     3
 10
-75.9999999999999716
 20
29.2984160068737189
 30
0.0000000000000065
 11
-75.9999999999999289
 21
-61.3864815484385389
 31
-0.0000000000000136
210
0.0000000000000001
220
1.0
230
0.0000000000000002
  0
LINE
  5
823
  8
0
  6
CONTINUOUS
 62
     3
 10
-148.9999999999998863
 20
29.2984160068736799
 30
0.0000000000000065
 11
-148.9999999999998863
 21
-61.3864815484385602
 31
-0.0000000000000136
210
0.0000000000000001
220
1.0
230
0.0000000000000002
  0
ARC
  5
824
  8
0
  6
CONTINUOUS
 62
     3
 10
146.4000000000183945
 20
-61.386481548439022
 30
0.0
 40
2.5999999999814061
210
0.0
220
0.0000000000000002
230
-1.0
 50
354.9999999999747047
 51
0.0000000000101848
  0
ARC
  5
825
  8
0
  6
CONTINUOUS
 62
     3
 10
78.5999999999962853
 20
-61.386481548438681
 30
0.0
 40
2.5999999999962711
210
0.0
220
0.0000000000000002
230
-1.0
 50
179.9999999999969873
 51
185.0000000000038085
  0
LINE
  5
826
  8
0
  6
CONTINUOUS
 62
     3
 10
-148.3875793553183939
 20
-68.5000000000000284
 30
-0.0000000000000152
 11
-148.9901062150383098
 21
-61.6130864795824635
 31
-0.0000000000000137
210
0.0000000000000001
220
1.0
230
0.0000000000000002
  0
LINE
  5
827
  8
0
  6
CONTINUOUS
 62
     3
 10
-76.6124206446813787
 20
-68.4999999999999858
 30
-0.0000000000000152
 11
-76.0098937849614913
 21
-61.6130864795824422
 31
-0.0000000000000137
210
0.0000000000000001
220
1.0
230
0.0000000000000002
  0
ARC
  5
828
  8
0
  6
CONTINUOUS
 62
     3
 10
129.5999999999934005
 20
57.9510775928796207
 30
0.0
 40
25.000000000006569
210
0.0
220
0.0000000000000002
230
-1.0
 50
0.0000000000038491
 51
24.9581963123127792
  0
ARC
  5
829
  8
0
  6
CONTINUOUS
 62
     3
 10
95.4000000000060737
 20
57.9510775928797202
 30
0.0
 40
25.0000000000061497
210
0.0
220
0.0000000000000002
230
-1.0
 50
155.0418036876870076
 51
179.9999999999961915
  0
LINE
  5
82A
  8
0
  6
CONTINUOUS
 62
     3
 10
-70.3999999999999062
 20
57.9510775928813615
 30
0.0000000000000129
 11
-70.3999999999999062
 21
48.9382800481818521
 31
0.0000000000000109
210
0.0000000000000001
220
1.0
230
0.0000000000000002
  0
LINE
  5
82B
  8
0
  6
CONTINUOUS
 62
     3
 10
-154.5999999999999943
 20
57.9510775928813189
 30
0.0000000000000129
 11
-154.5999999999999943
 21
48.9382800481818094
 31
0.0000000000000109
210
0.0000000000000001
220
1.0
230
0.0000000000000002
  0
ARC
  5
82C
  8
0
  6
CONTINUOUS
 62
     3
 10
129.6000000000026091
 20
48.8699999999992585
 30
0.0
 40
25.0000932431231497
210
0.0
220
0.0000000000000002
230
-1.0
 50
328.0647601130845032
 51
0.1564859543327007
  0
ARC
  5
82D
  8
0
  6
CONTINUOUS
 62
     3
 10
95.3999999999974051
 20
48.8699999999993295
 30
0.0
 40
25.0000932431232314
210
0.0
220
0.0000000000000002
230
-1.0
 50
179.8435140456672912
 51
211.9352398869154968
  0
ARC
  5
82E
  8
0
  6
CONTINUOUS
 62
     3
 10
161.0000000000003979
 20
29.298416006873591
 30
0.0
 40
12.0000000000003606
210
0.0
220
0.0000000000000002
230
-1.0
 50
148.0647601130837927
 51
179.9999999999994884
  0
ARC
  5
82F
  8
0
  6
CONTINUOUS
 62
     3
 10
63.9999999999998366
 20
29.2984160068737403
 30
0.0
 40
12.0000000000000302
210
0.0
220
0.0000000000000002
230
-1.0
 50
359.9999999999997726
 51
31.9352398869163885
  0
LINE
  5
830
  8
0
  6
VERDECKT
 62
     1
 10
-146.7936678383717037
 20
-68.360550811603801
 30
-0.0000000000000152
 11
-78.2063321616281684
 21
-68.3605508116037441
 31
-0.0000000000000152
210
0.0000000000000001
220
1.0
230
0.0000000000000002
  0
LINE
  5
831
  8
0
  6
VERDECKT
 62
     1
 10
-150.8148118992666866
 20
67.8248689659421728
 30
0.0000000000000151
 11
-74.1851881007331855
 21
67.8248689659422297
 31
0.0000000000000151
210
0.0000000000000001
220
1.0
230
0.0000000000000002
  0
LINE
  5
832
  8
0
  6
VERDECKT
 62
     1
 10
-78.2063321616281684
 20
-68.3605508116037441
 30
-0.0000000000000152
 11
-76.6124206446813787
 21
-68.4999999999999858
 31
-0.0000000000000152
210
0.0000000000000001
220
1.0
230
0.0000000000000002
  0
LINE
  5
833
  8
0
  6
VERDECKT
 62
     1
 10
-146.7936678383717037
 20
-68.3605508116037726
 30
-0.0000000000000152
 11
-148.3875793553183939
 21
-68.5000000000000142
 31
-0.0000000000000152
210
0.0000000000000001
220
1.0
230
0.0000000000000002
  0
LINE
  5
834
  8
0
  6
VERDECKT
 62
     1
 10
-146.7936678383717037
 20
-68.3605508116037726
 30
-0.0000000000000152
 11
-147.3961946980915059
 21
-61.4736372911862006
 31
-0.0000000000000136
210
0.0000000000000001
220
1.0
230
0.0000000000000002
  0
LINE
  5
835
  8
0
  6
VERDECKT
 62
     1
 10
-78.2063321616281684
 20
-68.3605508116037441
 30
-0.0000000000000152
 11
-77.603805301908281
 21
-61.4736372911861935
 31
-0.0000000000000136
210
0.0000000000000001
220
1.0
230
0.0000000000000002
  0
ARC
  5
836
  8
0
  6
VERDECKT
 62
     1
 10
146.4000000000102943
 20
-61.3864815484387876
 30
0.0
 40
0.9999999999895408
210
0.0
220
0.0000000000000002
230
-1.0
 50
354.9999999999620854
 51
0.0000000000142559
  0
ARC
  5
837
  8
0
  6
VERDECKT
 62
     1
 10
78.5999999999969816
 20
-61.386481548438617
 30
0.0
 40
0.9999999999969588
210
0.0
220
0.0000000000000002
230
-1.0
 50
179.9999999999947136
 51
185.0000000000096918
  0
LINE
  5
838
  8
0
  6
VERDECKT
 62
     1
 10
-77.5999999999999659
 20
29.2984160068737189
 30
0.0000000000000065
 11
-77.5999999999999233
 21
-61.3864815484385318
 31
-0.0000000000000136
210
0.0000000000000001
220
1.0
230
0.0000000000000002
  0
LINE
  5
839
  8
0
  6
VERDECKT
 62
     1
 10
-147.399999999999892
 20
29.2984160068736799
 30
0.0000000000000065
 11
-147.399999999999892
 21
-61.3864815484385389
 31
-0.0000000000000136
210
0.0000000000000001
220
1.0
230
0.0000000000000002
  0
ARC
  5
83A
  8
0
  6
VERDECKT
 62
     1
 10
160.9999999999996874
 20
29.2984160068738007
 30
0.0
 40
13.5999999999996604
210
0.0
220
0.0000000000000002
230
-1.0
 50
148.0647601130827979
 51
180.0000000000003979
  0
ARC
  5
83B
  8
0
  6
VERDECKT
 62
     1
 10
64.0000000000000142
 20
29.2984160068737793
 30
0.0
 40
13.5999999999998504
210
0.0
220
0.0000000000000002
230
-1.0
 50
359.9999999999997158
 51
31.9352398869167793
  0
ARC
  5
83C
  8
0
  6
VERDECKT
 62
     1
 10
129.6000000000022112
 20
48.8699999999994006
 30
0.0
 40
23.4000932431235888
210
0.0
220
0.0000000000000002
230
-1.0
 50
328.0647601130847875
 51
0.1564859543324971
  0
ARC
  5
83D
  8
0
  6
VERDECKT
 62
     1
 10
95.3999999999977746
 20
48.8699999999994006
 30
0.0
 40
23.4000932431236208
210
0.0
220
0.0000000000000002
230
-1.0
 50
179.8435140456674048
 51
211.9352398869150136
  0
LINE
  5
83E
  8
0
  6
VERDECKT
 62
     1
 10
-71.9999970162310063
 20
57.9510775928813615
 30
0.0000000000000129
 11
-71.9999970162310063
 21
48.9339101413967583
 31
0.0000000000000109
210
0.0000000000000001
220
1.0
230
0.0000000000000002
  0
LINE
  5
83F
  8
0
  6
VERDECKT
 62
     1
 10
-153.0000029837688942
 20
57.9510775928813189
 30
0.0000000000000129
 11
-153.0000029837688942
 21
48.9339101413967228
 31
0.0000000000000109
210
0.0000000000000001
220
1.0
230
0.0000000000000002
  0
ARC
  5
840
  8
0
  6
VERDECKT
 62
     1
 10
129.5999999999995111
 20
57.9510775928812478
 30
0.0
 40
23.4000000000005386
210
0.0
220
0.0000000000000002
230
-1.0
 50
0.000000000000147
 51
24.9581963123090382
  0
ARC
  5
841
  8
0
  6
VERDECKT
 62
     1
 10
95.3999999999997357
 20
57.9510775928813899
 30
0.0
 40
23.3999999999998209
210
0.0
220
0.0000000000000002
230
-1.0
 50
155.0418036876903898
 51
180.0
  0
LINE
  5
842
  8
0
  6
VERDECKT
 62
     1
 10
-150.8148118992666866
 20
67.8248689659421871
 30
0.0000000000000151
 11
-152.2653973282752133
 21
68.4999999999999858
 31
0.0000000000000152
210
0.0000000000000001
220
1.0
230
0.0000000000000002
  0
LINE
  5
843
  8
0
  6
VERDECKT
 62
     1
 10
-74.1851881007331855
 20
67.8248689659422155
 30
0.0000000000000151
 11
-72.7346026717247298
 21
68.5000000000000284
 31
0.0000000000000152
210
0.0000000000000001
220
1.0
230
0.0000000000000002
  0
ENDBLK
  5
845
  8
0
  0
ENDSEC
  0
SECTION
  2
ENTITIES
  0
TEXT
  5
8F
  8
VOLL
 10
78.076754716981128
 20
31.025947764705851
 30
0.0
 40
1.8
  1

  7
GREEKS
  0
INSERT
  5
40C
  8
ADSK_ASSOC_ENTITY_BACKUPS
  2
*S0
 10
0.0
 20
0.0
 30
0.0
  0
INSERT
  5
81D
  8
BEM
  2
A$CFF198FB2
 10
-112.4999999999999005
 20
-179.4393822299317947
 30
-0.0000000000000284
  0
INSERT
  5
846
  8
BEM
  2
A$C4395F78D
 10
112.5
 20
164.4000000000000057
 30
-0.0000000000000152
  0
VIEWPORT
  5
3E9
 67
     1
  8
0
 10
5.2499996395561661
 20
3.9999998836066779
 30
0.0
 40
16.7815900387015091
 41
8.5499019109352492
 68
     1
 69
     1
1001
ACAD
1000
MVIEW
1002
{
1070
    16
1010
0.0
1020
0.0
1030
0.0
1010
0.0
1020
0.0
1030
1.0
1040
0.0
1040
8.5499019109352492
1040
5.2499996395561661
1040
3.9999998836066779
1040
50.0
1040
0.0
1040
0.0
1070
     0
1070
  1500
1070
     1
1070
     1
1070
     0
1070
     0
1070
     0
1070
     0
1040
0.0
1040
0.0
1040
0.0
1040
10.0
1040
10.0
1040
10.0
1040
10.0
1070
     0
1002
{
1002
}
1002
}
  0
TEXT
  5
4AC
 67
     1
  8
VOLL
 10
222.9956455298816991
 20
-54.4762217358897871
 30
0.0
 40
1.8
  1

  7
GREEKS
  0
ENDSEC
  0
EOF
