  0
SECTION
  2
HEADER
  9
$ACADVER
  1
AC1009
  9
$INSBASE
 10
0.0
 20
0.0
 30
0.0
  9
$EXTMIN
 10
-114.9999999999999005
 20
-280.0
 30
-0.0000000000000558
  9
$EXTMAX
 10
228.2413093173373113
 20
496.7317853925953841
 30
0.0000000000000284
  9
$LIMMIN
 10
0.0
 20
0.0
  9
$LIMMAX
 10
419.9999999999998863
 20
594.0
  9
$ORTHOMODE
 70
     1
  9
$REGENMODE
 70
     1
  9
$FILLMODE
 70
     1
  9
$QTEXTMODE
 70
     0
  9
$MIRRTEXT
 70
     1
  9
$DRAGMODE
 70
     2
  9
$LTSCALE
 40
10.0
  9
$OSMODE
 70
   511
  9
$ATTMODE
 70
     1
  9
$TEXTSIZE
 40
3.5
  9
$TRACEWID
 40
0.5
  9
$TEXTSTYLE
  7
STANDARD
  9
$CLAYER
  8
STEMPEL
  9
$CELTYPE
  6
BYLAYER
  9
$CECOLOR
 62
   256
  9
$DIMSCALE
 40
1.0
  9
$DIMASZ
 40
3.5
  9
$DIMEXO
 40
1.0
  9
$DIMDLI
 40
0.38
  9
$DIMRND
 40
0.0
  9
$DIMDLE
 40
0.0
  9
$DIMEXE
 40
1.0
  9
$DIMTP
 40
0.0
  9
$DIMTM
 40
0.000000001
  9
$DIMTXT
 40
3.5
  9
$DIMCEN
 40
0.09
  9
$DIMTSZ
 40
0.0
  9
$DIMTOL
 70
     0
  9
$DIMLIM
 70
     0
  9
$DIMTIH
 70
     0
  9
$DIMTOH
 70
     0
  9
$DIMSE1
 70
     0
  9
$DIMSE2
 70
     0
  9
$DIMTAD
 70
     1
  9
$DIMZIN
 70
     8
  9
$DIMBLK
  1

  9
$DIMASO
 70
     1
  9
$DIMSHO
 70
     0
  9
$DIMPOST
  1

  9
$DIMAPOST
  1

  9
$DIMALT
 70
     0
  9
$DIMALTD
 70
     2
  9
$DIMALTF
 40
25.3999999999999986
  9
$DIMLFAC
 40
2.0
  9
$DIMTOFL
 70
     1
  9
$DIMTVP
 40
0.0
  9
$DIMTIX
 70
     0
  9
$DIMSOXD
 70
     0
  9
$DIMSAH
 70
     0
  9
$DIMBLK1
  1

  9
$DIMBLK2
  1

  9
$DIMSTYLE
  2
LORO
  9
$DIMCLRD
 70
     0
  9
$DIMCLRE
 70
     0
  9
$DIMCLRT
 70
     1
  9
$DIMTFAC
 40
0.5
  9
$DIMGAP
 40
1.5
  9
$LUNITS
 70
     2
  9
$LUPREC
 70
     2
  9
$SKETCHINC
 40
1.0
  9
$FILLETRAD
 40
8.0
  9
$AUNITS
 70
     0
  9
$AUPREC
 70
     0
  9
$MENU
  1
ACAD
  9
$ELEVATION
 40
0.0
  9
$PELEVATION
 40
0.0
  9
$THICKNESS
 40
0.0
  9
$LIMCHECK
 70
     0
  9
$BLIPMODE
 70
     0
  9
$CHAMFERA
 40
0.0
  9
$CHAMFERB
 40
0.0
  9
$SKPOLY
 70
     0
  9
$TDCREATE
 40
2455397.8646990740671754
  9
$TDUPDATE
 40
2459807.4188425932079554
  9
$TDINDWG
 40
0.3874273032
  9
$TDUSRTIMER
 40
0.3874273032
  9
$USRTIMER
 70
     1
  9
$ANGBASE
 50
0.0
  9
$ANGDIR
 70
     0
  9
$PDMODE
 70
     0
  9
$PDSIZE
 40
0.0
  9
$PLINEWID
 40
0.0
  9
$COORDS
 70
     1
  9
$SPLFRAME
 70
     0
  9
$SPLINETYPE
 70
     6
  9
$SPLINESEGS
 70
     8
  9
$ATTDIA
 70
     1
  9
$ATTREQ
 70
     1
  9
$HANDLING
 70
     1
  9
$HANDSEED
  5
40A8
  9
$SURFTAB1
 70
     6
  9
$SURFTAB2
 70
     6
  9
$SURFTYPE
 70
     6
  9
$SURFU
 70
     6
  9
$SURFV
 70
     6
  9
$UCSNAME
  2

  9
$UCSORG
 10
0.0
 20
0.0
 30
0.0
  9
$UCSXDIR
 10
1.0
 20
0.0
 30
0.0
  9
$UCSYDIR
 10
0.0
 20
1.0
 30
0.0
  9
$PUCSNAME
  2

  9
$PUCSORG
 10
0.0
 20
0.0
 30
0.0
  9
$PUCSXDIR
 10
1.0
 20
0.0
 30
0.0
  9
$PUCSYDIR
 10
0.0
 20
1.0
 30
0.0
  9
$USERI1
 70
     0
  9
$USERI2
 70
     0
  9
$USERI3
 70
     0
  9
$USERI4
 70
     0
  9
$USERI5
 70
     0
  9
$USERR1
 40
0.0
  9
$USERR2
 40
0.0
  9
$USERR3
 40
0.0
  9
$USERR4
 40
0.0
  9
$USERR5
 40
0.0
  9
$WORLDVIEW
 70
     1
  9
$SHADEDGE
 70
     3
  9
$SHADEDIF
 70
    70
  9
$TILEMODE
 70
     1
  9
$MAXACTVP
 70
    16
  9
$PLIMCHECK
 70
     0
  9
$PEXTMIN
 10
1.0000000000000000E+20
 20
1.0000000000000000E+20
 30
1.0000000000000000E+20
  9
$PEXTMAX
 10
-1.0000000000000000E+20
 20
-1.0000000000000000E+20
 30
-1.0000000000000000E+20
  9
$PLIMMIN
 10
-3.0182949756788271
 20
-4.2948212785906881
  9
$PLIMMAX
 10
293.9817050243211725
 20
415.705178721409311
  9
$UNITMODE
 70
     0
  9
$VISRETAIN
 70
     0
  9
$PLINEGEN
 70
     0
  9
$PSLTSCALE
 70
     1
  0
ENDSEC
  0
SECTION
  2
TABLES
  0
TABLE
  2
VPORT
 70
     1
  0
VPORT
  2
*ACTIVE
 70
     0
 10
0.0
 20
0.0
 11
1.0
 21
1.0
 12
55.5012536850122089
 22
169.0049950539921042
 13
0.0
 23
0.0
 14
1.0
 24
1.0
 15
10.0
 25
10.0
 16
-0.0000000000002909
 26
0.0
 36
1300.5551620140499836
 17
1.1194009736565089
 27
-60.6391023576944121
 37
-0.0000000000000133
 40
780.7048380032990735
 41
1.8720136518771331
 42
50.0
 43
0.0
 44
0.0
 50
0.0
 51
0.0
 71
     0
 72
  1500
 73
     1
 74
     0
 75
     0
 76
     0
 77
     0
 78
     0
  0
ENDTAB
  0
TABLE
  2
LTYPE
 70
     3
  0
LTYPE
  2
CONTINUOUS
 70
     0
  3
Solid line
 72
    65
 73
     0
 40
0.0
  0
LTYPE
  2
STRICHPUNKT
 70
     0
  3
__ . __ . __ . __ . __ . __ . __ . __ . __ . __
 72
    65
 73
     4
 40
1.0
 49
0.5
 49
-0.25
 49
0.0
 49
-0.25
  0
LTYPE
  2
VERDECKT
 70
     0
  3
Verdeckt __ __ __ __ __ __ __ __ __ __ __ __ __
 72
    65
 73
     2
 40
0.375
 49
0.25
 49
-0.125
  0
ENDTAB
  0
TABLE
  2
LAYER
 70
     6
  0
LAYER
  2
0
 70
     0
 62
     7
  6
CONTINUOUS
  0
LAYER
  2
VOLL
 70
     0
 62
     1
  6
CONTINUOUS
  0
LAYER
  2
STEMPEL
 70
     0
 62
     3
  6
CONTINUOUS
  0
LAYER
  2
ADSK_ASSOC_ENTITY_BACKUPS
 70
     1
 62
    -7
  6
CONTINUOUS
  0
ENDTAB
  0
TABLE
  2
STYLE
 70
     3
  0
STYLE
  2
STANDARD
 70
     0
 40
0.0
 41
0.8
 50
0.0
 71
     0
 42
3.5
  3
simplex.shx
  4

  0
STYLE
  2
GREEKS
 70
     0
 40
0.0
 41
0.8
 50
0.0
 71
     0
 42
2.5
  3
SIMPLEX.shx
  4

  0
ENDTAB
  0
TABLE
  2
VIEW
 70
     0
  0
ENDTAB
  0
TABLE
  2
UCS
 70
     0
  0
ENDTAB
  0
TABLE
  2
APPID
 70
    23
  0
APPID
  2
ACAD
 70
     0
  0
APPID
  2
ACAD_NAV_VCDISPLAY
 70
     0
  0
APPID
  2
ACAD_PSEXT
 70
     0
  0
APPID
  2
ACAECLAYERSTANDARD
 70
     0
  0
APPID
  2
ACCMTRANSPARENCY
 70
     0
  0
APPID
  2
ACADANNOMONITORALERTICONDI
 70
     0
  0
APPID
  2
ACAD_EXEMPT_FROM_CAD_STANDARDS
 70
     0
  0
APPID
  2
ACAD_MLEADERVER
 70
     0
  0
APPID
  2
ACAD_OBJECT_CHANGE_GUID
 70
     0
  0
APPID
  2
ACAD_STEPID
 70
     0
  0
APPID
  2
ACSYNERGY
 70
     0
  0
APPID
  2
SYNERGY_BODY_TBR_ID
 70
     0
  0
APPID
  2
ACAD_VIEW_EDGE_ID
 70
     0
  0
APPID
  2
ACSYNERGYSKETCH
 70
     0
  0
APPID
  2
ACAD_MODELDOC_XFORM
 70
     0
  0
APPID
  2
GRADIENTCOLOR1ACI
 70
     0
  0
APPID
  2
GRADIENTCOLOR2ACI
 70
     0
  0
APPID
  2
ACAD_DSTYLE_DIMJAG
 70
     0
  0
APPID
  2
ACAD_DSTYLE_DIMTALN
 70
     0
  0
APPID
  2
ACAD_DSTYLE_DIMRADIAL_EXTENSION
 70
     0
  0
APPID
  2
ACAD_DSTYLE_DIMBREAK
 70
     0
  0
APPID
  2
ACDBDYNAMICBLOCKGUID
 70
     0
  0
APPID
  2
ACADANNOPO
 70
     0
  0
ENDTAB
  0
TABLE
  2
DIMSTYLE
 70
     1
  0
DIMSTYLE
  2
LORO
 70
     0
  3

  4

  5

  6

  7

 40
1.0
 41
3.5
 42
1.0
 43
0.38
 44
1.0
 45
0.0
 46
0.0
 47
0.0
 48
0.000000001
140
3.5
141
0.09
142
0.0
143
25.3999999999999986
144
2.0
145
0.0
146
0.5
147
1.5
 71
     0
 72
     0
 73
     0
 74
     0
 75
     0
 76
     0
 77
     1
 78
     8
170
     0
171
     2
172
     1
173
     0
174
     0
175
     0
176
     0
177
     0
178
     1
  0
ENDTAB
  0
ENDSEC
  0
SECTION
  2
BLOCKS
  0
BLOCK
  8
0
  2
$MODEL_SPACE
 70
     0
 10
0.0
 20
0.0
 30
0.0
  3
$MODEL_SPACE
  1

  0
ENDBLK
  5
36
  8
0
  0
BLOCK
 67
     1
  8
0
  2
$PAPER_SPACE
 70
     0
 10
0.0
 20
0.0
 30
0.0
  3
$PAPER_SPACE
  1

  0
ENDBLK
  5
2438
 67
     1
  8
0
  0
BLOCK
  8
0
  2
*S0
 70
     1
 10
0.0
 20
0.0
 30
0.0
  3
*S0
  1

  0
ENDBLK
  5
1AA8
  8
0
  0
BLOCK
  8
0
  2
A$CC32DBE16
 70
     0
 10
0.0
 20
0.0
 30
0.0
  3
A$CC32DBE16
  1

  0
CIRCLE
  5
3FD4
  8
0
  6
CONTINUOUS
 62
     3
 10
0.0000000000000423
 20
-90.0
 30
0.0
 40
3.0000000000000422
  0
CIRCLE
  5
3FD5
  8
0
  6
CONTINUOUS
 62
     3
 10
-89.9999999999999432
 20
0.0000000000000127
 30
0.0000000000000284
 40
3.0000000000000422
  0
CIRCLE
  5
3FD6
  8
0
  6
CONTINUOUS
 62
     3
 10
0.0000000000000643
 20
90.0
 30
0.0
 40
3.0000000000000422
  0
CIRCLE
  5
3FD7
  8
0
  6
CONTINUOUS
 62
     3
 10
90.0000000000000568
 20
0.0000000000000017
 30
-0.0000000000000284
 40
3.0000000000000422
  0
CIRCLE
  5
3FD8
  8
0
  6
CONTINUOUS
 62
     3
 10
0.0000000000000645
 20
0.0000000000000001
 30
0.0
 40
40.5
  0
CIRCLE
  5
3FD9
  8
0
  6
CONTINUOUS
 62
     3
 10
0.000000000000059
 20
0.0000000000000016
 30
0.0
 40
115.0
  0
CIRCLE
  5
3FDA
  8
0
  6
CONTINUOUS
 62
     3
 10
0.0000000000000606
 20
0.0000000000000012
 30
0.0
 40
51.5
  0
CIRCLE
  5
3FDB
  8
0
  6
CONTINUOUS
 62
     3
 10
-0.0000000000001581
 20
-0.0000000000000138
 30
0.0
 40
34.8999999999999773
  0
CIRCLE
  5
3FDC
  8
0
  6
CONTINUOUS
 62
     3
 10
0.0
 20
-0.000000000000026
 30
0.0
 40
34.2936678383716682
  0
CIRCLE
  5
3FDD
  8
0
  6
VERDECKT
 62
     1
 10
0.0000000000000425
 20
-90.0
 30
0.0
 40
4.0606601717798263
  0
CIRCLE
  5
3FDE
  8
0
  6
VERDECKT
 62
     1
 10
-89.9999999999999432
 20
0.0000000000000126
 30
0.0000000000000284
 40
4.0606601717798263
  0
CIRCLE
  5
3FDF
  8
0
  6
VERDECKT
 62
     1
 10
0.0000000000000646
 20
90.0
 30
0.0
 40
4.0606601717798263
  0
CIRCLE
  5
3FE0
  8
0
  6
VERDECKT
 62
     1
 10
90.0000000000000568
 20
0.0000000000000016
 30
-0.0000000000000284
 40
4.0606601717798263
  0
CIRCLE
  5
3FE1
  8
0
  6
VERDECKT
 62
     1
 10
0.0000000000000593
 20
0.0000000000000015
 30
0.0
 40
114.3660726073889009
  0
CIRCLE
  5
3FE2
  8
0
  6
VERDECKT
 62
     1
 10
0.0000000000000619
 20
0.0000000000000008
 30
0.0
 40
52.0432604829181713
  0
CIRCLE
  5
3FE3
  8
0
  6
VERDECKT
 62
     1
 10
0.0000000000000606
 20
0.0000000000000012
 30
0.0
 40
53.0
  0
CIRCLE
  5
3FE4
  8
0
  6
VERDECKT
 62
     1
 10
0.0000000000000619
 20
0.0000000000000008
 30
0.0
 40
53.5432604829181784
  0
CIRCLE
  5
3FE5
  8
0
  6
VERDECKT
 62
     1
 10
0.0
 20
-0.000000000000026
 30
0.0
 40
35.8875793553185076
  0
CIRCLE
  5
3FE6
  8
0
  6
VERDECKT
 62
     1
 10
-0.0000000000001581
 20
-0.0000000000000138
 30
0.0
 40
36.4999999999998934
  0
CIRCLE
  5
3FE7
  8
0
  6
VERDECKT
 62
     1
 10
-0.0000000000001624
 20
-0.0000000000000126
 30
0.0
 40
42.0277708421292502
  0
ENDBLK
  5
3FE9
  8
0
  0
BLOCK
  8
0
  2
A$C5BC5C4A4
 70
     0
 10
0.0
 20
0.0
 30
0.0
  3
A$C5BC5C4A4
  1

  0
LINE
  5
3FED
  8
0
  6
CONTINUOUS
 62
     3
 10
-44.9240392719523314
 20
220.0000000000001137
 30
-0.0000000000000488
 11
44.924039271952573
 21
220.0000000000001137
 31
-0.0000000000000488
210
0.0
220
1.0
230
-0.0000000000000002
  0
LINE
  5
3FEE
  8
0
  6
CONTINUOUS
 62
     3
 10
-106.5277563916409065
 20
250.0000000000001137
 30
-0.0000000000000555
 11
106.5277563916412049
 21
250.0000000000001137
 31
-0.0000000000000555
210
0.0
220
1.0
230
-0.0000000000000002
  0
LINE
  5
3FEF
  8
0
  6
CONTINUOUS
 62
     3
 10
-114.9999999999999005
 20
246.3594616805551141
 30
-0.0000000000000547
 11
115.0000000000000995
 21
246.3594616805551141
 31
-0.0000000000000547
210
0.0
220
1.0
230
-0.0000000000000002
  0
LINE
  5
3FF0
  8
0
  6
CONTINUOUS
 62
     3
 10
-114.3660726073888014
 20
245.0000000000001137
 30
-0.0000000000000544
 11
114.3660726073890004
 21
245.0000000000001137
 31
-0.0000000000000544
210
0.0
220
1.0
230
-0.0000000000000002
  0
ARC
  5
3FF1
  8
0
  6
CONTINUOUS
 62
     3
 10
106.5277563916409065
 20
247.0000000000001137
 30
0.0
 40
3.000000000000032
210
0.0
220
-0.0000000000000002
230
-1.0
 50
64.9999999999997016
 51
89.99999999999946
  0
ARC
  5
3FF2
  8
0
  6
CONTINUOUS
 62
     3
 10
-106.5277563916411054
 20
247.0000000000001137
 30
0.0
 40
3.0000000000000271
210
0.0
220
-0.0000000000000002
230
-1.0
 50
90.0000000000005542
 51
115.0000000000002984
  0
LINE
  5
3FF3
  8
0
  6
CONTINUOUS
 62
     3
 10
107.7956111768633036
 20
249.718923361110086
 30
-0.0000000000000554
 11
115.0000000000000995
 21
246.3594616805551141
 31
-0.0000000000000547
210
0.0
220
1.0
230
-0.0000000000000002
  0
LINE
  5
3FF4
  8
0
  6
CONTINUOUS
 62
     3
 10
-107.7956111768630052
 20
249.718923361110086
 30
-0.0000000000000554
 11
-114.9999999999999005
 21
246.3594616805551141
 31
-0.0000000000000547
210
0.0
220
1.0
230
-0.0000000000000002
  0
LINE
  5
3FF5
  8
0
  6
CONTINUOUS
 62
     3
 10
-114.3660726073888014
 20
245.0000000000001137
 30
-0.0000000000000544
 11
-114.9999999999999005
 21
246.3594616805551141
 31
-0.0000000000000547
210
0.0
220
1.0
230
-0.0000000000000002
  0
LINE
  5
3FF6
  8
0
  6
CONTINUOUS
 62
     3
 10
114.3660726073890004
 20
245.0000000000001137
 30
-0.0000000000000544
 11
115.0000000000000995
 21
246.3594616805551141
 31
-0.0000000000000547
210
0.0
220
1.0
230
-0.0000000000000002
  0
LINE
  5
3FF7
  8
0
  6
CONTINUOUS
 62
     3
 10
-55.4999999999998792
 20
243.2472232502674956
 30
-0.000000000000054
 11
-58.5358983848621079
 21
245.0000000000001137
 31
-0.0000000000000544
210
0.0
220
1.0
230
-0.0000000000000002
  0
LINE
  5
3FF8
  8
0
  6
CONTINUOUS
 62
     3
 10
55.5000000000001066
 20
243.2472232502674956
 30
-0.000000000000054
 11
58.5358983848623282
 21
245.0000000000001137
 31
-0.0000000000000544
210
0.0
220
1.0
230
-0.0000000000000002
  0
ARC
  5
3FF9
  8
0
  6
CONTINUOUS
 62
     3
 10
57.9999999999998579
 20
238.917096231345397
 30
0.0
 40
4.9999999999999742
210
0.0
220
-0.0000000000000002
230
-1.0
 50
119.9999999999997016
 51
191.204991979921914
  0
ARC
  5
3FFA
  8
0
  6
CONTINUOUS
 62
     3
 10
-58.0000000000001279
 20
238.9170962313453117
 30
0.0
 40
5.0000000000000062
210
0.0
220
-0.0000000000000002
230
-1.0
 50
348.7950080200786829
 51
59.9999999999999218
  0
ARC
  5
3FFB
  8
0
  6
CONTINUOUS
 62
     3
 10
30.0432604829181713
 20
233.3789814280900998
 30
0.0
 40
23.4999999999999005
210
0.0
220
-0.0000000000000002
230
-1.0
 50
338.4424036881885058
 51
11.2049919799214202
  0
ARC
  5
3FFC
  8
0
  6
CONTINUOUS
 62
     3
 10
-30.0432604829182104
 20
233.3789814280900998
 30
0.0
 40
23.5000000000000817
210
0.0
220
-0.0000000000000002
230
-1.0
 50
168.7950080200787113
 51
201.5575963118114089
  0
ARC
  5
3FFD
  8
0
  6
CONTINUOUS
 62
     3
 10
44.9240392719523527
 20
227.5000000000001137
 30
0.0
 40
7.5
210
0.0
220
-0.0000000000000002
230
-1.0
 50
270.0
 51
338.4424036881883922
  0
ARC
  5
3FFE
  8
0
  6
CONTINUOUS
 62
     3
 10
-44.924039271952573
 20
227.5000000000001137
 30
0.0
 40
7.5000000000000044
210
0.0
220
-0.0000000000000002
230
-1.0
 50
201.5575963118116078
 51
270.0
  0
LINE
  5
3FFF
  8
0
  6
CONTINUOUS
 62
     3
 10
35.8875793553185076
 20
0.0
 30
0.0
 11
-35.8875793553185076
 21
0.0
 31
0.0
210
0.0
220
1.0
230
-0.0000000000000002
  0
LINE
  5
4000
  8
0
  6
CONTINUOUS
 62
     3
 10
-42.027770842129371
 20
219.5246935157821042
 30
-0.0000000000000487
 11
42.0277708421291365
 21
219.5246935157821042
 31
-0.0000000000000487
210
0.0
220
1.0
230
-0.0000000000000002
  0
ARC
  5
4001
  8
0
  6
CONTINUOUS
 62
     3
 10
-35.4999999999994174
 20
7.0436609429112229
 30
0.0
 40
1.0000000000006961
210
0.0
220
-0.0000000000000002
230
-1.0
 50
179.9999999999994884
 51
184.9999999999959925
  0
ARC
  5
4002
  8
0
  6
CONTINUOUS
 62
     3
 10
35.49999999999946
 20
7.0436609429112229
 30
0.0
 40
1.0000000000006599
210
0.0
220
-0.0000000000000002
230
-1.0
 50
355.0000000000038085
 51
0.0000000000005216
  0
LINE
  5
4003
  8
0
  6
CONTINUOUS
 62
     3
 10
-35.8875793553184792
 20
0.0000000000000031
 30
0.0
 11
-36.4961946980918626
 21
6.9565052001635719
 31
-0.0000000000000015
210
0.0
220
1.0
230
-0.0000000000000002
  0
LINE
  5
4004
  8
0
  6
CONTINUOUS
 62
     3
 10
35.8875793553184792
 20
0.0000000000000031
 30
0.0
 11
36.4961946980918626
 21
6.9565052001635719
 31
-0.0000000000000015
210
0.0
220
1.0
230
-0.0000000000000002
  0
LINE
  5
4005
  8
0
  6
CONTINUOUS
 62
     3
 10
-36.5000000000001066
 20
7.0436609429112318
 30
-0.0000000000000016
 11
-36.5000000000001066
 21
199.9332986616871892
 31
-0.0000000000000444
210
0.0
220
1.0
230
-0.0000000000000002
  0
LINE
  5
4006
  8
0
  6
CONTINUOUS
 62
     3
 10
36.5000000000001066
 20
7.0436609429112318
 30
-0.0000000000000016
 11
36.5000000000001066
 21
199.9332986616871892
 31
-0.0000000000000444
210
0.0
220
1.0
230
-0.0000000000000002
  0
LINE
  5
4007
  8
0
  6
CONTINUOUS
 62
     3
 10
40.4999999999998934
 20
220.0000000000001137
 30
-0.0000000000000488
 11
42.0277708421291507
 21
219.5246935157821042
 31
-0.0000000000000487
210
0.0
220
1.0
230
-0.0000000000000002
  0
LINE
  5
4008
  8
0
  6
CONTINUOUS
 62
     3
 10
-40.5000000000001208
 20
220.0000000000001137
 30
-0.0000000000000488
 11
-42.0277708421293781
 21
219.5246935157821042
 31
-0.0000000000000487
210
0.0
220
1.0
230
-0.0000000000000002
  0
LINE
  5
4009
  8
0
  6
CONTINUOUS
 62
     3
 10
-37.0417186840305774
 20
203.4980972933221892
 30
-0.0000000000000452
 11
-42.0277708421293781
 21
219.5246935157821042
 31
-0.0000000000000487
210
0.0
220
1.0
230
-0.0000000000000002
  0
LINE
  5
400A
  8
0
  6
CONTINUOUS
 62
     3
 10
37.0417186840303501
 20
203.4980972933221892
 30
-0.0000000000000452
 11
42.0277708421291507
 21
219.5246935157821042
 31
-0.0000000000000487
210
0.0
220
1.0
230
-0.0000000000000002
  0
ARC
  5
400B
  8
0
  6
CONTINUOUS
 62
     3
 10
48.4999999999977334
 20
199.9332986616875871
 30
0.0
 40
11.9999999999977192
210
0.0
220
-0.0000000000000002
230
-1.0
 50
162.7185016281819969
 51
180.0000000000021032
  0
ARC
  5
400C
  8
0
  6
CONTINUOUS
 62
     3
 10
-48.4999999999974989
 20
199.9332986616875871
 30
0.0
 40
11.9999999999977192
210
0.0
220
-0.0000000000000002
230
-1.0
 50
359.9999999999977831
 51
17.2814983718179711
  0
LINE
  5
400D
  8
0
  6
VERDECKT
 62
     1
 10
-4.060660171779725
 20
246.0000000000001137
 30
-0.0000000000000546
 11
0.0000000000000968
 21
246.0000000000001137
 31
-0.0000000000000546
210
0.0
220
1.0
230
-0.0000000000000002
  0
LINE
  5
400E
  8
0
  6
VERDECKT
 62
     1
 10
0.0000000000000974
 20
246.0000000000001137
 30
-0.0000000000000546
 11
4.0606601717799231
 21
246.0000000000001137
 31
-0.0000000000000546
210
0.0
220
1.0
230
-0.0000000000000002
  0
LINE
  5
400F
  8
0
  6
VERDECKT
 62
     1
 10
-2.999999999999944
 20
247.0606601717798867
 30
-0.0000000000000549
 11
0.0000000000000968
 21
247.0606601717798867
 31
-0.0000000000000549
210
0.0
220
1.0
230
-0.0000000000000002
  0
LINE
  5
4010
  8
0
  6
VERDECKT
 62
     1
 10
0.0000000000000977
 20
247.0606601717798867
 30
-0.0000000000000549
 11
3.000000000000139
 21
247.0606601717798867
 31
-0.0000000000000549
210
0.0
220
1.0
230
-0.0000000000000002
  0
LINE
  5
4011
  8
0
  6
VERDECKT
 62
     1
 10
-94.0606601717797162
 20
246.0000000000001137
 30
-0.0000000000000546
 11
-85.9393398282200565
 21
246.0000000000001137
 31
-0.0000000000000546
210
0.0
220
1.0
230
-0.0000000000000002
  0
LINE
  5
4012
  8
0
  6
VERDECKT
 62
     1
 10
-92.9999999999999289
 20
247.0606601717798867
 30
-0.0000000000000549
 11
-86.9999999999998437
 21
247.0606601717798867
 31
-0.0000000000000549
210
0.0
220
1.0
230
-0.0000000000000002
  0
LINE
  5
4013
  8
0
  6
VERDECKT
 62
     1
 10
85.9393398282202838
 20
246.0000000000001137
 30
-0.0000000000000546
 11
94.0606601717799435
 21
246.0000000000001137
 31
-0.0000000000000546
210
0.0
220
1.0
230
-0.0000000000000002
  0
LINE
  5
4014
  8
0
  6
VERDECKT
 62
     1
 10
87.0000000000000853
 20
247.0606601717798867
 30
-0.0000000000000549
 11
93.0000000000001563
 21
247.0606601717798867
 31
-0.0000000000000549
210
0.0
220
1.0
230
-0.0000000000000002
  0
LINE
  5
4015
  8
0
  6
VERDECKT
 62
     1
 10
-44.9240392719523314
 20
221.5000000000001137
 30
-0.0000000000000492
 11
44.924039271952573
 21
221.5000000000001137
 31
-0.0000000000000492
210
0.0
220
1.0
230
-0.0000000000000002
  0
LINE
  5
4016
  8
0
  6
VERDECKT
 62
     1
 10
-106.527756391641006
 20
248.5000000000001137
 30
-0.0000000000000552
 11
106.5277563916412049
 21
248.5000000000001137
 31
-0.0000000000000552
210
0.0
220
1.0
230
-0.0000000000000002
  0
ARC
  5
4017
  8
0
  6
VERDECKT
 62
     1
 10
7.1819805153393617
 20
247.0000000000001137
 30
0.0
 40
1.5
210
0.0
220
-0.0000000000000002
230
-1.0
 50
89.9999999999999432
 51
134.9999999999994031
  0
ARC
  5
4018
  8
0
  6
VERDECKT
 62
     1
 10
-7.1819805153395544
 20
247.0000000000001137
 30
0.0
 40
1.499999999999974
210
0.0
220
-0.0000000000000002
230
-1.0
 50
44.9999999999999076
 51
90.0000000000001137
  0
LINE
  5
4019
  8
0
  6
VERDECKT
 62
     1
 10
-4.060660171779741
 20
246.0000000000001137
 30
-0.0000000000000546
 11
-6.1213203435595327
 21
248.0606601717798867
 31
-0.0000000000000551
210
0.0
220
1.0
230
-0.0000000000000002
  0
LINE
  5
401A
  8
0
  6
VERDECKT
 62
     1
 10
4.0606601717799338
 20
246.0000000000001137
 30
-0.0000000000000546
 11
6.1213203435597272
 21
248.0606601717798867
 31
-0.0000000000000551
210
0.0
220
1.0
230
-0.0000000000000002
  0
LINE
  5
401B
  8
0
  6
VERDECKT
 62
     1
 10
3.0000000000001532
 20
247.0606601717798867
 30
-0.0000000000000549
 11
4.0606601717799178
 21
246.0000000000001137
 31
-0.0000000000000546
210
0.0
220
1.0
230
-0.0000000000000002
  0
LINE
  5
401C
  8
0
  6
VERDECKT
 62
     1
 10
-2.9999999999999591
 20
247.0606601717798867
 30
-0.0000000000000549
 11
-4.0606601717797242
 21
246.0000000000001137
 31
-0.0000000000000546
210
0.0
220
1.0
230
-0.0000000000000002
  0
LINE
  5
401D
  8
0
  6
VERDECKT
 62
     1
 10
-2.9999999999999321
 20
247.0606601717798867
 30
-0.0000000000000549
 11
-5.060660171779781
 21
249.1213203435596881
 31
-0.0000000000000553
210
0.0
220
1.0
230
-0.0000000000000002
  0
LINE
  5
401E
  8
0
  6
VERDECKT
 62
     1
 10
3.0000000000001261
 20
247.0606601717798867
 30
-0.0000000000000549
 11
5.0606601717799746
 21
249.1213203435596881
 31
-0.0000000000000553
210
0.0
220
1.0
230
-0.0000000000000002
  0
ARC
  5
401F
  8
0
  6
VERDECKT
 62
     1
 10
7.1819805153394043
 20
247.000000000000199
 30
0.0
 40
2.9999999999999138
210
0.0
220
-0.0000000000000002
230
-1.0
 50
89.9999999999994031
 51
135.0000000000009095
  0
ARC
  5
4020
  8
0
  6
VERDECKT
 62
     1
 10
-7.1819805153395961
 20
247.000000000000199
 30
0.0
 40
2.9999999999999121
210
0.0
220
-0.0000000000000002
230
-1.0
 50
44.9999999999990479
 51
90.0000000000006253
  0
ARC
  5
4021
  8
0
  6
VERDECKT
 62
     1
 10
97.1819805153393332
 20
247.0000000000001137
 30
0.0
 40
1.4999999999999709
210
0.0
220
-0.0000000000000002
230
-1.0
 50
89.99999999999946
 51
135.0
  0
ARC
  5
4022
  8
0
  6
VERDECKT
 62
     1
 10
82.8180194846604536
 20
247.0000000000001137
 30
0.0
 40
1.4999999999999709
210
0.0
220
-0.0000000000000002
230
-1.0
 50
45.0000000000000071
 51
90.0000000000005542
  0
LINE
  5
4023
  8
0
  6
VERDECKT
 62
     1
 10
-94.0606601717797162
 20
246.0000000000001137
 30
-0.0000000000000546
 11
-96.1213203435595034
 21
248.0606601717798867
 31
-0.0000000000000551
210
0.0
220
1.0
230
-0.0000000000000002
  0
LINE
  5
4024
  8
0
  6
VERDECKT
 62
     1
 10
-85.9393398282200422
 20
246.0000000000001137
 30
-0.0000000000000546
 11
-83.878679656440255
 21
248.0606601717798867
 31
-0.0000000000000551
210
0.0
220
1.0
230
-0.0000000000000002
  0
LINE
  5
4025
  8
0
  6
VERDECKT
 62
     1
 10
-86.9999999999998295
 20
247.0606601717798867
 30
-0.0000000000000549
 11
-85.9393398282200565
 21
246.0000000000001137
 31
-0.0000000000000546
210
0.0
220
1.0
230
-0.0000000000000002
  0
LINE
  5
4026
  8
0
  6
VERDECKT
 62
     1
 10
-92.9999999999999432
 20
247.0606601717798867
 30
-0.0000000000000549
 11
-94.0606601717797304
 21
246.0000000000001137
 31
-0.0000000000000546
210
0.0
220
1.0
230
-0.0000000000000002
  0
LINE
  5
4027
  8
0
  6
VERDECKT
 62
     1
 10
-92.9999999999999289
 20
247.0606601717798867
 30
-0.0000000000000549
 11
-95.0606601717797588
 21
249.1213203435596881
 31
-0.0000000000000553
210
0.0
220
1.0
230
-0.0000000000000002
  0
LINE
  5
4028
  8
0
  6
VERDECKT
 62
     1
 10
-86.9999999999998437
 20
247.0606601717798867
 30
-0.0000000000000549
 11
-84.9393398282199854
 21
249.1213203435596881
 31
-0.0000000000000553
210
0.0
220
1.0
230
-0.0000000000000002
  0
ARC
  5
4029
  8
0
  6
VERDECKT
 62
     1
 10
97.1819805153393901
 20
247.000000000000199
 30
0.0
 40
2.9999999999999138
210
0.0
220
-0.0000000000000002
230
-1.0
 50
89.99999999999946
 51
135.0000000000009095
  0
ARC
  5
402A
  8
0
  6
VERDECKT
 62
     1
 10
82.8180194846603683
 20
247.000000000000199
 30
0.0
 40
2.999999999999913
210
0.0
220
-0.0000000000000002
230
-1.0
 50
44.9999999999990479
 51
90.0000000000005542
  0
ARC
  5
402B
  8
0
  6
VERDECKT
 62
     1
 10
-82.8180194846606668
 20
247.0000000000001137
 30
0.0
 40
1.4999999999999709
210
0.0
220
-0.0000000000000002
230
-1.0
 50
89.99999999999946
 51
135.0
  0
ARC
  5
402C
  8
0
  6
VERDECKT
 62
     1
 10
-97.1819805153395606
 20
247.0000000000001137
 30
0.0
 40
1.4999999999999709
210
0.0
220
-0.0000000000000002
230
-1.0
 50
45.0000000000000071
 51
90.0000000000005542
  0
LINE
  5
402D
  8
0
  6
VERDECKT
 62
     1
 10
85.9393398282202838
 20
246.0000000000001137
 30
-0.0000000000000546
 11
83.8786796564404824
 21
248.0606601717798867
 31
-0.0000000000000551
210
0.0
220
1.0
230
-0.0000000000000002
  0
LINE
  5
402E
  8
0
  6
VERDECKT
 62
     1
 10
94.0606601717799435
 20
246.0000000000001137
 30
-0.0000000000000546
 11
96.121320343559745
 21
248.0606601717798867
 31
-0.0000000000000551
210
0.0
220
1.0
230
-0.0000000000000002
  0
LINE
  5
402F
  8
0
  6
VERDECKT
 62
     1
 10
93.0000000000001563
 20
247.0606601717798867
 30
-0.0000000000000549
 11
94.0606601717799578
 21
246.0000000000001137
 31
-0.0000000000000546
210
0.0
220
1.0
230
-0.0000000000000002
  0
LINE
  5
4030
  8
0
  6
VERDECKT
 62
     1
 10
87.0000000000000568
 20
247.0606601717798867
 30
-0.0000000000000549
 11
85.9393398282202838
 21
246.0000000000001137
 31
-0.0000000000000546
210
0.0
220
1.0
230
-0.0000000000000002
  0
LINE
  5
4031
  8
0
  6
VERDECKT
 62
     1
 10
87.0000000000000853
 20
247.0606601717798867
 30
-0.0000000000000549
 11
84.939339828220227
 21
249.1213203435596881
 31
-0.0000000000000553
210
0.0
220
1.0
230
-0.0000000000000002
  0
LINE
  5
4032
  8
0
  6
VERDECKT
 62
     1
 10
93.0000000000001563
 20
247.0606601717798867
 30
-0.0000000000000549
 11
95.0606601717800004
 21
249.1213203435596881
 31
-0.0000000000000553
210
0.0
220
1.0
230
-0.0000000000000002
  0
ARC
  5
4033
  8
0
  6
VERDECKT
 62
     1
 10
-82.8180194846605957
 20
247.000000000000199
 30
0.0
 40
2.9999999999999138
210
0.0
220
-0.0000000000000002
230
-1.0
 50
89.99999999999946
 51
135.0000000000009095
  0
ARC
  5
4034
  8
0
  6
VERDECKT
 62
     1
 10
-97.1819805153396175
 20
247.000000000000199
 30
0.0
 40
2.999999999999913
210
0.0
220
-0.0000000000000002
230
-1.0
 50
44.9999999999990479
 51
90.0000000000005542
  0
LINE
  5
4035
  8
0
  6
VERDECKT
 62
     1
 10
40.5000000000001208
 20
221.5000000000001137
 30
-0.0000000000000492
 11
40.5000000000001208
 21
220.0000000000001137
 31
-0.0000000000000488
210
0.0
220
1.0
230
-0.0000000000000002
  0
LINE
  5
4036
  8
0
  6
VERDECKT
 62
     1
 10
-40.4999999999998934
 20
221.5000000000001137
 30
-0.0000000000000492
 11
-40.4999999999998934
 21
220.0000000000001137
 31
-0.0000000000000488
210
0.0
220
1.0
230
-0.0000000000000002
  0
ARC
  5
4037
  8
0
  6
VERDECKT
 62
     1
 10
44.9240392719523314
 20
227.5000000000001137
 30
0.0
 40
6.0000000000000284
210
0.0
220
-0.0000000000000002
230
-1.0
 50
270.0000000000001137
 51
338.4424036881882785
  0
ARC
  5
4038
  8
0
  6
VERDECKT
 62
     1
 10
-44.9240392719525587
 20
227.5000000000001137
 30
0.0
 40
6.0000000000000204
210
0.0
220
-0.0000000000000002
230
-1.0
 50
201.5575963118116078
 51
269.9999999999997726
  0
ARC
  5
4039
  8
0
  6
VERDECKT
 62
     1
 10
30.0432604829181393
 20
233.3789814280900998
 30
0.0
 40
21.9999999999999183
210
0.0
220
-0.0000000000000002
230
-1.0
 50
338.4424036881885058
 51
11.20499197992139
  0
ARC
  5
403A
  8
0
  6
VERDECKT
 62
     1
 10
-30.0432604829183596
 20
233.3789814280900998
 30
0.0
 40
21.9999999999999289
210
0.0
220
-0.0000000000000002
230
-1.0
 50
168.7950080200785123
 51
201.5575963118116078
  0
ARC
  5
403B
  8
0
  6
VERDECKT
 62
     1
 10
57.9999999999998579
 20
238.9170962313453117
 30
0.0
 40
6.4999999999999813
210
0.0
220
-0.0000000000000002
230
-1.0
 50
119.999999999999801
 51
191.2049919799212034
  0
ARC
  5
403C
  8
0
  6
VERDECKT
 62
     1
 10
-58.0000000000000711
 20
238.9170962313453117
 30
0.0
 40
6.499999999999952
210
0.0
220
-0.0000000000000002
230
-1.0
 50
348.795008020078626
 51
60.0000000000002416
  0
LINE
  5
403D
  8
0
  6
VERDECKT
 62
     1
 10
-54.7499999999998792
 20
244.5462613559442104
 30
-0.0000000000000543
 11
-63.4999999999998934
 21
249.5980762113534013
 31
-0.0000000000000554
210
0.0
220
1.0
230
-0.0000000000000002
  0
LINE
  5
403E
  8
0
  6
VERDECKT
 62
     1
 10
54.7500000000001066
 20
244.5462613559442104
 30
-0.0000000000000543
 11
63.5000000000001066
 21
249.5980762113534013
 31
-0.0000000000000554
210
0.0
220
1.0
230
-0.0000000000000002
  0
ARC
  5
403F
  8
0
  6
VERDECKT
 62
     1
 10
64.9999999999999147
 20
246.9999999999998863
 30
0.0
 40
3.0000000000001981
210
0.0
220
-0.0000000000000002
230
-1.0
 50
90.00000000000081
 51
119.9999999999988063
  0
ARC
  5
4040
  8
0
  6
VERDECKT
 62
     1
 10
-65.0000000000001563
 20
246.9999999999998863
 30
0.0
 40
3.0000000000001932
210
0.0
220
-0.0000000000000002
230
-1.0
 50
60.0000000000012008
 51
89.9999999999992042
  0
LINE
  5
4041
  8
0
  6
VERDECKT
 62
     1
 10
107.1616837842522045
 20
248.3594616805550004
 30
-0.0000000000000551
 11
114.3660726073890004
 21
245.0000000000001137
 31
-0.0000000000000544
210
0.0
220
1.0
230
-0.0000000000000002
  0
LINE
  5
4042
  8
0
  6
VERDECKT
 62
     1
 10
-107.1616837842520056
 20
248.3594616805550004
 30
-0.0000000000000551
 11
-114.3660726073888014
 21
245.0000000000001137
 31
-0.0000000000000544
210
0.0
220
1.0
230
-0.0000000000000002
  0
ARC
  5
4043
  8
0
  6
VERDECKT
 62
     1
 10
106.527756391641006
 20
247.0000000000001137
 30
0.0
 40
1.499999999999968
210
0.0
220
-0.0000000000000002
230
-1.0
 50
64.9999999999997442
 51
90.0000000000000284
  0
ARC
  5
4044
  8
0
  6
VERDECKT
 62
     1
 10
-106.5277563916412049
 20
247.0000000000001137
 30
0.0
 40
1.4999999999999709
210
0.0
220
-0.0000000000000002
230
-1.0
 50
90.0
 51
115.0000000000002984
  0
ARC
  5
4045
  8
0
  6
VERDECKT
 62
     1
 10
64.9999999999997868
 20
247.0000000000005116
 30
0.0
 40
1.4999999999996301
210
0.0
220
-0.0000000000000002
230
-1.0
 50
89.9999999999972857
 51
120.0000000000037943
  0
ARC
  5
4046
  8
0
  6
VERDECKT
 62
     1
 10
-65.0000000000000142
 20
247.0000000000005116
 30
0.0
 40
1.4999999999996301
210
0.0
220
-0.0000000000000002
230
-1.0
 50
59.9999999999962412
 51
90.0000000000027285
  0
LINE
  5
4047
  8
0
  6
VERDECKT
 62
     1
 10
-58.5358983848621079
 20
245.0000000000001137
 30
-0.0000000000000544
 11
-64.2499999999998863
 21
248.2990381056766864
 31
-0.0000000000000551
210
0.0
220
1.0
230
-0.0000000000000002
  0
LINE
  5
4048
  8
0
  6
VERDECKT
 62
     1
 10
58.5358983848623282
 20
245.0000000000001137
 30
-0.0000000000000544
 11
64.2500000000001137
 21
248.2990381056766864
 31
-0.0000000000000551
210
0.0
220
1.0
230
-0.0000000000000002
  0
LINE
  5
4049
  8
0
  6
VERDECKT
 62
     1
 10
34.2936678383716682
 20
0.1394491883962701
 30
0.0
 11
-34.2936678383716682
 21
0.1394491883962701
 31
0.0
210
0.0
220
1.0
230
-0.0000000000000002
  0
ARC
  5
404A
  8
0
  6
VERDECKT
 62
     1
 10
-33.8999999999994017
 20
7.1135184515633716
 30
0.0
 40
1.0000000000006961
210
0.0
220
-0.0000000000000002
230
-1.0
 50
179.9999999999994884
 51
184.9999999999959925
  0
ARC
  5
404B
  8
0
  6
VERDECKT
 62
     1
 10
33.8999999999994301
 20
7.1135184515633716
 30
0.0
 40
1.0000000000006599
210
0.0
220
-0.0000000000000002
230
-1.0
 50
355.0000000000038085
 51
0.0000000000005216
  0
LINE
  5
404C
  8
0
  6
VERDECKT
 62
     1
 10
-34.9000000000000909
 20
7.1135184515633814
 30
-0.0000000000000016
 11
-34.9000000000000909
 21
199.9332986616871892
 31
-0.0000000000000444
210
0.0
220
1.0
230
-0.0000000000000002
  0
LINE
  5
404D
  8
0
  6
VERDECKT
 62
     1
 10
34.9000000000000909
 20
7.1135184515633814
 30
-0.0000000000000016
 11
34.9000000000000909
 21
199.9332986616871892
 31
-0.0000000000000444
210
0.0
220
1.0
230
-0.0000000000000002
  0
LINE
  5
404E
  8
0
  6
VERDECKT
 62
     1
 10
-34.2936678383717108
 20
0.139449188396267
 30
0.0
 11
-34.8961946980918398
 21
7.0263627088157232
 31
-0.0000000000000016
210
0.0
220
1.0
230
-0.0000000000000002
  0
LINE
  5
404F
  8
0
  6
VERDECKT
 62
     1
 10
34.2936678383717108
 20
0.139449188396267
 30
0.0
 11
34.8961946980918398
 21
7.0263627088157232
 31
-0.0000000000000016
210
0.0
220
1.0
230
-0.0000000000000002
  0
ARC
  5
4050
  8
0
  6
VERDECKT
 62
     1
 10
48.5000000000002629
 20
199.9332986616873029
 30
0.0
 40
13.6000000000001808
210
0.0
220
-0.0000000000000002
230
-1.0
 50
162.7185016281833896
 51
180.0000000000003979
  0
ARC
  5
4051
  8
0
  6
VERDECKT
 62
     1
 10
-48.5000000000003268
 20
199.9332986616873029
 30
0.0
 40
13.6000000000004704
210
0.0
220
-0.0000000000000002
230
-1.0
 50
359.9999999999996021
 51
17.2814983718162907
  0
LINE
  5
4052
  8
0
  6
VERDECKT
 62
     1
 10
-35.513947841901377
 20
203.9734037775403124
 30
-0.0000000000000453
 11
-40.5000000000000568
 21
220.0000000000001137
 31
-0.0000000000000488
210
0.0
220
1.0
230
-0.0000000000000002
  0
LINE
  5
4053
  8
0
  6
VERDECKT
 62
     1
 10
35.5139478419011496
 20
203.9734037775403124
 30
-0.0000000000000453
 11
40.4999999999998295
 21
220.0000000000001137
 31
-0.0000000000000488
210
0.0
220
1.0
230
-0.0000000000000002
  0
LINE
  5
4054
  8
0
  6
VERDECKT
 62
     1
 10
34.2936678383716682
 20
0.1394491883962701
 30
0.0
 11
35.8875793553185076
 21
0.0
 31
0.0
210
0.0
220
1.0
230
-0.0000000000000002
  0
LINE
  5
4055
  8
0
  6
VERDECKT
 62
     1
 10
-34.2936678383716682
 20
0.1394491883962701
 30
0.0
 11
-35.8875793553185076
 21
0.0
 31
0.0
210
0.0
220
1.0
230
-0.0000000000000002
  0
ENDBLK
  5
4057
  8
0
  0
ENDSEC
  0
SECTION
  2
ENTITIES
  0
TEXT
  5
8F
  8
VOLL
 10
78.076754716981128
 20
31.025947764705851
 30
0.0
 40
1.8
  1

  7
GREEKS
  0
INSERT
  5
1AAA
  8
ADSK_ASSOC_ENTITY_BACKUPS
  2
*S0
 10
0.0
 20
0.0
 30
0.0
  0
INSERT
  5
3FEA
  8
STEMPEL
  2
A$CC32DBE16
 10
0.0
 20
-165.0
 30
0.0
  0
INSERT
  5
4058
  8
STEMPEL
  2
A$C5BC5C4A4
 10
0.0
 20
0.0
 30
0.0
  0
VIEWPORT
  5
2443
 67
     1
  8
0
 10
145.4817050243210872
 20
205.705178721409311
 30
0.0
 40
790.2674510967764263
 41
422.1483375959078899
 68
     1
 69
     1
1001
ACAD
1000
MVIEW
1002
{
1070
    16
1010
0.0
1020
0.0
1030
0.0
1010
0.0
1020
0.0
1030
1.0
1040
0.0
1040
422.1483375959078899
1040
145.4817050243210872
1040
205.705178721409311
1040
50.0
1040
0.0
1040
0.0
1070
     0
1070
  1500
1070
     1
1070
     1
1070
     0
1070
     0
1070
     0
1070
     0
1040
0.0
1040
0.0
1040
0.0
1040
10.0
1040
10.0
1040
10.0
1040
10.0
1070
     0
1002
{
1002
}
1002
}
  0
ENDSEC
  0
EOF
