  0
SECTION
  2
HEADER
  9
$ACADVER
  1
AC1009
  9
$INSBASE
 10
0.0
 20
0.0
 30
0.0
  9
$EXTMIN
 10
1372.0765338447279191
 20
-83.3962587634630239
 30
-35.2687322939845913
  9
$EXTMAX
 10
1602.0765338447279191
 20
443.8858397751321831
 30
-35.2687322939845131
  9
$LIMMIN
 10
0.0
 20
0.0
  9
$LIMMAX
 10
419.9999999999998863
 20
594.0
  9
$ORTHOMODE
 70
     1
  9
$REGENMODE
 70
     1
  9
$FILLMODE
 70
     1
  9
$QTEXTMODE
 70
     0
  9
$MIRRTEXT
 70
     1
  9
$DRAGMODE
 70
     2
  9
$LTSCALE
 40
10.0
  9
$OSMODE
 70
  2495
  9
$ATTMODE
 70
     1
  9
$TEXTSIZE
 40
3.5
  9
$TRACEWID
 40
0.5
  9
$TEXTSTYLE
  7
STANDARD
  9
$CLAYER
  8
STEMPEL
  9
$CELTYPE
  6
BYLAYER
  9
$CECOLOR
 62
   256
  9
$DIMSCALE
 40
1.0
  9
$DIMASZ
 40
3.5
  9
$DIMEXO
 40
1.0
  9
$DIMDLI
 40
7.0
  9
$DIMRND
 40
0.0
  9
$DIMDLE
 40
0.0
  9
$DIMEXE
 40
1.0
  9
$DIMTP
 40
0.0
  9
$DIMTM
 40
0.0
  9
$DIMTXT
 40
3.5
  9
$DIMCEN
 40
1.5
  9
$DIMTSZ
 40
0.0
  9
$DIMTOL
 70
     0
  9
$DIMLIM
 70
     0
  9
$DIMTIH
 70
     0
  9
$DIMTOH
 70
     0
  9
$DIMSE1
 70
     0
  9
$DIMSE2
 70
     0
  9
$DIMTAD
 70
     1
  9
$DIMZIN
 70
     8
  9
$DIMBLK
  1

  9
$DIMASO
 70
     1
  9
$DIMSHO
 70
     0
  9
$DIMPOST
  1

  9
$DIMAPOST
  1

  9
$DIMALT
 70
     0
  9
$DIMALTD
 70
     2
  9
$DIMALTF
 40
25.3999999999999986
  9
$DIMLFAC
 40
2.0
  9
$DIMTOFL
 70
     1
  9
$DIMTVP
 40
0.0
  9
$DIMTIX
 70
     0
  9
$DIMSOXD
 70
     0
  9
$DIMSAH
 70
     0
  9
$DIMBLK1
  1

  9
$DIMBLK2
  1

  9
$DIMSTYLE
  2
STANDARD
  9
$DIMCLRD
 70
     0
  9
$DIMCLRE
 70
     0
  9
$DIMCLRT
 70
     1
  9
$DIMTFAC
 40
0.5142857142857143
  9
$DIMGAP
 40
1.5
  9
$LUNITS
 70
     2
  9
$LUPREC
 70
     2
  9
$SKETCHINC
 40
1.0
  9
$FILLETRAD
 40
8.0
  9
$AUNITS
 70
     0
  9
$AUPREC
 70
     0
  9
$MENU
  1
ACAD
  9
$ELEVATION
 40
0.0
  9
$PELEVATION
 40
0.0
  9
$THICKNESS
 40
0.0
  9
$LIMCHECK
 70
     0
  9
$BLIPMODE
 70
     0
  9
$CHAMFERA
 40
0.0
  9
$CHAMFERB
 40
0.0
  9
$SKPOLY
 70
     0
  9
$TDCREATE
 40
2455397.8646990740671754
  9
$TDUPDATE
 40
2459697.3707407410256565
  9
$TDINDWG
 40
0.4842328588
  9
$TDUSRTIMER
 40
0.4842328588
  9
$USRTIMER
 70
     1
  9
$ANGBASE
 50
0.0
  9
$ANGDIR
 70
     0
  9
$PDMODE
 70
     0
  9
$PDSIZE
 40
0.0
  9
$PLINEWID
 40
0.0
  9
$COORDS
 70
     1
  9
$SPLFRAME
 70
     0
  9
$SPLINETYPE
 70
     6
  9
$SPLINESEGS
 70
     8
  9
$ATTDIA
 70
     1
  9
$ATTREQ
 70
     1
  9
$HANDLING
 70
     1
  9
$HANDSEED
  5
3A7C
  9
$SURFTAB1
 70
     6
  9
$SURFTAB2
 70
     6
  9
$SURFTYPE
 70
     6
  9
$SURFU
 70
     6
  9
$SURFV
 70
     6
  9
$UCSNAME
  2

  9
$UCSORG
 10
0.0
 20
0.0
 30
0.0
  9
$UCSXDIR
 10
1.0
 20
0.0
 30
0.0
  9
$UCSYDIR
 10
0.0
 20
1.0
 30
0.0
  9
$PUCSNAME
  2

  9
$PUCSORG
 10
0.0
 20
0.0
 30
0.0
  9
$PUCSXDIR
 10
1.0
 20
0.0
 30
0.0
  9
$PUCSYDIR
 10
0.0
 20
1.0
 30
0.0
  9
$USERI1
 70
     0
  9
$USERI2
 70
     0
  9
$USERI3
 70
     0
  9
$USERI4
 70
     0
  9
$USERI5
 70
     0
  9
$USERR1
 40
0.0
  9
$USERR2
 40
0.0
  9
$USERR3
 40
0.0
  9
$USERR4
 40
0.0
  9
$USERR5
 40
0.0
  9
$WORLDVIEW
 70
     1
  9
$SHADEDGE
 70
     3
  9
$SHADEDIF
 70
    70
  9
$TILEMODE
 70
     1
  9
$MAXACTVP
 70
    16
  9
$PLIMCHECK
 70
     0
  9
$PEXTMIN
 10
-52.5560637325305606
 20
102.7209300174210966
 30
-0.0000000000112498
  9
$PEXTMAX
 10
62.4539304972076934
 20
227.7377149938735954
 30
0.0000000000002956
  9
$PLIMMIN
 10
-105.716746338840494
 20
-104.2025257616225957
  9
$PLIMMAX
 10
191.283253661159506
 20
315.7974742383773901
  9
$UNITMODE
 70
     0
  9
$VISRETAIN
 70
     0
  9
$PLINEGEN
 70
     0
  9
$PSLTSCALE
 70
     1
  0
ENDSEC
  0
SECTION
  2
TABLES
  0
TABLE
  2
VPORT
 70
     1
  0
VPORT
  2
*ACTIVE
 70
     0
 10
0.0
 20
0.0
 11
1.0
 21
1.0
 12
110.9942228581402048
 22
-138.6410492692961043
 13
0.0
 23
0.0
 14
1.0
 24
1.0
 15
10.0
 25
10.0
 16
-0.0000000000002274
 26
0.0
 36
1287.4442995311289906
 17
1376.0823109865880269
 27
318.8858397751307052
 37
-17.6343661469921784
 40
531.0528882778461366
 41
1.7852028639618129
 42
50.0
 43
0.0
 44
0.0
 50
0.0
 51
0.0
 71
     0
 72
  1500
 73
     1
 74
     0
 75
     0
 76
     0
 77
     0
 78
     0
  0
ENDTAB
  0
TABLE
  2
LTYPE
 70
     4
  0
LTYPE
  2
CONTINUOUS
 70
     0
  3
Solid line
 72
    65
 73
     0
 40
0.0
  0
LTYPE
  2
STRICHPUNKT
 70
     0
  3
__ . __ . __ . __ . __ . __ . __ . __ . __ . __
 72
    65
 73
     4
 40
1.0
 49
0.5
 49
-0.25
 49
0.0
 49
-0.25
  0
LTYPE
  2
VERDECKT
 70
     0
  3
Verdeckt __ __ __ __ __ __ __ __ __ __ __ __ __
 72
    65
 73
     2
 40
0.375
 49
0.25
 49
-0.125
  0
ENDTAB
  0
TABLE
  2
LAYER
 70
    16
  0
LAYER
  2
0
 70
     0
 62
     7
  6
CONTINUOUS
  0
LAYER
  2
VOLL
 70
     0
 62
     1
  6
CONTINUOUS
  0
LAYER
  2
STEMPEL
 70
     0
 62
     3
  6
CONTINUOUS
  0
LAYER
  2
DEFPOINTS
 70
     0
 62
     7
  6
CONTINUOUS
  0
LAYER
  2
SCHRAFF
 70
     0
 62
    -7
  6
CONTINUOUS
  0
LAYER
  2
ADSK_ASSOC_ENTITY_BACKUPS
 70
     1
 62
    -7
  6
CONTINUOUS
  0
ENDTAB
  0
TABLE
  2
STYLE
 70
     4
  0
STYLE
  2
STANDARD
 70
     0
 40
0.0
 41
0.8
 50
0.0
 71
     0
 42
3.5
  3
simplex.shx
  4

  0
STYLE
  2
GREEKS
 70
     0
 40
0.0
 41
0.8
 50
0.0
 71
     0
 42
2.5
  3
SIMPLEX.shx
  4

  0
ENDTAB
  0
TABLE
  2
VIEW
 70
     1
  0
ENDTAB
  0
TABLE
  2
UCS
 70
     0
  0
ENDTAB
  0
TABLE
  2
APPID
 70
    21
  0
APPID
  2
ACAD
 70
     0
  0
APPID
  2
ACAD_NAV_VCDISPLAY
 70
     0
  0
APPID
  2
ACAD_PSEXT
 70
     0
  0
APPID
  2
ACAECLAYERSTANDARD
 70
     0
  0
APPID
  2
ACCMTRANSPARENCY
 70
     0
  0
APPID
  2
ACADANNOMONITORALERTICONDI
 70
     0
  0
APPID
  2
ACAD_EXEMPT_FROM_CAD_STANDARDS
 70
     0
  0
APPID
  2
ACAD_MLEADERVER
 70
     0
  0
APPID
  2
ACAD_OBJECT_CHANGE_GUID
 70
     0
  0
APPID
  2
ACAD_STEPID
 70
     0
  0
APPID
  2
ACSYNERGY
 70
     0
  0
APPID
  2
SYNERGY_BODY_TBR_ID
 70
     0
  0
APPID
  2
ACAD_VIEW_EDGE_ID
 70
     0
  0
APPID
  2
ACSYNERGYSKETCH
 70
     0
  0
APPID
  2
ACAD_MODELDOC_XFORM
 70
     0
  0
APPID
  2
GRADIENTCOLOR1ACI
 70
     0
  0
APPID
  2
GRADIENTCOLOR2ACI
 70
     0
  0
APPID
  2
ACAD_DSTYLE_DIMJAG
 70
     0
  0
APPID
  2
ACAD_DSTYLE_DIMTALN
 70
     0
  0
APPID
  2
ACAD_DSTYLE_DIMRADIAL_EXTENSION
 70
     0
  0
APPID
  2
AcDbAttr
 70
     0
  0
ENDTAB
  0
TABLE
  2
DIMSTYLE
 70
     2
  0
DIMSTYLE
  2
STANDARD
 70
     0
  3

  4

  5

  6

  7

 40
1.0
 41
0.18
 42
0.0625
 43
0.38
 44
0.18
 45
0.0
 46
0.0
 47
0.0
 48
0.0
140
0.18
141
0.09
142
0.0
143
25.3999999999999986
144
1.0
145
0.0
146
1.0
147
0.09
 71
     0
 72
     0
 73
     1
 74
     1
 75
     0
 76
     0
 77
     0
 78
     0
170
     0
171
     2
172
     0
173
     0
174
     0
175
     0
176
     0
177
     0
178
     0
  0
ENDTAB
  0
ENDSEC
  0
SECTION
  2
BLOCKS
  0
BLOCK
  8
0
  2
$MODEL_SPACE
 70
     0
 10
0.0
 20
0.0
 30
0.0
  3
$MODEL_SPACE
  1

  0
ENDBLK
  5
36
  8
0
  0
BLOCK
 67
     1
  8
0
  2
$PAPER_SPACE
 70
     0
 10
0.0
 20
0.0
 30
0.0
  3
$PAPER_SPACE
  1

  0
ENDBLK
  5
2438
 67
     1
  8
0
  0
BLOCK
  8
0
  2
*S0
 70
     1
 10
0.0
 20
0.0
 30
0.0
  3
*S0
  1

  0
ENDBLK
  5
1AA8
  8
0
  0
BLOCK
  8
0
  2
A$CA7B502A9
 70
     0
 10
0.0
 20
0.0
 30
0.0
  3
A$CA7B502A9
  1

  0
CIRCLE
  5
3832
  8
0
 10
938.8113901714948497
 20
310.801966414144772
 30
0.0000000000002132
 40
34.3737264535729992
  0
CIRCLE
  5
3833
  8
0
 10
938.8113901714948497
 20
310.801966414144772
 30
0.0000000000002132
 40
38.1500000000000909
  0
CIRCLE
  5
3834
  8
0
 10
938.8113901714948497
 20
310.801966414144772
 30
0.0000000000002061
 40
34.9000000000000909
  0
CIRCLE
  5
3835
  8
0
 10
938.8113901714948497
 20
310.801966414144772
 30
0.0000000000002132
 40
115.0
  0
CIRCLE
  5
3836
  8
0
 10
848.8113901714948497
 20
310.801966414144772
 30
0.0000000000001847
 40
3.0
  0
CIRCLE
  5
3837
  8
0
 10
1028.8113901714930307
 20
310.8019664141444878
 30
0.0000000000002274
 40
3.0
  0
CIRCLE
  5
3838
  8
0
 10
938.8113901714940539
 20
400.8019664141438057
 30
0.0000000000002132
 40
3.0
  0
CIRCLE
  5
3839
  8
0
 10
938.8113901714940539
 20
220.8019664141453973
 30
0.0000000000002132
 40
3.0
  0
CIRCLE
  5
383A
  8
0
 10
938.8113901714948497
 20
310.801966414144772
 30
0.0000000000002132
 40
56.9999999999998792
  0
CIRCLE
  5
383B
  8
0
 10
938.8113901714948497
 20
310.801966414144772
 30
0.0000000000002132
 40
38.5
  0
CIRCLE
  5
383C
  8
0
 10
938.8113901714948497
 20
310.801966414144772
 30
0.0000000000002132
 40
50.4937568301502466
  0
CIRCLE
  5
383D
  8
0
  6
VERDECKT
 62
     1
 10
938.8113901714946223
 20
310.8019664141447151
 30
0.0000000000002061
 40
49.0
  0
CIRCLE
  5
383E
  8
0
  6
VERDECKT
 62
     1
 10
938.8113901714948497
 20
310.801966414144772
 30
0.0000000000002061
 40
36.5
  0
CIRCLE
  5
383F
  8
0
  6
VERDECKT
 62
     1
 10
938.8113901714948497
 20
310.801966414144772
 30
0.0000000000002132
 40
39.75
  0
CIRCLE
  5
3840
  8
0
  6
VERDECKT
 62
     1
 10
938.8113901714948497
 20
310.801966414144772
 30
0.0000000000002132
 40
42.3900436323083269
  0
CIRCLE
  5
3841
  8
0
  6
VERDECKT
 62
     1
 10
938.8113901714946223
 20
310.801966414144772
 30
0.0000000000002132
 40
41.0
  0
CIRCLE
  5
3842
  8
0
  6
VERDECKT
 62
     1
 10
938.8113901714948497
 20
310.8019664141447151
 30
0.0000000000002132
 40
57.5882592070438477
  0
CIRCLE
  5
3843
  8
0
  6
VERDECKT
 62
     1
 10
938.8113901714949634
 20
310.8019664141447151
 30
0.0000000000002132
 40
53.4970621514570368
  0
CIRCLE
  5
3844
  8
0
  6
VERDECKT
 62
     1
 10
938.8113901714948497
 20
310.8019664141447151
 30
0.0000000000002132
 40
52.0000000000001634
  0
CIRCLE
  5
3845
  8
0
  6
VERDECKT
 62
     1
 10
938.8113901714948497
 20
310.801966414144772
 30
0.0000000000002061
 40
51.0
  0
CIRCLE
  5
3846
  8
0
  6
VERDECKT
 62
     1
 10
938.8113901714948497
 20
310.801966414144772
 30
0.0000000000002061
 40
49.0
  0
CIRCLE
  5
3847
  8
0
  6
VERDECKT
 62
     1
 10
938.8113901714948497
 20
310.801966414144772
 30
0.0000000000002132
 40
59.0
  0
CIRCLE
  5
3848
  8
0
  6
VERDECKT
 62
     1
 10
938.8113901714948497
 20
310.801966414144772
 30
0.0000000000002132
 40
61.0000000000000497
  0
CIRCLE
  5
3849
  8
0
  6
VERDECKT
 62
     1
 10
938.8113901714948497
 20
310.801966414144772
 30
0.0000000000002061
 40
36.8500000000000014
  0
CIRCLE
  5
384A
  8
0
  6
VERDECKT
 62
     1
 10
982.3113901714948497
 20
310.801966414144772
 30
0.0000000000002203
 40
5.25
  0
CIRCLE
  5
384B
  8
0
  6
VERDECKT
 62
     1
 10
938.8113901714948497
 20
310.801966414144772
 30
0.0000000000002132
 40
35.9759222071695604
  0
CIRCLE
  5
384C
  8
0
  6
VERDECKT
 62
     1
 10
938.8113901714948497
 20
310.801966414144772
 30
0.0000000000002132
 40
41.0
  0
CIRCLE
  5
384D
  8
0
  6
VERDECKT
 62
     1
 10
938.8113901714948497
 20
310.801966414144772
 30
0.0000000000002132
 40
42.3900436323083269
  0
CIRCLE
  5
384E
  8
0
  6
VERDECKT
 62
     1
 10
938.8113901714948497
 20
310.801966414144772
 30
0.0000000000002132
 40
39.75
  0
CIRCLE
  5
384F
  8
0
  6
VERDECKT
 62
     1
 10
938.8113901714948497
 20
310.801966414144772
 30
0.0000000000002061
 40
36.5
  0
CIRCLE
  5
3850
  8
0
  6
VERDECKT
 62
     1
 10
938.8113901714948497
 20
310.801966414144772
 30
0.0000000000002132
 40
114.3660726073890004
  0
CIRCLE
  5
3851
  8
0
  6
VERDECKT
 62
     1
 10
848.8113901714948497
 20
310.801966414144772
 30
0.0000000000001847
 40
4.0599999999999454
  0
CIRCLE
  5
3852
  8
0
  6
VERDECKT
 62
     1
 10
1028.8113901714930307
 20
310.8019664141444878
 30
0.0000000000002274
 40
4.0599999999999454
  0
CIRCLE
  5
3853
  8
0
  6
VERDECKT
 62
     1
 10
938.8113901714940539
 20
400.8019664141438057
 30
0.0000000000002132
 40
4.0599999999999454
  0
CIRCLE
  5
3854
  8
0
  6
VERDECKT
 62
     1
 10
938.8113901714940539
 20
220.8019664141453973
 30
0.0000000000002132
 40
4.0599999999999454
  0
CIRCLE
  5
3855
  8
0
  6
VERDECKT
 62
     1
 10
938.8113901714948497
 20
310.801966414144772
 30
0.0000000000002132
 40
57.5882592070436203
  0
CIRCLE
  5
3856
  8
0
  6
VERDECKT
 62
     1
 10
938.8113901714948497
 20
310.801966414144772
 30
0.0000000000002132
 40
53.4999999999999076
  0
CIRCLE
  5
3857
  8
0
  6
VERDECKT
 62
     1
 10
938.8113901714948497
 20
310.801966414144772
 30
0.0000000000002132
 40
51.998700123518752
  0
ENDBLK
  5
3859
  8
0
  0
BLOCK
  8
0
  2
A$C90D193FA
 70
     0
 10
0.0
 20
0.0
 30
0.0
  3
A$C90D193FA
  1

  0
LINE
  5
385D
  8
0
 10
887.8113901714948497
 20
-39.1199999999984627
 30
0.0000000000000087
 11
989.8113901714948497
 21
-39.1199999999984627
 31
0.0000000000000087
210
0.0
220
1.0
230
-0.0000000000000002
  0
LINE
  5
385E
  8
0
 10
886.7949059223025188
 20
59.1898483750792721
 30
-0.0000000000000131
 11
878.9972884622191032
 21
76.9090742597560251
 31
-0.0000000000000171
210
0.0
220
1.0
230
-0.0000000000000002
  0
LINE
  5
385F
  8
0
 10
990.827874420687067
 20
59.1898483750792721
 30
-0.0000000000000131
 11
998.6254918807705963
 21
76.9090742597560251
 31
-0.0000000000000171
210
0.0
220
1.0
230
-0.0000000000000002
  0
ARC
  5
3860
  8
0
 10
-875.8113901714931444
 20
54.356383597948799
 30
0.0
 40
12.0000000000017106
210
0.0
220
-0.0000000000000002
230
-1.0
 50
156.2473682960927874
 51
179.9999999999980105
  0
ARC
  5
3861
  8
0
 10
-1001.8113901714920075
 20
54.3563835979498506
 30
0.0
 40
11.9999999999968097
210
0.0
220
-0.0000000000000002
230
-1.0
 50
359.9999999999968168
 51
23.7526317039119803
  0
LINE
  5
3862
  8
0
 10
989.8113901714948497
 20
54.3563835979491969
 30
-0.0000000000000121
 11
989.8113901714948497
 21
-39.1199999999984627
 31
0.0000000000000087
210
0.0
220
1.0
230
-0.0000000000000002
  0
LINE
  5
3863
  8
0
 10
887.8113901714948497
 20
54.3563835979491969
 30
-0.0000000000000121
 11
887.8113901714948497
 21
-39.1199999999984627
 31
0.0000000000000087
210
0.0
220
1.0
230
-0.0000000000000002
  0
LINE
  5
3864
  8
0
 10
999.8113901714948497
 20
120.140538319446506
 30
-0.0000000000000267
 11
999.8113901714948497
 21
82.5481164997411128
 31
-0.0000000000000183
210
0.0
220
1.0
230
-0.0000000000000002
  0
LINE
  5
3865
  8
0
 10
877.8113901714948497
 20
120.140538319446506
 30
-0.0000000000000267
 11
877.8113901714948497
 21
82.5481164997411128
 31
-0.0000000000000183
210
0.0
220
1.0
230
-0.0000000000000002
  0
ARC
  5
3866
  8
0
 10
-891.8113901714956455
 20
82.5481164997415249
 30
0.0
 40
14.0000000000009006
210
0.0
220
-0.0000000000000002
230
-1.0
 50
336.2473682960908832
 51
359.9999999999982947
  0
ARC
  5
3867
  8
0
 10
-985.8113901714941676
 20
82.5481164997415249
 30
0.0
 40
14.0000000000007905
210
0.0
220
-0.0000000000000002
230
-1.0
 50
180.0000000000015916
 51
203.7526317039092021
  0
LINE
  5
3868
  8
0
 10
989.8113901714948497
 20
-41.1199999999987398
 30
0.0000000000000091
 11
938.8113901714948497
 21
-41.1199999999987398
 31
0.0000000000000091
210
0.0
220
1.0
230
-0.0000000000000002
  0
LINE
  5
3869
  8
0
 10
938.8113901714948497
 20
-41.1199999999987398
 30
0.0000000000000091
 11
887.8113901714948497
 21
-41.1199999999987398
 31
0.0000000000000091
210
0.0
220
1.0
230
-0.0000000000000002
  0
LINE
  5
386A
  8
0
 10
989.8113901714948497
 20
-39.1199999999984627
 30
0.0000000000000087
 11
938.8113901714948497
 21
-39.1199999999984627
 31
0.0000000000000087
210
0.0
220
1.0
230
-0.0000000000000002
  0
LINE
  5
386B
  8
0
 10
938.8113901714948497
 20
-39.1199999999984627
 30
0.0000000000000087
 11
887.8113901714948497
 21
-39.1199999999984627
 31
0.0000000000000087
210
0.0
220
1.0
230
-0.0000000000000002
  0
LINE
  5
386C
  8
0
 10
887.8113901714948497
 20
-41.1199999999987398
 30
0.0000000000000091
 11
887.8113901714948497
 21
-39.1199999999984627
 31
0.0000000000000087
210
0.0
220
1.0
230
-0.0000000000000002
  0
LINE
  5
386D
  8
0
 10
989.8113901714948497
 20
-41.1199999999987398
 30
0.0000000000000091
 11
989.8113901714948497
 21
-39.1199999999984627
 31
0.0000000000000087
210
0.0
220
1.0
230
-0.0000000000000002
  0
LINE
  5
386E
  8
0
 10
902.8354679643252894
 20
-124.9999999999987068
 30
0.0000000000000278
 11
974.7873123786645237
 21
-124.9999999999987068
 31
0.0000000000000278
210
0.0
220
1.0
230
-0.0000000000000002
  0
ARC
  5
386F
  8
0
 10
-910.9113901715647899
 20
-114.7748010745002034
 30
0.0
 40
8.6000000000700538
210
0.0
220
-0.0000000000000002
230
-1.0
 50
357.0000000000159162
 51
359.9999999999914735
  0
ARC
  5
3870
  8
0
 10
-966.7113901714247959
 20
-114.7748010745002034
 30
0.0
 40
8.6000000000700538
210
0.0
220
-0.0000000000000002
230
-1.0
 50
180.0000000000084128
 51
182.9999999999839986
  0
LINE
  5
3871
  8
0
 10
975.3113901714948497
 20
-41.1199999999987398
 30
0.0000000000000091
 11
975.3113901714948497
 21
-114.7748010745014966
 31
0.0000000000000255
210
0.0
220
1.0
230
-0.0000000000000002
  0
LINE
  5
3872
  8
0
 10
902.3113901714948497
 20
-41.1199999999987398
 30
0.0000000000000091
 11
902.3113901714948497
 21
-114.7748010745014966
 31
0.0000000000000255
210
0.0
220
1.0
230
-0.0000000000000002
  0
LINE
  5
3873
  8
0
 10
902.8354679643252894
 20
-124.9999999999987068
 30
0.0000000000000278
 11
902.3231761726054856
 21
-115.2248902981908003
 31
0.0000000000000256
210
0.0
220
1.0
230
-0.0000000000000002
  0
LINE
  5
3874
  8
0
 10
974.7873123786642964
 20
-124.9999999999987068
 30
0.0000000000000278
 11
975.2996041703841001
 21
-115.2248902981908003
 31
0.0000000000000256
210
0.0
220
1.0
230
-0.0000000000000002
  0
LINE
  5
3875
  8
0
 10
831.9822483812071141
 20
125.0000000000014069
 30
-0.0000000000000278
 11
1045.6405319617820169
 21
125.0000000000014069
 31
-0.0000000000000278
210
0.0
220
1.0
230
-0.0000000000000002
  0
LINE
  5
3876
  8
0
 10
823.8113901714949634
 20
121.5000000000014069
 30
-0.000000000000027
 11
1053.8113901714950771
 21
121.5000000000014069
 31
-0.000000000000027
210
0.0
220
1.0
230
-0.0000000000000002
  0
LINE
  5
3877
  8
0
 10
824.4453175641059488
 20
120.1405383194464065
 30
-0.0000000000000267
 11
1053.1774627788840917
 21
120.1405383194464065
 31
-0.0000000000000267
210
0.0
220
1.0
230
-0.0000000000000002
  0
ARC
  5
3878
  8
0
 10
-831.9822483812071141
 20
122.0000000000014069
 30
0.0
 40
2.9999999999999458
210
0.0
220
-0.0000000000000002
230
-1.0
 50
64.999999999997442
 51
89.9999999999978542
  0
ARC
  5
3879
  8
0
 10
-1045.6405319617820169
 20
122.0000000000022027
 30
0.0
 40
2.9999999999992042
210
0.0
220
-0.0000000000000002
230
-1.0
 50
89.9999999999956657
 51
115.0000000000046043
  0
LINE
  5
387A
  8
0
 10
1046.9083867470048972
 20
124.718923361111294
 30
-0.0000000000000277
 11
1053.8113901714950771
 21
121.5000000000014069
 31
-0.000000000000027
210
0.0
220
1.0
230
-0.0000000000000002
  0
LINE
  5
387B
  8
0
 10
830.7143935959850296
 20
124.718923361111294
 30
-0.0000000000000277
 11
823.8113901714948497
 21
121.5000000000014069
 31
-0.000000000000027
210
0.0
220
1.0
230
-0.0000000000000002
  0
LINE
  5
387C
  8
0
 10
824.4453175641059488
 20
120.1405383194464065
 30
-0.0000000000000267
 11
823.8113901714948497
 21
121.5000000000014069
 31
-0.000000000000027
210
0.0
220
1.0
230
-0.0000000000000002
  0
LINE
  5
387D
  8
0
 10
1053.1774627788840917
 20
120.1405383194464065
 30
-0.0000000000000267
 11
1053.8113901714950771
 21
121.5000000000014069
 31
-0.000000000000027
210
0.0
220
1.0
230
-0.0000000000000002
  0
LINE
  5
387E
  8
0
  6
VERDECKT
 62
     1
 10
879.811390171494736
 20
120.8786796564408945
 30
-0.0000000000000268
 11
997.8113901714946223
 21
120.8786796564408945
 31
-0.0000000000000268
210
0.0
220
1.0
230
-0.0000000000000002
  0
LINE
  5
387F
  8
0
  6
VERDECKT
 62
     1
 10
896.421346539186402
 20
94.2076751295857377
 30
-0.0000000000000209
 11
981.2014338038031838
 21
94.2076751295857377
 31
-0.0000000000000209
210
0.0
220
1.0
230
-0.0000000000000002
  0
LINE
  5
3880
  8
0
  6
VERDECKT
 62
     1
 10
881.2231309644508883
 20
119.4669388634840033
 30
-0.0000000000000265
 11
996.3996493785386974
 21
119.4669388634854954
 31
-0.0000000000000265
210
0.0
220
1.0
230
-0.0000000000000002
  0
LINE
  5
3881
  8
0
  6
VERDECKT
 62
     1
 10
987.811390171494736
 20
54.3563835979493035
 30
-0.0000000000000121
 11
987.811390171494736
 21
-39.1199999999984627
 31
0.0000000000000087
210
0.0
220
1.0
230
-0.0000000000000002
  0
LINE
  5
3882
  8
0
  6
VERDECKT
 62
     1
 10
889.8113901714946223
 20
54.3563835979493035
 30
-0.0000000000000121
 11
889.8113901714946223
 21
-39.1199999999986687
 31
0.0000000000000087
210
0.0
220
1.0
230
-0.0000000000000002
  0
ARC
  5
3883
  8
0
  6
VERDECKT
 62
     1
 10
-875.8113901714950771
 20
54.3563835979491472
 30
0.0
 40
13.9999999999995399
210
0.0
220
-0.0000000000000002
230
-1.0
 50
156.2473682960884958
 51
179.9999999999994031
  0
ARC
  5
3884
  8
0
  6
VERDECKT
 62
     1
 10
-1001.8113901714940539
 20
54.3563835979491401
 30
0.0
 40
13.9999999999995399
210
0.0
220
-0.0000000000000002
230
-1.0
 50
0.0000000000006488
 51
23.7526317039115291
  0
LINE
  5
3885
  8
0
  6
VERDECKT
 62
     1
 10
888.6254918807702552
 20
59.9954258379346612
 30
-0.0000000000000133
 11
880.8278744206868396
 21
77.7146517226110092
 31
-0.0000000000000173
210
0.0
220
1.0
230
-0.0000000000000002
  0
LINE
  5
3886
  8
0
  6
VERDECKT
 62
     1
 10
988.9972884622189895
 20
59.9954258379346612
 30
-0.0000000000000133
 11
996.7949059223022914
 21
77.7146517226110092
 31
-0.0000000000000173
210
0.0
220
1.0
230
-0.0000000000000002
  0
ARC
  5
3887
  8
0
  6
VERDECKT
 62
     1
 10
-891.8113901714963276
 20
82.5481164997414965
 30
0.0
 40
12.0000000000018208
210
0.0
220
-0.0000000000000002
230
-1.0
 50
336.2473682960928727
 51
359.9999999999980105
  0
ARC
  5
3888
  8
0
  6
VERDECKT
 62
     1
 10
-985.8113901714926897
 20
82.5481164997414965
 30
0.0
 40
12.0000000000018208
210
0.0
220
-0.0000000000000002
230
-1.0
 50
180.0000000000019895
 51
203.7526317039070136
  0
LINE
  5
3889
  8
0
  6
VERDECKT
 62
     1
 10
997.8113901714946223
 20
120.8786796564408945
 30
-0.0000000000000268
 11
997.8113901714946223
 21
82.5481164997410559
 31
-0.0000000000000183
210
0.0
220
1.0
230
-0.0000000000000002
  0
LINE
  5
388A
  8
0
  6
VERDECKT
 62
     1
 10
879.811390171494736
 20
120.8786796564408945
 30
-0.0000000000000268
 11
879.811390171494736
 21
82.5481164997410559
 31
-0.0000000000000183
210
0.0
220
1.0
230
-0.0000000000000002
  0
LINE
  5
388B
  8
0
  6
VERDECKT
 62
     1
 10
975.3113901714948497
 20
49.6934003354328127
 30
-0.000000000000011
 11
975.3113901714948497
 21
-39.1199999999984627
 31
0.0000000000000087
210
0.0
220
1.0
230
-0.0000000000000002
  0
LINE
  5
388C
  8
0
  6
VERDECKT
 62
     1
 10
902.3113901714948497
 20
49.6934003354328127
 30
-0.000000000000011
 11
902.3113901714948497
 21
-39.1199999999984627
 31
0.0000000000000087
210
0.0
220
1.0
230
-0.0000000000000002
  0
ARC
  5
388D
  8
0
  6
VERDECKT
 62
     1
 10
-894.3113901714937128
 20
49.6934003354323082
 30
0.0
 40
8.0000000000010196
210
0.0
220
-0.0000000000000002
230
-1.0
 50
146.877059792252993
 51
179.9999999999963904
  0
ARC
  5
388E
  8
0
  6
VERDECKT
 62
     1
 10
-983.3113901714958729
 20
49.6934003354323082
 30
0.0
 40
8.0000000000010232
210
0.0
220
-0.0000000000000002
230
-1.0
 50
0.0000000000036131
 51
33.122940207746943
  0
ARC
  5
388F
  8
0
  6
VERDECKT
 62
     1
 10
-911.0613901714964413
 20
60.6221468326302499
 30
0.0
 40
12.0000000000015898
210
0.0
220
-0.0000000000000002
230
-1.0
 50
326.8770597922621164
 51
359.9999999999988063
  0
ARC
  5
3890
  8
0
  6
VERDECKT
 62
     1
 10
-966.5613901714931444
 20
60.6221468326302499
 30
0.0
 40
12.0000000000015898
210
0.0
220
-0.0000000000000002
230
-1.0
 50
180.0000000000011084
 51
213.122940207737912
  0
LINE
  5
3891
  8
0
  6
VERDECKT
 62
     1
 10
978.5613901714948497
 20
87.4561178058412736
 30
-0.0000000000000194
 11
978.5613901714948497
 21
60.6221468326300226
 31
-0.0000000000000135
210
0.0
220
1.0
230
-0.0000000000000002
  0
LINE
  5
3892
  8
0
  6
VERDECKT
 62
     1
 10
899.0613901714948497
 20
87.4561178058412736
 30
-0.0000000000000194
 11
899.0613901714948497
 21
60.6221468326300226
 31
-0.0000000000000135
210
0.0
220
1.0
230
-0.0000000000000002
  0
ARC
  5
3893
  8
0
  6
VERDECKT
 62
     1
 10
-891.0613901714950771
 20
87.4561178058412025
 30
0.0
 40
7.9999999999996616
210
0.0
220
-0.0000000000000002
230
-1.0
 50
150.3168598208750097
 51
179.9999999999994884
  0
ARC
  5
3894
  8
0
  6
VERDECKT
 62
     1
 10
-986.5613901714946223
 20
87.4561178058412025
 30
0.0
 40
7.9999999999996581
210
0.0
220
-0.0000000000000002
230
-1.0
 50
0.0000000000005089
 51
29.6831401791250187
  0
LINE
  5
3895
  8
0
  6
VERDECKT
 62
     1
 10
898.0116083330359515
 20
91.4177421579197755
 30
-0.0000000000000203
 11
896.421346539186402
 21
94.2076751295857377
 31
-0.0000000000000209
210
0.0
220
1.0
230
-0.0000000000000002
  0
LINE
  5
3896
  8
0
  6
VERDECKT
 62
     1
 10
979.6111720099537479
 20
91.4177421579197755
 30
-0.0000000000000203
 11
981.2014338038031838
 21
94.2076751295857377
 31
-0.0000000000000209
210
0.0
220
1.0
230
-0.0000000000000002
  0
LINE
  5
3897
  8
0
  6
VERDECKT
 62
     1
 10
979.8113901714949634
 20
95.00000000000135
 30
-0.0000000000000211
 11
981.2014338038031838
 21
94.2076751295857662
 31
-0.0000000000000209
210
0.0
220
1.0
230
-0.0000000000000002
  0
LINE
  5
3898
  8
0
  6
VERDECKT
 62
     1
 10
897.8113901714948497
 20
95.0000000000014637
 30
-0.0000000000000211
 11
896.421346539186402
 21
94.2076751295857662
 31
-0.0000000000000209
210
0.0
220
1.0
230
-0.0000000000000002
  0
ARC
  5
3899
  8
0
  6
VERDECKT
 62
     1
 10
-895.9246437023410863
 20
105.5695369348049013
 30
0.0
 40
10.5695369348048995
210
0.0
220
-0.0000000000000002
230
-1.0
 50
270.0
 51
311.5433753620051789
  0
ARC
  5
389A
  8
0
  6
VERDECKT
 62
     1
 10
-981.6981366406489542
 20
105.5695369348059955
 30
0.0
 40
10.5695369348049901
210
0.0
220
-0.0000000000000002
230
-1.0
 50
228.4566246379941958
 51
269.9999999999993747
  0
ARC
  5
389B
  8
0
  6
VERDECKT
 62
     1
 10
-895.8329724226726967
 20
105.4660793278665949
 30
0.0
 40
10.4313085008651001
210
0.0
220
-0.0000000000000002
230
-1.0
 50
311.5433753620043831
 51
353.5179102907609945
  0
ARC
  5
389C
  8
0
  6
VERDECKT
 62
     1
 10
-981.7898079203175712
 20
105.4660793278675044
 30
0.0
 40
10.4313085008647999
210
0.0
220
-0.0000000000000002
230
-1.0
 50
186.4820897092363907
 51
228.4566246379949064
  0
ARC
  5
389D
  8
0
  6
VERDECKT
 62
     1
 10
-909.4072270701332172
 20
107.008372134278801
 30
0.0
 40
24.0928990500951201
210
0.0
220
-0.0000000000000002
230
-1.0
 50
353.5179102907587776
 51
4.8720638923651141
  0
ARC
  5
389E
  8
0
  6
VERDECKT
 62
     1
 10
-968.2155532728453409
 20
107.0083721342797958
 30
0.0
 40
24.0928990501067091
210
0.0
220
-0.0000000000000002
230
-1.0
 50
175.1279361076362022
 51
186.4820897092369876
  0
ARC
  5
389F
  8
0
  6
VERDECKT
 62
     1
 10
-908.8341138084607564
 20
107.0572237938645941
 30
0.0
 40
23.5177075208207391
210
0.0
220
-0.0000000000000002
230
-1.0
 50
4.8720638923629904
 51
18.5135831753438005
  0
ARC
  5
38A0
  8
0
  6
VERDECKT
 62
     1
 10
-968.7886665345218944
 20
107.0572237938638978
 30
0.0
 40
23.5177075208282709
210
0.0
220
-0.0000000000000002
230
-1.0
 50
161.4864168246571978
 51
175.1279361076335874
  0
LINE
  5
38A1
  8
0
  6
VERDECKT
 62
     1
 10
990.8533541711560702
 20
115.3133520939317975
 30
-0.0000000000000256
 11
991.0892951753110083
 21
114.5247889432848041
 31
-0.0000000000000254
210
0.0
220
1.0
230
-0.0000000000000002
  0
LINE
  5
38A2
  8
0
  6
VERDECKT
 62
     1
 10
886.769426171834084
 20
115.3133520939304049
 30
-0.0000000000000256
 11
886.5334851676791459
 21
114.5247889432833972
 31
-0.0000000000000254
210
0.0
220
1.0
230
-0.0000000000000002
  0
ARC
  5
38A3
  8
0
  6
VERDECKT
 62
     1
 10
-885.8113901714940539
 20
115.6000000000000938
 30
0.0
 40
1.000000000000693
210
0.0
220
-0.0000000000000002
230
-1.0
 50
159.9441628927015984
 51
196.6573770607238885
  0
ARC
  5
38A4
  8
0
  6
VERDECKT
 62
     1
 10
-991.8113901714957592
 20
115.6000000000014012
 30
0.0
 40
1.0000000000009299
210
0.0
220
-0.0000000000000002
230
-1.0
 50
343.3426229392774189
 51
20.0558371072968917
  0
ARC
  5
38A5
  8
0
  6
VERDECKT
 62
     1
 10
-881.6844681130977506
 20
114.0933669450421064
 30
0.0
 40
5.3933391444808327
210
0.0
220
-0.0000000000000002
230
-1.0
 50
85.0930191455183405
 51
89.9999999999951541
  0
ARC
  5
38A6
  8
0
  6
VERDECKT
 62
     1
 10
-881.6844681130977506
 20
114.0933669450509029
 30
0.0
 40
5.3933391444720931
210
0.0
220
-0.0000000000000002
230
-1.0
 50
89.9999999999975842
 51
159.9441628926713008
  0
ARC
  5
38A7
  8
0
  6
VERDECKT
 62
     1
 10
-995.9383122298927447
 20
114.0933669450520966
 30
0.0
 40
5.3933391444722938
210
0.0
220
-0.0000000000000002
230
-1.0
 50
20.0558371073277009
 51
89.9999999999988063
  0
ARC
  5
38A8
  8
0
  6
VERDECKT
 62
     1
 10
-995.9383122298922899
 20
114.0933669450437975
 30
0.0
 40
5.3933391444805627
210
0.0
220
-0.0000000000000002
230
-1.0
 50
90.0000000000024158
 51
94.9069808544770552
  0
LINE
  5
38A9
  8
0
  6
VERDECKT
 62
     1
 10
995.9383122298925173
 20
119.4867060895244038
 30
-0.0000000000000265
 11
881.6844681130972958
 21
119.4867060895228974
 31
-0.0000000000000265
210
0.0
220
1.0
230
-0.0000000000000002
  0
LINE
  5
38AA
  8
0
  6
VERDECKT
 62
     1
 10
881.2231309644508883
 20
119.4669388634840033
 30
-0.0000000000000265
 11
879.8113901714942813
 21
120.8786796564406956
 31
-0.0000000000000268
210
0.0
220
1.0
230
-0.0000000000000002
  0
LINE
  5
38AB
  8
0
  6
VERDECKT
 62
     1
 10
996.3996493785386974
 20
119.4669388634853959
 30
-0.0000000000000265
 11
997.811390171494395
 21
120.8786796564411929
 31
-0.0000000000000268
210
0.0
220
1.0
230
-0.0000000000000002
  0
LINE
  5
38AC
  8
0
  6
VERDECKT
 62
     1
 10
877.8113901714948497
 20
120.879999999997807
 30
-0.0000000000000268
 11
999.8113901714948497
 21
120.879999999997807
 31
-0.0000000000000268
210
0.0
220
1.0
230
-0.0000000000000002
  0
LINE
  5
38AD
  8
0
  6
VERDECKT
 62
     1
 10
987.8113901714948497
 20
54.3563835979492822
 30
-0.0000000000000121
 11
987.8113901714948497
 21
-39.11999999999869
 31
0.0000000000000087
210
0.0
220
1.0
230
-0.0000000000000002
  0
LINE
  5
38AE
  8
0
  6
VERDECKT
 62
     1
 10
889.8113901714948497
 20
54.3563835979492822
 30
-0.0000000000000121
 11
889.8113901714948497
 21
-39.11999999999869
 31
0.0000000000000087
210
0.0
220
1.0
230
-0.0000000000000002
  0
ARC
  5
38AF
  8
0
  6
VERDECKT
 62
     1
 10
-875.8113901714954181
 20
54.3563835979491401
 30
0.0
 40
13.9999999999995399
210
0.0
220
-0.0000000000000002
230
-1.0
 50
156.2473682960884958
 51
179.9999999999994031
  0
ARC
  5
38B0
  8
0
  6
VERDECKT
 62
     1
 10
-1001.8113901714940539
 20
54.356383597949133
 30
0.0
 40
13.9999999999995399
210
0.0
220
-0.0000000000000002
230
-1.0
 50
0.0000000000006488
 51
23.7526317039115291
  0
LINE
  5
38B1
  8
0
  6
VERDECKT
 62
     1
 10
888.6254918807703689
 20
59.995425837934647
 30
-0.0000000000000133
 11
880.827874420687067
 21
77.7146517226110092
 31
-0.0000000000000173
210
0.0
220
1.0
230
-0.0000000000000002
  0
LINE
  5
38B2
  8
0
  6
VERDECKT
 62
     1
 10
988.9972884622192169
 20
59.995425837934647
 30
-0.0000000000000133
 11
996.7949059223027461
 21
77.7146517226110092
 31
-0.0000000000000173
210
0.0
220
1.0
230
-0.0000000000000002
  0
ARC
  5
38B3
  8
0
  6
VERDECKT
 62
     1
 10
-891.8113901714966687
 20
82.5481164997414965
 30
0.0
 40
12.0000000000018208
210
0.0
220
-0.0000000000000002
230
-1.0
 50
336.2473682960928727
 51
359.9999999999980105
  0
ARC
  5
38B4
  8
0
  6
VERDECKT
 62
     1
 10
-985.811390171492917
 20
82.5481164997414965
 30
0.0
 40
12.0000000000018208
210
0.0
220
-0.0000000000000002
230
-1.0
 50
180.0000000000019895
 51
203.7526317039070136
  0
LINE
  5
38B5
  8
0
  6
VERDECKT
 62
     1
 10
997.8113901714948497
 20
120.8800000000014023
 30
-0.0000000000000268
 11
997.8113901714948497
 21
82.5481164997410559
 31
-0.0000000000000183
210
0.0
220
1.0
230
-0.0000000000000002
  0
LINE
  5
38B6
  8
0
  6
VERDECKT
 62
     1
 10
879.8113901714948497
 20
120.8800000000014023
 30
-0.0000000000000268
 11
879.8113901714948497
 21
82.5481164997410559
 31
-0.0000000000000183
210
0.0
220
1.0
230
-0.0000000000000002
  0
LINE
  5
38B7
  8
0
  6
VERDECKT
 62
     1
 10
999.8113901714948497
 20
120.879999999997807
 30
-0.0000000000000268
 11
999.8113901714948497
 21
120.140538319446506
 31
-0.0000000000000267
210
0.0
220
1.0
230
-0.0000000000000002
  0
LINE
  5
38B8
  8
0
  6
VERDECKT
 62
     1
 10
877.8113901714948497
 20
120.879999999997807
 30
-0.0000000000000268
 11
877.8113901714948497
 21
120.140538319446506
 31
-0.0000000000000267
210
0.0
220
1.0
230
-0.0000000000000002
  0
LINE
  5
38B9
  8
0
  6
VERDECKT
 62
     1
 10
901.9613901714947133
 20
-41.1199999999987398
 30
0.0000000000000091
 11
901.9613901714947133
 21
-39.1199999999984627
 31
0.0000000000000087
210
0.0
220
1.0
230
-0.0000000000000002
  0
LINE
  5
38BA
  8
0
  6
VERDECKT
 62
     1
 10
975.6613901714948724
 20
-41.1199999999987398
 30
0.0000000000000091
 11
975.6613901714948724
 21
-39.1199999999984627
 31
0.0000000000000087
210
0.0
220
1.0
230
-0.0000000000000002
  0
LINE
  5
38BB
  8
0
  6
VERDECKT
 62
     1
 10
977.0613901714948497
 20
-41.1199999999987398
 30
0.0000000000000091
 11
977.0613901714948497
 21
-39.1199999999984627
 31
0.0000000000000087
210
0.0
220
1.0
230
-0.0000000000000002
  0
LINE
  5
38BC
  8
0
  6
VERDECKT
 62
     1
 10
987.5613901714948497
 20
-41.1199999999987398
 30
0.0000000000000091
 11
987.5613901714948497
 21
-39.1199999999984627
 31
0.0000000000000087
210
0.0
220
1.0
230
-0.0000000000000002
  0
LINE
  5
38BD
  8
0
  6
VERDECKT
 62
     1
 10
902.3113901714948497
 20
5.0000000000011369
 30
-0.0000000000000011
 11
975.3113901714948497
 21
5.0000000000011369
 31
-0.0000000000000011
210
0.0
220
1.0
230
-0.0000000000000002
  0
LINE
  5
38BE
  8
0
  6
VERDECKT
 62
     1
 10
975.3113901714948497
 20
5.0000000000011369
 30
-0.0000000000000011
 11
975.3113901714948497
 21
-41.1199999999987398
 31
0.0000000000000091
210
0.0
220
1.0
230
-0.0000000000000002
  0
LINE
  5
38BF
  8
0
  6
VERDECKT
 62
     1
 10
902.3113901714948497
 20
5.0000000000011369
 30
-0.0000000000000011
 11
902.3113901714948497
 21
-41.1199999999987398
 31
0.0000000000000091
210
0.0
220
1.0
230
-0.0000000000000002
  0
ARC
  5
38C0
  8
0
  6
VERDECKT
 62
     1
 10
-910.9113901716395958
 20
-114.7748010745034009
 30
0.0
 40
7.0000000001446079
210
0.0
220
-0.0000000000000002
230
-1.0
 50
357.0000000000363229
 51
359.9999999999733973
  0
ARC
  5
38C1
  8
0
  6
VERDECKT
 62
     1
 10
-966.7113901713499899
 20
-114.7748010745034009
 30
0.0
 40
7.0000000001446079
210
0.0
220
-0.0000000000000002
230
-1.0
 50
180.0000000000266027
 51
182.9999999999635918
  0
LINE
  5
38C2
  8
0
  6
VERDECKT
 62
     1
 10
904.4376637179217369
 20
-124.9999999999987068
 30
0.0000000000000278
 11
903.920983428212935
 21
-115.1411527682072062
 31
0.0000000000000256
210
0.0
220
1.0
230
-0.0000000000000002
  0
LINE
  5
38C3
  8
0
  6
VERDECKT
 62
     1
 10
973.1851166250678489
 20
-124.9999999999987068
 30
0.0000000000000278
 11
973.7017969147767644
 21
-115.1411527682072062
 31
0.0000000000000256
210
0.0
220
1.0
230
-0.0000000000000002
  0
LINE
  5
38C4
  8
0
  6
VERDECKT
 62
     1
 10
973.7113901714947133
 20
5.0000000000011369
 30
-0.0000000000000011
 11
973.7113901714947133
 21
-114.7748010745066978
 31
0.0000000000000255
210
0.0
220
1.0
230
-0.0000000000000002
  0
LINE
  5
38C5
  8
0
  6
VERDECKT
 62
     1
 10
903.9113901714949861
 20
5.0000000000011369
 30
-0.0000000000000011
 11
903.9113901714949861
 21
-114.7748010745066978
 31
0.0000000000000255
210
0.0
220
1.0
230
-0.0000000000000002
  0
LINE
  5
38C6
  8
0
  6
VERDECKT
 62
     1
 10
896.421346539186402
 20
94.2076751295857235
 30
-0.0000000000000209
 11
981.2014338038031838
 21
94.2076751295857235
 31
-0.0000000000000209
210
0.0
220
1.0
230
-0.0000000000000002
  0
LINE
  5
38C7
  8
0
  6
VERDECKT
 62
     1
 10
902.3113901714948497
 20
5.0000000000011369
 30
-0.0000000000000011
 11
975.3113901714948497
 21
5.0000000000011369
 31
-0.0000000000000011
210
0.0
220
1.0
230
-0.0000000000000002
  0
ARC
  5
38C8
  8
0
  6
VERDECKT
 62
     1
 10
-891.0613901714922349
 20
87.4561178058408188
 30
0.0
 40
9.6000000000025167
210
0.0
220
-0.0000000000000002
230
-1.0
 50
150.3168598208818878
 51
179.9999999999972999
  0
ARC
  5
38C9
  8
0
  6
VERDECKT
 62
     1
 10
-986.5613901714975782
 20
87.4561178058407478
 30
0.0
 40
9.6000000000026358
210
0.0
220
-0.0000000000000002
230
-1.0
 50
0.0000000000028879
 51
29.6831401791180305
  0
LINE
  5
38CA
  8
0
  6
VERDECKT
 62
     1
 10
899.4016519653443993
 20
92.2100670283355441
 30
-0.0000000000000205
 11
897.8113901714948497
 21
95.0000000000014353
 31
-0.0000000000000211
210
0.0
220
1.0
230
-0.0000000000000002
  0
LINE
  5
38CB
  8
0
  6
VERDECKT
 62
     1
 10
978.2211283776453001
 20
92.2100670283355441
 30
-0.0000000000000205
 11
979.8113901714948497
 21
95.0000000000014353
 31
-0.0000000000000211
210
0.0
220
1.0
230
-0.0000000000000002
  0
LINE
  5
38CC
  8
0
  6
VERDECKT
 62
     1
 10
979.8113901714948497
 20
95.0000000000014637
 30
-0.0000000000000211
 11
981.2014338038031838
 21
94.2076751295857377
 31
-0.0000000000000209
210
0.0
220
1.0
230
-0.0000000000000002
  0
LINE
  5
38CD
  8
0
  6
VERDECKT
 62
     1
 10
897.8113901714948497
 20
95.0000000000014637
 30
-0.0000000000000211
 11
896.421346539186402
 21
94.2076751295857377
 31
-0.0000000000000209
210
0.0
220
1.0
230
-0.0000000000000002
  0
LINE
  5
38CE
  8
0
  6
VERDECKT
 62
     1
 10
898.0116083330359515
 20
91.4177421579197613
 30
-0.0000000000000203
 11
896.421346539186402
 21
94.2076751295857235
 31
-0.0000000000000209
210
0.0
220
1.0
230
-0.0000000000000002
  0
LINE
  5
38CF
  8
0
  6
VERDECKT
 62
     1
 10
979.6111720099537479
 20
91.4177421579197613
 30
-0.0000000000000203
 11
981.2014338038031838
 21
94.2076751295857235
 31
-0.0000000000000209
210
0.0
220
1.0
230
-0.0000000000000002
  0
ARC
  5
38D0
  8
0
  6
VERDECKT
 62
     1
 10
-891.0613901714950771
 20
87.4561178058411741
 30
0.0
 40
7.9999999999997673
210
0.0
220
-0.0000000000000002
230
-1.0
 50
150.316859820875294
 51
179.9999999999994031
  0
ARC
  5
38D1
  8
0
  6
VERDECKT
 62
     1
 10
-986.5613901714946223
 20
87.4561178058411741
 30
0.0
 40
7.9999999999997717
210
0.0
220
-0.0000000000000002
230
-1.0
 50
0.0000000000006107
 51
29.6831401791246989
  0
LINE
  5
38D2
  8
0
  6
VERDECKT
 62
     1
 10
978.5613901714948497
 20
87.4561178058412452
 30
-0.0000000000000194
 11
978.5613901714948497
 21
60.6221468326300013
 31
-0.0000000000000135
210
0.0
220
1.0
230
-0.0000000000000002
  0
LINE
  5
38D3
  8
0
  6
VERDECKT
 62
     1
 10
899.0613901714948497
 20
87.4561178058412452
 30
-0.0000000000000194
 11
899.0613901714948497
 21
60.6221468326300013
 31
-0.0000000000000135
210
0.0
220
1.0
230
-0.0000000000000002
  0
ARC
  5
38D4
  8
0
  6
VERDECKT
 62
     1
 10
-911.0613901714964413
 20
60.6221468326302428
 30
0.0
 40
12.0000000000015898
210
0.0
220
-0.0000000000000002
230
-1.0
 50
326.8770597922621164
 51
359.9999999999988063
  0
ARC
  5
38D5
  8
0
  6
VERDECKT
 62
     1
 10
-966.5613901714931444
 20
60.6221468326302428
 30
0.0
 40
12.0000000000015898
210
0.0
220
-0.0000000000000002
230
-1.0
 50
180.0000000000011084
 51
213.122940207737912
  0
ARC
  5
38D6
  8
0
  6
VERDECKT
 62
     1
 10
-894.3113901714937128
 20
49.6934003354322869
 30
0.0
 40
8.0000000000010196
210
0.0
220
-0.0000000000000002
230
-1.0
 50
146.877059792252993
 51
179.9999999999963904
  0
ARC
  5
38D7
  8
0
  6
VERDECKT
 62
     1
 10
-983.3113901714958729
 20
49.6934003354322869
 30
0.0
 40
8.0000000000010232
210
0.0
220
-0.0000000000000002
230
-1.0
 50
0.0000000000036131
 51
33.122940207746943
  0
LINE
  5
38D8
  8
0
  6
VERDECKT
 62
     1
 10
975.3113901714948497
 20
49.6934003354327984
 30
-0.000000000000011
 11
975.3113901714948497
 21
5.0000000000011369
 31
-0.0000000000000011
210
0.0
220
1.0
230
-0.0000000000000002
  0
LINE
  5
38D9
  8
0
  6
VERDECKT
 62
     1
 10
902.3113901714948497
 20
49.6934003354327984
 30
-0.000000000000011
 11
902.3113901714948497
 21
5.0000000000011369
 31
-0.0000000000000011
210
0.0
220
1.0
230
-0.0000000000000002
  0
LINE
  5
38DA
  8
0
  6
VERDECKT
 62
     1
 10
973.711390171494827
 20
49.6934003354327416
 30
-0.000000000000011
 11
973.711390171494827
 21
5.00000000000108
 31
-0.0000000000000011
210
0.0
220
1.0
230
-0.0000000000000002
  0
LINE
  5
38DB
  8
0
  6
VERDECKT
 62
     1
 10
903.9113901714947588
 20
49.6934003354327416
 30
-0.000000000000011
 11
903.9113901714947588
 21
5.00000000000108
 31
-0.0000000000000011
210
0.0
220
1.0
230
-0.0000000000000002
  0
ARC
  5
38DC
  8
0
  6
VERDECKT
 62
     1
 10
-894.3113901714964413
 20
49.6934003354333029
 30
0.0
 40
9.5999999999984222
210
0.0
220
-0.0000000000000002
230
-1.0
 50
146.8770597922564889
 51
180.0000000000032117
  0
ARC
  5
38DD
  8
0
  6
VERDECKT
 62
     1
 10
-983.3113901714933718
 20
49.6934003354332674
 30
0.0
 40
9.5999999999984311
210
0.0
220
-0.0000000000000002
230
-1.0
 50
359.9999999999968168
 51
33.1229402077435182
  0
ARC
  5
38DE
  8
0
  6
VERDECKT
 62
     1
 10
-911.0613901714935992
 20
60.6221468326296673
 30
0.0
 40
10.3999999999988404
210
0.0
220
-0.0000000000000002
230
-1.0
 50
326.8770597922514867
 51
0.0000000000018447
  0
ARC
  5
38DF
  8
0
  6
VERDECKT
 62
     1
 10
-966.5613901714959866
 20
60.6221468326296673
 30
0.0
 40
10.3999999999988404
210
0.0
220
-0.0000000000000002
230
-1.0
 50
179.9999999999982094
 51
213.1229402077485986
  0
LINE
  5
38E0
  8
0
  6
VERDECKT
 62
     1
 10
976.9613901714949407
 20
87.4561178058412452
 30
-0.0000000000000194
 11
976.9613901714949407
 21
60.6221468326300013
 31
-0.0000000000000135
210
0.0
220
1.0
230
-0.0000000000000002
  0
LINE
  5
38E1
  8
0
  6
VERDECKT
 62
     1
 10
900.6613901714946451
 20
87.4561178058412452
 30
-0.0000000000000194
 11
900.6613901714946451
 21
60.6221468326300013
 31
-0.0000000000000135
210
0.0
220
1.0
230
-0.0000000000000002
  0
LINE
  5
38E2
  8
0
  6
VERDECKT
 62
     1
 10
1045.6405319617820169
 20
123.5000000000015064
 30
-0.0000000000000274
 11
831.9822483812071141
 21
123.5000000000015064
 31
-0.0000000000000274
210
0.0
220
1.0
230
-0.0000000000000002
  0
LINE
  5
38E3
  8
0
  6
VERDECKT
 62
     1
 10
845.8113901714948497
 20
122.0600000000015939
 30
-0.0000000000000271
 11
851.8113901714948497
 21
122.0600000000015939
 31
-0.0000000000000271
210
0.0
220
1.0
230
-0.0000000000000002
  0
LINE
  5
38E4
  8
0
  6
VERDECKT
 62
     1
 10
844.7513901714947906
 20
121.0000000000017053
 30
-0.0000000000000269
 11
852.8713901714946815
 21
121.0000000000017053
 31
-0.0000000000000269
210
0.0
220
1.0
230
-0.0000000000000002
  0
LINE
  5
38E5
  8
0
  6
VERDECKT
 62
     1
 10
1025.8113901714930307
 20
122.0600000000015939
 30
-0.0000000000000271
 11
1031.8113901714930307
 21
122.0600000000015939
 31
-0.0000000000000271
210
0.0
220
1.0
230
-0.0000000000000002
  0
LINE
  5
38E6
  8
0
  6
VERDECKT
 62
     1
 10
1024.7513901714930853
 20
121.0000000000017053
 30
-0.0000000000000269
 11
1032.8713901714929762
 21
121.0000000000017053
 31
-0.0000000000000269
210
0.0
220
1.0
230
-0.0000000000000002
  0
LINE
  5
38E7
  8
0
  6
VERDECKT
 62
     1
 10
935.8113901714941676
 20
122.0600000000016934
 30
-0.0000000000000271
 11
938.8113901714940539
 21
122.0600000000016934
 31
-0.0000000000000271
210
0.0
220
1.0
230
-0.0000000000000002
  0
LINE
  5
38E8
  8
0
  6
VERDECKT
 62
     1
 10
938.8113901714940539
 20
122.0600000000016934
 30
-0.0000000000000271
 11
941.8113901714941676
 21
122.0600000000016934
 31
-0.0000000000000271
210
0.0
220
1.0
230
-0.0000000000000002
  0
LINE
  5
38E9
  8
0
  6
VERDECKT
 62
     1
 10
934.7513901714942222
 20
121.0000000000017053
 30
-0.0000000000000269
 11
938.8113901714940539
 21
121.0000000000017053
 31
-0.0000000000000269
210
0.0
220
1.0
230
-0.0000000000000002
  0
LINE
  5
38EA
  8
0
  6
VERDECKT
 62
     1
 10
938.8113901714940539
 20
121.0000000000017053
 30
-0.0000000000000269
 11
942.871390171494113
 21
121.0000000000017053
 31
-0.0000000000000269
210
0.0
220
1.0
230
-0.0000000000000002
  0
LINE
  5
38EB
  8
0
  6
VERDECKT
 62
     1
 10
942.871390171494113
 20
121.0000000000015064
 30
-0.0000000000000269
 11
995.811390171494736
 21
121.0000000000015064
 31
-0.0000000000000269
210
0.0
220
1.0
230
-0.0000000000000002
  0
LINE
  5
38EC
  8
0
  6
VERDECKT
 62
     1
 10
881.8113901714949634
 20
121.0000000000015064
 30
-0.0000000000000269
 11
934.7513901714942222
 21
121.0000000000015064
 31
-0.0000000000000269
210
0.0
220
1.0
230
-0.0000000000000002
  0
LINE
  5
38ED
  8
0
  6
VERDECKT
 62
     1
 10
895.8982186013502087
 20
96.5000000000014069
 30
-0.0000000000000214
 11
981.7245617416394907
 21
96.5000000000014069
 31
-0.0000000000000214
210
0.0
220
1.0
230
-0.0000000000000002
  0
LINE
  5
38EE
  8
0
  6
VERDECKT
 62
     1
 10
895.898218601349754
 20
94.9999999999997868
 30
-0.0000000000000211
 11
981.7245617416394907
 21
95.0000000000001137
 31
-0.0000000000000211
210
0.0
220
1.0
230
-0.0000000000000002
  0
LINE
  5
38EF
  8
0
  6
VERDECKT
 62
     1
 10
881.2231309644513431
 20
119.4669388634852965
 30
-0.0000000000000265
 11
996.39964937853847
 21
119.4669388634852965
 31
-0.0000000000000265
210
0.0
220
1.0
230
-0.0000000000000002
  0
ARC
  5
38F0
  8
0
  6
VERDECKT
 62
     1
 10
-831.9822483812073415
 20
122.0000000000011937
 30
0.0
 40
1.50000000000025
210
0.0
220
-0.0000000000000002
230
-1.0
 50
65.0000000000023732
 51
89.9999999999956799
  0
ARC
  5
38F1
  8
0
  6
VERDECKT
 62
     1
 10
-1045.6405319617820169
 20
122.0000000000026006
 30
0.0
 40
1.4999999999989191
210
0.0
220
-0.0000000000000002
230
-1.0
 50
89.999999999991303
 51
115.0000000000069065
  0
LINE
  5
38F2
  8
0
  6
VERDECKT
 62
     1
 10
1046.2744593543930023
 20
123.3594616805565067
 30
-0.0000000000000274
 11
1053.1774627788840917
 21
120.1405383194464065
 31
-0.0000000000000267
210
0.0
220
1.0
230
-0.0000000000000002
  0
LINE
  5
38F3
  8
0
  6
VERDECKT
 62
     1
 10
831.3483209885962424
 20
123.3594616805565067
 30
-0.0000000000000274
 11
824.4453175641059488
 21
120.1405383194464065
 31
-0.0000000000000267
210
0.0
220
1.0
230
-0.0000000000000002
  0
ARC
  5
38F4
  8
0
  6
VERDECKT
 62
     1
 10
-841.4216427031892636
 20
121.5000000000022027
 30
0.0
 40
3.499999999999261
210
0.0
220
-0.0000000000000002
230
-1.0
 50
89.9999999999944436
 51
135.0000000000059117
  0
ARC
  5
38F5
  8
0
  6
VERDECKT
 62
     1
 10
-856.2011376398002085
 20
121.5000000000022027
 30
0.0
 40
3.499999999999265
210
0.0
220
-0.0000000000000002
230
-1.0
 50
44.9999999999941025
 51
90.0000000000055849
  0
LINE
  5
38F6
  8
0
  6
VERDECKT
 62
     1
 10
845.8113901714948497
 20
122.0600000000015939
 30
-0.0000000000000271
 11
843.896516437342143
 21
123.9748737341543006
 31
-0.0000000000000275
210
0.0
220
1.0
230
-0.0000000000000002
  0
LINE
  5
38F7
  8
0
  6
VERDECKT
 62
     1
 10
851.8113901714948497
 20
122.0600000000015939
 30
-0.0000000000000271
 11
853.7262639056476701
 21
123.9748737341543006
 31
-0.0000000000000275
210
0.0
220
1.0
230
-0.0000000000000002
  0
LINE
  5
38F8
  8
0
  6
VERDECKT
 62
     1
 10
851.8113901714948497
 20
122.0600000000015939
 30
-0.0000000000000271
 11
852.8713901714946815
 21
121.0000000000017053
 31
-0.0000000000000269
210
0.0
220
1.0
230
-0.0000000000000002
  0
LINE
  5
38F9
  8
0
  6
VERDECKT
 62
     1
 10
845.8113901714948497
 20
122.0600000000015939
 30
-0.0000000000000271
 11
844.7513901714947906
 21
121.0000000000017053
 31
-0.0000000000000269
210
0.0
220
1.0
230
-0.0000000000000002
  0
LINE
  5
38FA
  8
0
  6
VERDECKT
 62
     1
 10
844.7513901714947906
 20
121.0000000000017053
 30
-0.0000000000000269
 11
842.8358562655621427
 21
122.9142135623745986
 31
-0.0000000000000273
210
0.0
220
1.0
230
-0.0000000000000002
  0
LINE
  5
38FB
  8
0
  6
VERDECKT
 62
     1
 10
852.8713901714946815
 20
121.0000000000017053
 30
-0.0000000000000269
 11
854.7869240774276705
 21
122.9142135623745986
 31
-0.0000000000000273
210
0.0
220
1.0
230
-0.0000000000000002
  0
ARC
  5
38FC
  8
0
  6
VERDECKT
 62
     1
 10
-841.4209526088990287
 20
121.4983339650075038
 30
0.0
 40
2.0016661539524221
210
0.0
220
-0.0000000000000002
230
-1.0
 50
90.0197532895226686
 51
134.9802467104809125
  0
ARC
  5
38FD
  8
0
  6
VERDECKT
 62
     1
 10
-856.2018277340906707
 20
121.4983339650075038
 30
0.0
 40
2.001666153952415
210
0.0
220
-0.0000000000000002
230
-1.0
 50
45.0197532895190591
 51
89.9802467104773172
  0
ARC
  5
38FE
  8
0
  6
VERDECKT
 62
     1
 10
-1021.421642703188013
 20
121.5000000000022027
 30
0.0
 40
3.499999999999261
210
0.0
220
-0.0000000000000002
230
-1.0
 50
89.9999999999944436
 51
135.0000000000059117
  0
ARC
  5
38FF
  8
0
  6
VERDECKT
 62
     1
 10
-1036.2011376397990716
 20
121.5000000000025011
 30
0.0
 40
3.4999999999989519
210
0.0
220
-0.0000000000000002
230
-1.0
 50
44.9999999999942588
 51
90.0000000000074607
  0
LINE
  5
3900
  8
0
  6
VERDECKT
 62
     1
 10
1025.8113901714930307
 20
122.0600000000015939
 30
-0.0000000000000271
 11
1023.8965164373410062
 21
123.9748737341543006
 31
-0.0000000000000275
210
0.0
220
1.0
230
-0.0000000000000002
  0
LINE
  5
3901
  8
0
  6
VERDECKT
 62
     1
 10
1031.8113901714930307
 20
122.0600000000015939
 30
-0.0000000000000271
 11
1033.7262639056459648
 21
123.9748737341544
 31
-0.0000000000000275
210
0.0
220
1.0
230
-0.0000000000000002
  0
LINE
  5
3902
  8
0
  6
VERDECKT
 62
     1
 10
1031.8113901714930307
 20
122.0600000000015939
 30
-0.0000000000000271
 11
1032.8713901714929762
 21
121.0000000000017053
 31
-0.0000000000000269
210
0.0
220
1.0
230
-0.0000000000000002
  0
LINE
  5
3903
  8
0
  6
VERDECKT
 62
     1
 10
1025.8113901714930307
 20
122.0600000000015939
 30
-0.0000000000000271
 11
1024.7513901714930853
 21
121.0000000000017053
 31
-0.0000000000000269
210
0.0
220
1.0
230
-0.0000000000000002
  0
LINE
  5
3904
  8
0
  6
VERDECKT
 62
     1
 10
1024.7513901714930853
 20
121.0000000000017053
 30
-0.0000000000000269
 11
1022.8358562655610058
 21
122.9142135623745986
 31
-0.0000000000000273
210
0.0
220
1.0
230
-0.0000000000000002
  0
LINE
  5
3905
  8
0
  6
VERDECKT
 62
     1
 10
1032.8713901714929762
 20
121.0000000000016058
 30
-0.0000000000000269
 11
1034.7869240774259652
 21
122.9142135623745986
 31
-0.0000000000000273
210
0.0
220
1.0
230
-0.0000000000000002
  0
ARC
  5
3906
  8
0
  6
VERDECKT
 62
     1
 10
-1021.4209526088969824
 20
121.4983339650075038
 30
0.0
 40
2.0016661539524221
210
0.0
220
-0.0000000000000002
230
-1.0
 50
90.0197532895226686
 51
134.9802467104809125
  0
ARC
  5
3907
  8
0
  6
VERDECKT
 62
     1
 10
-1036.2018277340889654
 20
121.4983339650075038
 30
0.0
 40
2.0016661539524452
210
0.0
220
-0.0000000000000002
230
-1.0
 50
45.019753289519933
 51
89.9802467104740629
  0
ARC
  5
3908
  8
0
  6
VERDECKT
 62
     1
 10
-931.4216427031886951
 20
121.5000000000022027
 30
0.0
 40
3.499999999999261
210
0.0
220
-0.0000000000000002
230
-1.0
 50
89.9999999999944436
 51
135.0000000000059117
  0
ARC
  5
3909
  8
0
  6
VERDECKT
 62
     1
 10
-946.2011376397995264
 20
121.5000000000022027
 30
0.0
 40
3.499999999999265
210
0.0
220
-0.0000000000000002
230
-1.0
 50
44.9999999999941025
 51
90.0000000000055849
  0
LINE
  5
390A
  8
0
  6
VERDECKT
 62
     1
 10
935.8113901714941676
 20
122.0600000000016934
 30
-0.0000000000000271
 11
933.8965164373413472
 21
123.9748737341544
 31
-0.0000000000000275
210
0.0
220
1.0
230
-0.0000000000000002
  0
LINE
  5
390B
  8
0
  6
VERDECKT
 62
     1
 10
941.8113901714941676
 20
122.0600000000016934
 30
-0.0000000000000271
 11
943.726263905646988
 21
123.9748737341544
 31
-0.0000000000000275
210
0.0
220
1.0
230
-0.0000000000000002
  0
LINE
  5
390C
  8
0
  6
VERDECKT
 62
     1
 10
941.8113901714941676
 20
122.0600000000016934
 30
-0.0000000000000271
 11
942.871390171494113
 21
121.0000000000017053
 31
-0.0000000000000269
210
0.0
220
1.0
230
-0.0000000000000002
  0
LINE
  5
390D
  8
0
  6
VERDECKT
 62
     1
 10
935.8113901714941676
 20
122.0600000000016934
 30
-0.0000000000000271
 11
934.7513901714942222
 21
121.0000000000017053
 31
-0.0000000000000269
210
0.0
220
1.0
230
-0.0000000000000002
  0
LINE
  5
390E
  8
0
  6
VERDECKT
 62
     1
 10
934.7513901714942222
 20
121.0000000000017053
 30
-0.0000000000000269
 11
932.8358562655613468
 21
122.9142135623745986
 31
-0.0000000000000273
210
0.0
220
1.0
230
-0.0000000000000002
  0
LINE
  5
390F
  8
0
  6
VERDECKT
 62
     1
 10
942.871390171494113
 20
121.0000000000017053
 30
-0.0000000000000269
 11
944.7869240774269883
 21
122.9142135623745986
 31
-0.0000000000000273
210
0.0
220
1.0
230
-0.0000000000000002
  0
ARC
  5
3910
  8
0
  6
VERDECKT
 62
     1
 10
-931.4209526088983466
 20
121.4983339650075038
 30
0.0
 40
2.0016661539524221
210
0.0
220
-0.0000000000000002
230
-1.0
 50
90.0197532895226686
 51
134.9802467104809125
  0
ARC
  5
3911
  8
0
  6
VERDECKT
 62
     1
 10
-946.2018277340899886
 20
121.4983339650075038
 30
0.0
 40
2.001666153952415
210
0.0
220
-0.0000000000000002
230
-1.0
 50
45.0197532895190591
 51
89.9802467104773172
  0
ARC
  5
3912
  8
0
  6
VERDECKT
 62
     1
 10
-881.7918944055078327
 20
114.1884017787002961
 30
0.0
 40
6.811626121076011
210
0.0
220
-0.0000000000000002
230
-1.0
 50
90.1639882481306074
 51
124.9610503540305046
  0
ARC
  5
3913
  8
0
  6
VERDECKT
 62
     1
 10
-995.8308859374818667
 20
114.1884017787002961
 30
0.0
 40
6.8116261210759941
210
0.0
220
-0.0000000000000002
230
-1.0
 50
55.0389496459694598
 51
89.8360117518693784
  0
ARC
  5
3914
  8
0
  6
VERDECKT
 62
     1
 10
-881.8618559796234422
 20
114.2884619650641014
 30
0.0
 40
6.6895332762901658
210
0.0
220
-0.0000000000000002
230
-1.0
 50
124.9610503540336026
 51
160.4140654524559011
  0
ARC
  5
3915
  8
0
  6
VERDECKT
 62
     1
 10
-995.7609243633661436
 20
114.2884619650641014
 30
0.0
 40
6.6895332762901889
210
0.0
220
-0.0000000000000002
230
-1.0
 50
19.5859345475440598
 51
55.0389496459663476
  0
ARC
  5
3916
  8
0
  6
VERDECKT
 62
     1
 10
-885.6681104534825408
 20
115.6427554409527971
 30
0.0
 40
2.6495228878621679
210
0.0
220
-0.0000000000000002
230
-1.0
 50
160.4140654524634897
 51
196.6550074101855898
  0
ARC
  5
3917
  8
0
  6
VERDECKT
 62
     1
 10
-991.9546698895072723
 20
115.6427554409527971
 30
0.0
 40
2.649522887862171
210
0.0
220
-0.0000000000000002
230
-1.0
 50
343.3449925898144102
 51
19.5859345475364606
  0
LINE
  5
3918
  8
0
  6
VERDECKT
 62
     1
 10
989.4163001706467639
 20
114.8833802348272997
 30
-0.0000000000000255
 11
989.8726886352308156
 21
113.3578067776064984
 31
-0.0000000000000252
210
0.0
220
1.0
230
-0.0000000000000002
  0
LINE
  5
3919
  8
0
  6
VERDECKT
 62
     1
 10
888.2064801723428218
 20
114.8833802348272997
 30
-0.0000000000000255
 11
887.7500917077587701
 21
113.3578067776064984
 31
-0.0000000000000252
210
0.0
220
1.0
230
-0.0000000000000002
  0
ARC
  5
391A
  8
0
  6
VERDECKT
 62
     1
 10
-908.81139017143812
 20
107.0000000000045048
 30
0.0
 40
21.9999999999431495
210
0.0
220
-0.0000000000000002
230
-1.0
 50
353.3741904351493872
 51
16.7975713069080292
  0
ARC
  5
391B
  8
0
  6
VERDECKT
 62
     1
 10
-968.8113901715515794
 20
107.0000000000045048
 30
0.0
 40
21.9999999999431388
210
0.0
220
-0.0000000000000002
230
-1.0
 50
163.2024286930920027
 51
186.6258095648506128
  0
ARC
  5
391C
  8
0
  6
VERDECKT
 62
     1
 10
-895.8982186013512319
 20
105.5000000000022027
 30
0.0
 40
9.0000000000012363
210
0.0
220
-0.0000000000000002
230
-1.0
 50
270.0000000000064801
 51
353.3741904351667245
  0
ARC
  5
391D
  8
0
  6
VERDECKT
 62
     1
 10
-981.7245617416385812
 20
105.5000000000022027
 30
0.0
 40
9.0000000000011404
210
0.0
220
-0.0000000000000002
230
-1.0
 50
186.625809564833304
 51
269.999999999994202
  0
LINE
  5
391E
  8
0
  6
VERDECKT
 62
     1
 10
977.3113901714948497
 20
96.5000000000014069
 30
-0.0000000000000214
 11
977.3113901714948497
 21
95.0000000000014353
 31
-0.0000000000000211
210
0.0
220
1.0
230
-0.0000000000000002
  0
LINE
  5
391F
  8
0
  6
VERDECKT
 62
     1
 10
900.3113901714949634
 20
96.5000000000014069
 30
-0.0000000000000214
 11
900.3113901714949634
 21
95.0000000000014353
 31
-0.0000000000000211
210
0.0
220
1.0
230
-0.0000000000000002
  0
ARC
  5
3920
  8
0
  6
VERDECKT
 62
     1
 10
-895.8982186013502087
 20
105.5000000000015064
 30
0.0
 40
10.5000000000001101
210
0.0
220
-0.0000000000000002
230
-1.0
 50
270.0
 51
353.3741904351753078
  0
ARC
  5
3921
  8
0
  6
VERDECKT
 62
     1
 10
-981.7245617416392633
 20
105.5000000000017053
 30
0.0
 40
10.5000000000003002
210
0.0
220
-0.0000000000000002
230
-1.0
 50
186.6258095648234132
 51
269.9999999999993747
  0
ARC
  5
3922
  8
0
  6
VERDECKT
 62
     1
 10
-908.8113901714812073
 20
107.0000000000015064
 30
0.0
 40
23.4999999999863007
210
0.0
220
-0.0000000000000002
230
-1.0
 50
353.3741904351733183
 51
16.65737706074421
  0
ARC
  5
3923
  8
0
  6
VERDECKT
 62
     1
 10
-968.8113901715086058
 20
107.0000000000015064
 30
0.0
 40
23.4999999999861906
210
0.0
220
-0.0000000000000002
230
-1.0
 50
163.3426229392557048
 51
186.6258095648267101
  0
LINE
  5
3924
  8
0
  6
VERDECKT
 62
     1
 10
990.8533541711555017
 20
115.3133520939317975
 30
-0.0000000000000256
 11
991.3252361794658327
 21
113.7362257926370006
 31
-0.0000000000000253
210
0.0
220
1.0
230
-0.0000000000000002
  0
LINE
  5
3925
  8
0
  6
VERDECKT
 62
     1
 10
886.769426171834084
 20
115.3133520939317975
 30
-0.0000000000000256
 11
886.2975441635238667
 21
113.7362257926370006
 31
-0.0000000000000253
210
0.0
220
1.0
230
-0.0000000000000002
  0
ARC
  5
3926
  8
0
  6
VERDECKT
 62
     1
 10
-885.7817140568503191
 20
115.6088792029964054
 30
0.0
 40
1.0309759911257861
210
0.0
220
-0.0000000000000002
230
-1.0
 50
158.3249914662094113
 51
196.6573770607556924
  0
ARC
  5
3927
  8
0
  6
VERDECKT
 62
     1
 10
-991.8410662861392666
 20
115.6088792029964054
 30
0.0
 40
1.030975991125777
210
0.0
220
-0.0000000000000002
230
-1.0
 50
343.3426229392442224
 51
21.6750085337905816
  0
ARC
  5
3928
  8
0
  6
VERDECKT
 62
     1
 10
-881.2018854617957686
 20
113.7886576480866978
 30
0.0
 40
5.959265397099986
210
0.0
220
-0.0000000000000002
230
-1.0
 50
122.3938847627103002
 51
158.3249914662272886
  0
ARC
  5
3929
  8
0
  6
VERDECKT
 62
     1
 10
-996.4208948811940445
 20
113.7886576480866978
 30
0.0
 40
5.9592653970999621
210
0.0
220
-0.0000000000000002
230
-1.0
 50
21.6750085337726794
 51
57.6061152372896501
  0
ARC
  5
392A
  8
0
  6
VERDECKT
 62
     1
 10
-881.9613190893165893
 20
114.9856159224331975
 30
0.0
 40
4.5417152057006351
210
0.0
220
-0.0000000000000002
230
-1.0
 50
80.6459268955667454
 51
90.0
  0
ARC
  5
392B
  8
0
  6
VERDECKT
 62
     1
 10
-881.9613190893165893
 20
114.9856159224323022
 30
0.0
 40
4.5417152057014638
210
0.0
220
-0.0000000000000002
230
-1.0
 50
90.0
 51
122.3938847627103002
  0
ARC
  5
392C
  8
0
  6
VERDECKT
 62
     1
 10
-995.6614612536729965
 20
114.9856159224323022
 30
0.0
 40
4.541715205701454
210
0.0
220
-0.0000000000000002
230
-1.0
 50
57.6061152372896714
 51
90.0
  0
ARC
  5
392D
  8
0
  6
VERDECKT
 62
     1
 10
-995.6614612536729965
 20
114.9856159224331975
 30
0.0
 40
4.5417152057006263
210
0.0
220
-0.0000000000000002
230
-1.0
 50
90.0
 51
99.3540731044332546
  0
LINE
  5
392E
  8
0
  6
VERDECKT
 62
     1
 10
995.6614612536729965
 20
119.5273311281337953
 30
-0.0000000000000265
 11
881.9613190893165893
 21
119.5273311281337953
 31
-0.0000000000000265
210
0.0
220
1.0
230
-0.0000000000000002
  0
LINE
  5
392F
  8
0
  6
VERDECKT
 62
     1
 10
881.2231309644513431
 20
119.4669388634852965
 30
-0.0000000000000265
 11
879.0938757502227645
 21
121.5961940777140029
 31
-0.000000000000027
210
0.0
220
1.0
230
-0.0000000000000002
  0
LINE
  5
3930
  8
0
  6
VERDECKT
 62
     1
 10
996.3996493785383564
 20
119.4669388634852965
 30
-0.0000000000000265
 11
998.5289045927670486
 21
121.5961940777140029
 31
-0.000000000000027
210
0.0
220
1.0
230
-0.0000000000000002
  0
ARC
  5
3931
  8
0
  6
VERDECKT
 62
     1
 10
-874.4976816725105664
 20
117.0000000000023022
 30
0.0
 40
6.4999999999990754
210
0.0
220
-0.0000000000000002
230
-1.0
 50
89.9999999999949836
 51
135.0000000000021032
  0
ARC
  5
3932
  8
0
  6
VERDECKT
 62
     1
 10
-1003.1250986704790193
 20
117.0000000000023022
 30
0.0
 40
6.4999999999990878
210
0.0
220
-0.0000000000000002
230
-1.0
 50
44.9999999999978897
 51
90.0000000000050164
  0
ARC
  5
3933
  8
0
  6
VERDECKT
 62
     1
 10
-874.4976816725102253
 20
117.0000000000024016
 30
0.0
 40
7.9999999999990186
210
0.0
220
-0.0000000000000002
230
-1.0
 50
89.9999999999983658
 51
135.0000000000027001
  0
ARC
  5
3934
  8
0
  6
VERDECKT
 62
     1
 10
-1003.1250986704790193
 20
117.0000000000024016
 30
0.0
 40
7.9999999999990399
210
0.0
220
-0.0000000000000002
230
-1.0
 50
44.9999999999972928
 51
90.0000000000016342
  0
LINE
  5
3935
  8
0
  6
VERDECKT
 62
     1
 10
881.8113901714949634
 20
121.0000000000015064
 30
-0.0000000000000269
 11
880.1545359220023101
 21
122.6568542494938043
 31
-0.0000000000000272
210
0.0
220
1.0
230
-0.0000000000000002
  0
LINE
  5
3936
  8
0
  6
VERDECKT
 62
     1
 10
995.811390171494736
 20
121.0000000000015064
 30
-0.0000000000000269
 11
997.4682444209872756
 21
122.6568542494938043
 31
-0.0000000000000272
210
0.0
220
1.0
230
-0.0000000000000002
  0
ENDBLK
  5
3938
  8
0
  0
BLOCK
  8
0
  2
*X19
 70
     1
 10
0.0
 20
0.0
 30
0.0
  3
*X19
  1

  0
LINE
  5
3992
  8
0
 62
     0
 10
23.0184527584589205
 20
167.7313266058505121
 30
0.0
 11
23.1997182877082615
 21
167.9125921350999135
 31
0.0
  0
LINE
  5
3993
  8
0
 62
     0
 10
22.3997182877082999
 20
168.5268056974730086
 30
0.0
 11
23.1997182877082508
 21
169.3268056974729063
 31
0.0
  0
LINE
  5
3994
  8
0
 62
     0
 10
22.3997182877082786
 20
169.9410192598460867
 30
0.0
 11
23.1997182877082615
 21
170.7410192598460981
 31
0.0
  0
LINE
  5
3995
  8
0
 62
     0
 10
22.3997182877082786
 20
171.3552328222191932
 30
0.0
 11
23.1997182877082402
 21
172.1552328222190908
 31
0.0
  0
LINE
  5
3996
  8
0
 62
     0
 10
22.3997182877082999
 20
172.7694463845922996
 30
0.0
 11
23.1997182877082793
 21
173.5694463845921973
 31
0.0
  0
LINE
  5
3997
  8
0
 62
     0
 10
22.3997182877082999
 20
174.1836599469654061
 30
0.0
 11
23.1997182877082508
 21
174.9836599469653038
 31
0.0
  0
LINE
  5
3998
  8
0
 62
     0
 10
22.3997182877083105
 20
175.5978735093385126
 30
0.0
 11
23.1997182877082402
 21
176.3978735093384103
 31
0.0
  0
LINE
  5
3999
  8
0
 62
     0
 10
22.3997182877082786
 20
177.0120870717115054
 30
0.0
 11
23.1997182877082402
 21
177.8120870717114883
 31
0.0
  0
LINE
  5
399A
  8
0
 62
     0
 10
22.3997182877082786
 20
178.4263006340846118
 30
0.0
 11
23.1997182877082402
 21
179.2263006340845948
 31
0.0
  0
LINE
  5
399B
  8
0
 62
     0
 10
22.3997182877082999
 20
179.8405141964576899
 30
0.0
 11
23.1997182877082508
 21
180.6405141964577012
 31
0.0
  0
LINE
  5
399C
  8
0
 62
     0
 10
22.3997182877082999
 20
181.25472775883091
 30
0.0
 11
23.1997182877082508
 21
182.0547277588308077
 31
0.0
  0
LINE
  5
399D
  8
0
 62
     0
 10
22.3997182877083105
 20
182.6689413212039028
 30
0.0
 11
23.1997182877082402
 21
183.4689413212038005
 31
0.0
  0
LINE
  5
399E
  8
0
 62
     0
 10
22.3997182877083105
 20
184.0831548835770093
 30
0.0
 11
23.1997182877082402
 21
184.8831548835769922
 31
0.0
  0
LINE
  5
399F
  8
0
 62
     0
 10
22.3997182877082786
 20
185.4973684459500873
 30
0.0
 11
23.1997182877082402
 21
186.2973684459500987
 31
0.0
  0
LINE
  5
39A0
  8
0
 62
     0
 10
22.3997182877082999
 20
186.9115820083231938
 30
0.0
 11
23.1997182877082508
 21
187.7115820083232052
 31
0.0
  0
LINE
  5
39A1
  8
0
 62
     0
 10
22.3997182877082999
 20
188.3257955706963003
 30
0.0
 11
23.1997182877082508
 21
189.1257955706963116
 31
0.0
  0
LINE
  5
39A2
  8
0
 62
     0
 10
22.3997182877082999
 20
189.740009133069492
 30
0.0
 11
23.2301419487336211
 21
190.5704327940946996
 31
0.0
  0
LINE
  5
39A3
  8
0
 62
     0
 10
22.5623321311036591
 20
191.3168365388378902
 30
0.0
 11
24.271554955945529
 21
193.0260593636797068
 31
0.0
  0
LINE
  5
39A4
  8
0
 62
     0
 10
23.7718532729828986
 20
193.9405712430902042
 30
0.0
 11
24.7969341084524117
 21
194.9656520785597138
 31
0.0
  0
LINE
  5
39A5
  8
0
 62
     0
 10
24.0247182877083283
 20
195.6076498201886977
 30
0.0
 11
24.8247182877082508
 21
196.4076498201887091
 31
0.0
  0
LINE
  5
39A6
  8
0
 62
     0
 10
24.0247182877083283
 20
197.0218633825618042
 30
0.0
 11
24.8247182877082189
 21
197.8218633825617019
 31
0.0
  0
LINE
  5
39A7
  8
0
 62
     0
 10
24.0247182877083283
 20
198.4360769449349107
 30
0.0
 11
24.8247182877082189
 21
199.2360769449348084
 31
0.0
  0
LINE
  5
39A8
  8
0
 62
     0
 10
24.0247182877083105
 20
199.8502905073079887
 30
0.0
 11
24.8247182877082402
 21
200.6502905073078864
 31
0.0
  0
LINE
  5
39A9
  8
0
 62
     0
 10
24.0247182877083105
 20
201.2645040696810952
 30
0.0
 11
24.8247182877082615
 21
202.0645040696811066
 31
0.0
  0
LINE
  5
39AA
  8
0
 62
     0
 10
24.0247182877083283
 20
202.6787176320542017
 30
0.0
 11
24.8247182877082508
 21
203.4787176320540993
 31
0.0
  0
LINE
  5
39AB
  8
0
 62
     0
 10
24.0247182877083283
 20
204.0929311944273081
 30
0.0
 11
24.8247182877082793
 21
204.8929311944272911
 31
0.0
  0
LINE
  5
39AC
  8
0
 62
     0
 10
24.0247182877083283
 20
205.5071447568003862
 30
0.0
 11
24.8247182877082793
 21
206.3071447568003975
 31
0.0
  0
LINE
  5
39AD
  8
0
 62
     0
 10
-13.3002817122917296
 20
168.1821447568003975
 30
0.0
 11
-12.5002817122917804
 21
168.9821447568002952
 31
0.0
  0
LINE
  5
39AE
  8
0
 62
     0
 10
24.0247182877083105
 20
206.9213583191734926
 30
0.0
 11
24.8247182877082615
 21
207.7213583191733903
 31
0.0
  0
LINE
  5
39AF
  8
0
 62
     0
 10
-13.3002817122917492
 20
169.5963583191733903
 30
0.0
 11
-12.5002817122917609
 21
170.3963583191734017
 31
0.0
  0
LINE
  5
39B0
  8
0
 62
     0
 10
24.0247182877083105
 20
208.3355718815465991
 30
0.0
 11
24.8287815949078094
 21
209.139635188746098
 31
0.0
  0
LINE
  5
39B1
  8
0
 62
     0
 10
-13.3002817122917296
 20
171.0105718815464968
 30
0.0
 11
-12.5002817122917804
 21
171.8105718815465082
 31
0.0
  0
LINE
  5
39B2
  8
0
 62
     0
 10
24.1041983100389707
 20
209.8292654662502912
 30
0.0
 11
25.52787164101521
 21
211.2529387972265909
 31
0.0
  0
LINE
  5
39B3
  8
0
 62
     0
 10
-13.3002817122917207
 20
172.4247854439196033
 30
0.0
 11
-12.5002817122917609
 21
173.2247854439195862
 31
0.0
  0
LINE
  5
39B4
  8
0
 62
     0
 10
25.2610514696896296
 20
212.400332188274092
 30
0.0
 11
25.5403728097196705
 21
212.679653528304101
 31
0.0
  0
LINE
  5
39B5
  8
0
 62
     0
 10
-13.3002817122917296
 20
173.8389990062927097
 30
0.0
 11
-12.5002817122917804
 21
174.6389990062926927
 31
0.0
  0
LINE
  5
39B6
  8
0
 62
     0
 10
-13.3002817122917296
 20
175.2532125686657878
 30
0.0
 11
-12.5002817122917804
 21
176.0532125686657992
 31
0.0
  0
LINE
  5
39B7
  8
0
 62
     0
 10
-13.3002817122917492
 20
176.6674261310388943
 30
0.0
 11
-12.5002817122917609
 21
177.4674261310389056
 31
0.0
  0
LINE
  5
39B8
  8
0
 62
     0
 10
-13.3002817122917296
 20
178.0816396934120007
 30
0.0
 11
-12.5002817122917804
 21
178.8816396934120121
 31
0.0
  0
LINE
  5
39B9
  8
0
 62
     0
 10
-13.3002817122917598
 20
179.4958532557851072
 30
0.0
 11
-12.5002817122917804
 21
180.2958532557850901
 31
0.0
  0
LINE
  5
39BA
  8
0
 62
     0
 10
-13.3002817122917296
 20
180.9100668181582137
 30
0.0
 11
-12.5002817122917804
 21
181.7100668181581966
 31
0.0
  0
LINE
  5
39BB
  8
0
 62
     0
 10
-13.3002817122917207
 20
182.3242803805312917
 30
0.0
 11
-12.5002817122917609
 21
183.1242803805313031
 31
0.0
  0
LINE
  5
39BC
  8
0
 62
     0
 10
-13.3002817122917492
 20
183.7384939429043982
 30
0.0
 11
-12.5002817122917609
 21
184.5384939429044096
 31
0.0
  0
LINE
  5
39BD
  8
0
 62
     0
 10
-13.3002817122917296
 20
185.1527075052775047
 30
0.0
 11
-12.5002817122917804
 21
185.9527075052774023
 31
0.0
  0
LINE
  5
39BE
  8
0
 62
     0
 10
-13.3002817122917598
 20
186.5669210676506111
 30
0.0
 11
-12.5002817122917804
 21
187.3669210676505088
 31
0.0
  0
LINE
  5
39BF
  8
0
 62
     0
 10
-13.3002817122917492
 20
187.9811346300236039
 30
0.0
 11
-12.5002817122917893
 21
188.7811346300235869
 31
0.0
  0
LINE
  5
39C0
  8
0
 62
     0
 10
-13.3002817122917492
 20
189.3953481923967956
 30
0.0
 11
-12.5016816853658792
 21
190.193948219322607
 31
0.0
  0
LINE
  5
39C1
  8
0
 62
     0
 10
-13.3575249762011001
 20
190.752318490860489
 30
0.0
 11
-12.69127457189607
 21
191.4185688951654924
 31
0.0
  0
LINE
  5
39C2
  8
0
 62
     0
 10
-13.7009962051581997
 20
191.8230608242764959
 30
0.0
 11
-13.1081233833105308
 21
192.4159336461241878
 31
0.0
  0
LINE
  5
39C3
  8
0
 62
     0
 10
-14.2193995757182403
 20
192.7188710160895937
 30
0.0
 11
-13.6238185053540892
 21
193.3144520864537128
 31
0.0
  0
LINE
  5
39C4
  8
0
 62
     0
 10
-14.6395627638145207
 20
193.7129213903664038
 30
0.0
 11
-13.9897139181444992
 21
194.3627702360363969
 31
0.0
  0
LINE
  5
39C5
  8
0
 62
     0
 10
-14.88841421516568
 20
194.8782835013882959
 30
0.0
 11
-14.1252817122917804
 21
195.6414160042621972
 31
0.0
  0
LINE
  5
39C6
  8
0
 62
     0
 10
-14.9252817122917207
 20
196.2556295666352923
 30
0.0
 11
-14.1252817122917804
 21
197.0556295666353037
 31
0.0
  0
LINE
  5
39C7
  8
0
 62
     0
 10
-14.9252817122917296
 20
197.6698431290083988
 30
0.0
 11
-14.1252817122918106
 21
198.4698431290084102
 31
0.0
  0
LINE
  5
39C8
  8
0
 62
     0
 10
-14.9252817122917296
 20
199.0840566913815053
 30
0.0
 11
-14.1252817122917893
 21
199.8840566913814882
 31
0.0
  0
LINE
  5
39C9
  8
0
 62
     0
 10
-14.9252817122917296
 20
200.4982702537546118
 30
0.0
 11
-14.1252817122918106
 21
201.2982702537545947
 31
0.0
  0
LINE
  5
39CA
  8
0
 62
     0
 10
-14.9252817122917492
 20
201.9124838161276898
 30
0.0
 11
-14.1252817122918106
 21
202.7124838161277012
 31
0.0
  0
LINE
  5
39CB
  8
0
 62
     0
 10
-14.9252817122917207
 20
203.3266973785007963
 30
0.0
 11
-14.1252817122917804
 21
204.1266973785008076
 31
0.0
  0
LINE
  5
39CC
  8
0
 62
     0
 10
-14.9252817122917296
 20
204.7409109408739027
 30
0.0
 11
-14.1252817122917893
 21
205.5409109408738004
 31
0.0
  0
LINE
  5
39CD
  8
0
 62
     0
 10
-14.9252817122917296
 20
206.1551245032470092
 30
0.0
 11
-14.1252817122917893
 21
206.9551245032469922
 31
0.0
  0
LINE
  5
39CE
  8
0
 62
     0
 10
-14.9252817122916994
 20
207.5693380656200873
 30
0.0
 11
-14.1252817122917804
 21
208.3693380656200986
 31
0.0
  0
LINE
  5
39CF
  8
0
 62
     0
 10
-14.9253542753808102
 20
208.9834790649040883
 30
0.0
 11
-14.18633110469443
 21
209.7225022355904969
 31
0.0
  0
LINE
  5
39D0
  8
0
 62
     0
 10
-15.1226616205045694
 20
210.2003852821534906
 30
0.0
 11
-14.5013003302503893
 21
210.8217465724077044
 31
0.0
  0
LINE
  5
39D1
  8
0
 62
     0
 10
-15.5761136409218395
 20
211.161146824109295
 30
0.0
 11
-14.9895949121176102
 21
211.747665552913503
 31
0.0
  0
LINE
  5
39D2
  8
0
 62
     0
 10
-16.0895542336305404
 20
212.0619197937737113
 30
0.0
 11
-15.5030355048263306
 21
212.6484385225778908
 31
0.0
  0
ENDBLK
  5
39D4
  8
0
  0
BLOCK
  8
0
  2
*X20
 70
     1
 10
0.0
 20
0.0
 30
0.0
  3
*X20
  1

  0
LINE
  5
39D6
  8
0
 62
     0
 10
22.1630465790263607
 20
103.2363101196285982
 30
0.0
 11
23.0084501812131492
 21
104.0817137218154045
 31
0.0
  0
LINE
  5
39D7
  8
0
 62
     0
 10
22.2412614383461715
 20
104.7287385413216043
 30
0.0
 11
23.086665040532921
 21
105.574142143508297
 31
0.0
  0
LINE
  5
39D8
  8
0
 62
     0
 10
22.3194762976659717
 20
106.2211669630144968
 30
0.0
 11
23.1648798998527212
 21
107.0665705652012036
 31
0.0
  0
LINE
  5
39D9
  8
0
 62
     0
 10
22.3972753427433098
 20
107.7131795704649022
 30
0.0
 11
23.1997182877082402
 21
108.5156225154298966
 31
0.0
  0
LINE
  5
39DA
  8
0
 62
     0
 10
22.3997182877081791
 20
109.1298360778028069
 30
0.0
 11
23.1997182877082615
 21
109.9298360778029036
 31
0.0
  0
LINE
  5
39DB
  8
0
 62
     0
 10
22.3997182877081791
 20
110.5440496401758992
 30
0.0
 11
23.1997182877082508
 21
111.3440496401759958
 31
0.0
  0
LINE
  5
39DC
  8
0
 62
     0
 10
22.3997182877081684
 20
111.9582632025490057
 30
0.0
 11
23.1997182877082508
 21
112.7582632025491023
 31
0.0
  0
LINE
  5
39DD
  8
0
 62
     0
 10
22.3997182877081684
 20
113.3724767649220979
 30
0.0
 11
23.1997182877082402
 21
114.1724767649221945
 31
0.0
  0
LINE
  5
39DE
  8
0
 62
     0
 10
22.3997182877081613
 20
114.7866903272952044
 30
0.0
 11
23.1997182877082402
 21
115.586690327295301
 31
0.0
  0
LINE
  5
39DF
  8
0
 62
     0
 10
22.3997182877081791
 20
116.2009038896682966
 30
0.0
 11
23.1997182877082615
 21
117.0009038896683933
 31
0.0
  0
LINE
  5
39E0
  8
0
 62
     0
 10
22.3997182877082004
 20
117.6151174520414031
 30
0.0
 11
23.1997182877082508
 21
118.4151174520414997
 31
0.0
  0
LINE
  5
39E1
  8
0
 62
     0
 10
22.3997182877082004
 20
119.0293310144144954
 30
0.0
 11
23.1997182877082508
 21
119.8293310144146062
 31
0.0
  0
LINE
  5
39E2
  8
0
 62
     0
 10
22.3997182877081791
 20
120.4435445767876018
 30
0.0
 11
23.1997182877082508
 21
121.2435445767876985
 31
0.0
  0
LINE
  5
39E3
  8
0
 62
     0
 10
22.3997182877081791
 20
121.8577581391606941
 30
0.0
 11
23.1997182877082402
 21
122.6577581391608049
 31
0.0
  0
LINE
  5
39E4
  8
0
 62
     0
 10
22.3997182877082004
 20
123.2719717015338006
 30
0.0
 11
23.1997182877082615
 21
124.0719717015338972
 31
0.0
  0
LINE
  5
39E5
  8
0
 62
     0
 10
22.3997182877082004
 20
124.686185263906907
 30
0.0
 11
23.1997182877082508
 21
125.4861852639070037
 31
0.0
  0
LINE
  5
39E6
  8
0
 62
     0
 10
22.3997182877082111
 20
126.1003988262799993
 30
0.0
 11
23.1997182877082508
 21
126.9003988262800959
 31
0.0
  0
LINE
  5
39E7
  8
0
 62
     0
 10
22.3997182877082111
 20
127.5146123886531058
 30
0.0
 11
23.1997182877082508
 21
128.3146123886531882
 31
0.0
  0
LINE
  5
39E8
  8
0
 62
     0
 10
22.3997182877082004
 20
128.928825951026198
 30
0.0
 11
23.1997182877082402
 21
129.7288259510262947
 31
0.0
  0
LINE
  5
39E9
  8
0
 62
     0
 10
22.3997182877082288
 20
130.3430395133993045
 30
0.0
 11
23.1997182877082615
 21
131.1430395133994011
 31
0.0
  0
LINE
  5
39EA
  8
0
 62
     0
 10
22.3997182877082111
 20
131.757253075772411
 30
0.0
 11
23.1997182877082508
 21
132.5572530757723939
 31
0.0
  0
LINE
  5
39EB
  8
0
 62
     0
 10
22.3997182877082288
 20
133.171466638145489
 30
0.0
 11
23.1997182877082508
 21
133.9714666381455004
 31
0.0
  0
LINE
  5
39EC
  8
0
 62
     0
 10
22.3997182877082288
 20
134.5856802005185955
 30
0.0
 11
23.1997182877082508
 21
135.3856802005186069
 31
0.0
  0
LINE
  5
39ED
  8
0
 62
     0
 10
22.3997182877082288
 20
135.999893762891702
 30
0.0
 11
23.1997182877082402
 21
136.7998937628917133
 31
0.0
  0
LINE
  5
39EE
  8
0
 62
     0
 10
22.3997182877082395
 20
137.4141073252648084
 30
0.0
 11
23.1997182877082402
 21
138.2141073252649051
 31
0.0
  0
LINE
  5
39EF
  8
0
 62
     0
 10
-12.2830624317060106
 20
102.7313266058505974
 30
0.0
 11
-12.23943153735914
 21
102.7749575001975018
 31
0.0
  0
LINE
  5
39F0
  8
0
 62
     0
 10
22.3997182877082501
 20
138.8283208876378865
 30
0.0
 11
23.1997182877082508
 21
139.6283208876378978
 31
0.0
  0
LINE
  5
39F1
  8
0
 62
     0
 10
-13.07106133548778
 20
103.357541264441906
 30
0.0
 11
-12.3098565130148305
 21
104.1187460869147969
 31
0.0
  0
LINE
  5
39F2
  8
0
 62
     0
 10
22.3997182877082501
 20
140.2425344500109929
 30
0.0
 11
23.1997182877082508
 21
141.0425344500110043
 31
0.0
  0
LINE
  5
39F3
  8
0
 62
     0
 10
-13.1414863111435203
 20
104.7013298511592012
 30
0.0
 11
-12.3802814886705903
 21
105.4625346736322058
 31
0.0
  0
LINE
  5
39F4
  8
0
 62
     0
 10
22.3997182877082395
 20
141.6567480123840994
 30
0.0
 11
23.1997182877082615
 21
142.4567480123841108
 31
0.0
  0
LINE
  5
39F5
  8
0
 62
     0
 10
-13.2119112867992801
 20
106.0451184378765959
 30
0.0
 11
-12.4507064643263394
 21
106.806323260349501
 31
0.0
  0
LINE
  5
39F6
  8
0
 62
     0
 10
22.3997182877082395
 20
143.0709615747572059
 30
0.0
 11
23.1997182877082402
 21
143.8709615747571888
 31
0.0
  0
LINE
  5
39F7
  8
0
 62
     0
 10
-13.2823362624550008
 20
107.3889070245940047
 30
0.0
 11
-12.5002817122916898
 21
108.1709615747572997
 31
0.0
  0
LINE
  5
39F8
  8
0
 62
     0
 10
22.3997182877082395
 20
144.4851751371303124
 30
0.0
 11
23.1997182877082508
 21
145.2851751371302953
 31
0.0
  0
LINE
  5
39F9
  8
0
 62
     0
 10
-13.3002817122917794
 20
108.7851751371302953
 30
0.0
 11
-12.5002817122917094
 21
109.5851751371304061
 31
0.0
  0
LINE
  5
39FA
  8
0
 62
     0
 10
22.3997182877082501
 20
145.8993886995033904
 30
0.0
 11
23.1997182877082793
 21
146.6993886995034018
 31
0.0
  0
LINE
  5
39FB
  8
0
 62
     0
 10
-13.3002817122917598
 20
110.1993886995034018
 30
0.0
 11
-12.5002817122916792
 21
110.9993886995033989
 31
0.0
  0
LINE
  5
39FC
  8
0
 62
     0
 10
22.3997182877082501
 20
147.3136022618764969
 30
0.0
 11
23.1997182877082508
 21
148.1136022618765082
 31
0.0
  0
LINE
  5
39FD
  8
0
 62
     0
 10
-13.3002817122917598
 20
111.613602261876494
 30
0.0
 11
-12.5002817122916792
 21
112.4136022618766049
 31
0.0
  0
LINE
  5
39FE
  8
0
 62
     0
 10
22.3997182877082395
 20
148.7278158242496033
 30
0.0
 11
23.1997182877082615
 21
149.5278158242495863
 31
0.0
  0
LINE
  5
39FF
  8
0
 62
     0
 10
-13.3002817122917794
 20
113.0278158242496005
 30
0.0
 11
-12.5002817122916898
 21
113.8278158242496971
 31
0.0
  0
LINE
  5
3A00
  8
0
 62
     0
 10
22.3997182877082786
 20
150.1420293866227098
 30
0.0
 11
23.1997182877082615
 21
150.9420293866226928
 31
0.0
  0
LINE
  5
3A01
  8
0
 62
     0
 10
-13.3002817122917794
 20
114.442029386622707
 30
0.0
 11
-12.5002817122917094
 21
115.2420293866228036
 31
0.0
  0
LINE
  5
3A02
  8
0
 62
     0
 10
22.3997182877082714
 20
151.5562429489959015
 30
0.0
 11
23.1997182877082508
 21
152.3562429489957992
 31
0.0
  0
LINE
  5
3A03
  8
0
 62
     0
 10
-13.3002817122917794
 20
115.8562429489957992
 30
0.0
 11
-12.5002817122917094
 21
116.6562429489958959
 31
0.0
  0
LINE
  5
3A04
  8
0
 62
     0
 10
22.3997182877082786
 20
152.9704565113688943
 30
0.0
 11
23.1997182877082615
 21
153.7704565113689057
 31
0.0
  0
LINE
  5
3A05
  8
0
 62
     0
 10
-13.3002817122917794
 20
117.2704565113689057
 30
0.0
 11
-12.5002817122916898
 21
118.0704565113690023
 31
0.0
  0
LINE
  5
3A06
  8
0
 62
     0
 10
22.3997182877082999
 20
154.3846700737420008
 30
0.0
 11
23.1997182877082615
 21
155.1846700737420122
 31
0.0
  0
LINE
  5
3A07
  8
0
 62
     0
 10
-13.3002817122917598
 20
118.684670073741998
 30
0.0
 11
-12.5002817122916792
 21
119.4846700737419951
 31
0.0
  0
LINE
  5
3A08
  8
0
 62
     0
 10
22.3997182877082786
 20
155.7988836361151073
 30
0.0
 11
23.1997182877082615
 21
156.5988836361150902
 31
0.0
  0
LINE
  5
3A09
  8
0
 62
     0
 10
-13.3002817122917598
 20
120.0988836361151044
 30
0.0
 11
-12.5002817122917094
 21
120.8988836361151016
 31
0.0
  0
LINE
  5
3A0A
  8
0
 62
     0
 10
22.3997182877082786
 20
157.2130971984882137
 30
0.0
 11
23.1997182877082615
 21
158.0130971984881967
 31
0.0
  0
LINE
  5
3A0B
  8
0
 62
     0
 10
-13.3002817122917598
 20
121.5130971984881967
 30
0.0
 11
-12.5002817122917094
 21
122.3130971984881938
 31
0.0
  0
LINE
  5
3A0C
  8
0
 62
     0
 10
22.3997182877082786
 20
158.6273107608612918
 30
0.0
 11
23.1997182877082615
 21
159.4273107608613032
 31
0.0
  0
LINE
  5
3A0D
  8
0
 62
     0
 10
-13.3002817122917492
 20
122.9273107608613032
 30
0.0
 11
-12.5002817122916898
 21
123.7273107608613003
 31
0.0
  0
LINE
  5
3A0E
  8
0
 62
     0
 10
22.3997182877082786
 20
160.0415243232343983
 30
0.0
 11
23.1997182877082793
 21
160.8415243232344096
 31
0.0
  0
LINE
  5
3A0F
  8
0
 62
     0
 10
-13.3002817122917492
 20
124.3415243232343954
 30
0.0
 11
-12.5002817122917094
 21
125.1415243232344068
 31
0.0
  0
LINE
  5
3A10
  8
0
 62
     0
 10
22.3997182877083105
 20
161.4557378856075047
 30
0.0
 11
23.1997182877082899
 21
162.2557378856074877
 31
0.0
  0
LINE
  5
3A11
  8
0
 62
     0
 10
-13.3002817122917492
 20
125.7557378856074024
 30
0.0
 11
-12.50028171229172
 21
126.555737885607499
 31
0.0
  0
LINE
  5
3A12
  8
0
 62
     0
 10
22.3997182877082786
 20
162.8699514479806112
 30
0.0
 11
23.1997182877082615
 21
163.6699514479805941
 31
0.0
  0
LINE
  5
3A13
  8
0
 62
     0
 10
-13.3002817122917492
 20
127.1699514479805941
 30
0.0
 11
-12.50028171229172
 21
127.9699514479806055
 31
0.0
  0
LINE
  5
3A14
  8
0
 62
     0
 10
22.3997182877082786
 20
164.2841650103536892
 30
0.0
 11
23.1997182877082793
 21
165.0841650103537006
 31
0.0
  0
LINE
  5
3A15
  8
0
 62
     0
 10
-13.3002817122917598
 20
128.5841650103537006
 30
0.0
 11
-12.50028171229172
 21
129.384165010353712
 31
0.0
  0
LINE
  5
3A16
  8
0
 62
     0
 10
22.3997182877083105
 20
165.6983785727267957
 30
0.0
 11
23.1997182877082899
 21
166.4983785727268071
 31
0.0
  0
LINE
  5
3A17
  8
0
 62
     0
 10
-13.3002817122917492
 20
129.9983785727268071
 30
0.0
 11
-12.50028171229172
 21
130.79837857272679
 31
0.0
  0
LINE
  5
3A18
  8
0
 62
     0
 10
22.3997182877082786
 20
167.1125921350999022
 30
0.0
 11
23.0184527584588885
 21
167.7313266058505121
 31
0.0
  0
LINE
  5
3A19
  8
0
 62
     0
 10
-13.3002817122917492
 20
131.4125921350999135
 30
0.0
 11
-12.50028171229172
 21
132.2125921350998965
 31
0.0
  0
LINE
  5
3A1A
  8
0
 62
     0
 10
-13.3002817122917492
 20
132.8268056974729063
 30
0.0
 11
-12.50028171229172
 21
133.626805697473003
 31
0.0
  0
LINE
  5
3A1B
  8
0
 62
     0
 10
-13.3002817122917492
 20
134.2410192598460128
 30
0.0
 11
-12.5002817122917396
 21
135.0410192598459957
 31
0.0
  0
LINE
  5
3A1C
  8
0
 62
     0
 10
-13.3002817122917296
 20
135.6552328222192045
 30
0.0
 11
-12.5002817122917396
 21
136.4552328222191022
 31
0.0
  0
LINE
  5
3A1D
  8
0
 62
     0
 10
-13.3002817122917492
 20
137.0694463845921973
 30
0.0
 11
-12.50028171229172
 21
137.8694463845922087
 31
0.0
  0
LINE
  5
3A1E
  8
0
 62
     0
 10
-13.3002817122917296
 20
138.4836599469653038
 30
0.0
 11
-12.5002817122917396
 21
139.2836599469652867
 31
0.0
  0
LINE
  5
3A1F
  8
0
 62
     0
 10
-13.3002817122917207
 20
139.8978735093384103
 30
0.0
 11
-12.50028171229172
 21
140.6978735093383932
 31
0.0
  0
LINE
  5
3A20
  8
0
 62
     0
 10
-13.3002817122917492
 20
141.3120870717114883
 30
0.0
 11
-12.5002817122917502
 21
142.1120870717114997
 31
0.0
  0
LINE
  5
3A21
  8
0
 62
     0
 10
-13.3002817122917296
 20
142.7263006340845948
 30
0.0
 11
-12.5002817122917502
 21
143.5263006340846061
 31
0.0
  0
LINE
  5
3A22
  8
0
 62
     0
 10
-13.3002817122917296
 20
144.1405141964577012
 30
0.0
 11
-12.5002817122917502
 21
144.9405141964577126
 31
0.0
  0
LINE
  5
3A23
  8
0
 62
     0
 10
-13.3002817122917296
 20
145.5547277588308077
 30
0.0
 11
-12.5002817122917502
 21
146.3547277588307907
 31
0.0
  0
LINE
  5
3A24
  8
0
 62
     0
 10
-13.3002817122917207
 20
146.9689413212039142
 30
0.0
 11
-12.5002817122917502
 21
147.7689413212038971
 31
0.0
  0
LINE
  5
3A25
  8
0
 62
     0
 10
-13.3002817122917492
 20
148.3831548835769922
 30
0.0
 11
-12.5002817122917502
 21
149.1831548835770036
 31
0.0
  0
LINE
  5
3A26
  8
0
 62
     0
 10
-13.3002817122917296
 20
149.7973684459500987
 30
0.0
 11
-12.5002817122917502
 21
150.5973684459501101
 31
0.0
  0
LINE
  5
3A27
  8
0
 62
     0
 10
-13.3002817122917492
 20
151.2115820083232052
 30
0.0
 11
-12.5002817122917502
 21
152.0115820083231881
 31
0.0
  0
LINE
  5
3A28
  8
0
 62
     0
 10
-13.3002817122917296
 20
152.6257955706963116
 30
0.0
 11
-12.5002817122917502
 21
153.4257955706962946
 31
0.0
  0
LINE
  5
3A29
  8
0
 62
     0
 10
-13.3002817122917296
 20
154.0400091330693897
 30
0.0
 11
-12.5002817122917804
 21
154.8400091330692874
 31
0.0
  0
LINE
  5
3A2A
  8
0
 62
     0
 10
-13.3002817122917492
 20
155.4542226954424109
 30
0.0
 11
-12.5002817122917502
 21
156.2542226954425075
 31
0.0
  0
LINE
  5
3A2B
  8
0
 62
     0
 10
-13.3002817122917296
 20
156.8684362578156026
 30
0.0
 11
-12.5002817122917804
 21
157.6684362578155003
 31
0.0
  0
LINE
  5
3A2C
  8
0
 62
     0
 10
-13.3002817122917492
 20
158.2826498201887091
 30
0.0
 11
-12.5002817122917502
 21
159.0826498201886068
 31
0.0
  0
LINE
  5
3A2D
  8
0
 62
     0
 10
-13.3002817122917296
 20
159.6968633825617871
 30
0.0
 11
-12.5002817122917502
 21
160.4968633825617133
 31
0.0
  0
LINE
  5
3A2E
  8
0
 62
     0
 10
-13.3002817122917296
 20
161.1110769449348936
 30
0.0
 11
-12.5002817122917804
 21
161.9110769449347913
 31
0.0
  0
LINE
  5
3A2F
  8
0
 62
     0
 10
-13.3002817122917492
 20
162.5252905073078864
 30
0.0
 11
-12.5002817122917609
 21
163.3252905073078978
 31
0.0
  0
LINE
  5
3A30
  8
0
 62
     0
 10
-13.3002817122917296
 20
163.9395040696809929
 30
0.0
 11
-12.5002817122917804
 21
164.7395040696810042
 31
0.0
  0
LINE
  5
3A31
  8
0
 62
     0
 10
-13.3002817122917207
 20
165.3537176320540993
 30
0.0
 11
-12.5002817122917502
 21
166.1537176320541107
 31
0.0
  0
LINE
  5
3A32
  8
0
 62
     0
 10
-13.3002817122917296
 20
166.7679311944272058
 30
0.0
 11
-12.5002817122917804
 21
167.5679311944271888
 31
0.0
  0
ENDBLK
  5
3A34
  8
0
  0
BLOCK
  8
0
  2
*X21
 70
     1
 10
0.0
 20
0.0
 30
0.0
  3
*X21
  1

  0
LINE
  5
3A36
  8
0
 62
     0
 10
62.3792477208132183
 20
225.8302019874521989
 30
0.0
 11
62.0345068111344915
 21
226.1749428971309896
 31
0.0
  0
LINE
  5
3A37
  8
0
 62
     0
 10
60.935221554158467
 20
225.8600145917338864
 30
0.0
 11
59.384640115494669
 21
227.4105960303976133
 31
0.0
  0
LINE
  5
3A38
  8
0
 62
     0
 10
58.3996959776685713
 20
226.9813266058505974
 30
0.0
 11
57.6496959776685998
 21
227.7313266058505974
 31
0.0
  0
LINE
  5
3A39
  8
0
 62
     0
 10
56.985482415295472
 20
226.9813266058505974
 30
0.0
 11
56.235482415295472
 21
227.7313266058507111
 31
0.0
  0
LINE
  5
3A3A
  8
0
 62
     0
 10
55.571268852922401
 20
226.9813266058507111
 30
0.0
 11
54.8212688529223726
 21
227.7313266058507111
 31
0.0
  0
LINE
  5
3A3B
  8
0
 62
     0
 10
54.1570552905492875
 20
226.9813266058507111
 30
0.0
 11
53.4213525156312272
 21
227.7170293807687926
 31
0.0
  0
LINE
  5
3A3C
  8
0
 62
     0
 10
52.9883341361004625
 20
226.7358341979264083
 30
0.0
 11
52.4572554931704005
 21
227.2669128408564916
 31
0.0
  0
LINE
  5
3A3D
  8
0
 62
     0
 10
52.2792764668264311
 20
226.0306783048274042
 30
0.0
 11
51.7491732267557367
 21
226.560781544897992
 31
0.0
  0
LINE
  5
3A3E
  8
0
 62
     0
 10
48.1278528831959207
 20
225.9394612013385881
 30
0.0
 11
46.3379624757114712
 21
227.7293516088230945
 31
0.0
  0
LINE
  5
3A3F
  8
0
 62
     0
 10
45.6717739163106913
 20
226.9813266058507111
 30
0.0
 11
44.9217739163106629
 21
227.7313266058507963
 31
0.0
  0
LINE
  5
3A40
  8
0
 62
     0
 10
44.2575603539376203
 20
226.9813266058507111
 30
0.0
 11
43.5075603539375919
 21
227.7313266058507963
 31
0.0
  0
LINE
  5
3A41
  8
0
 62
     0
 10
42.8433467915645068
 20
226.9813266058507111
 30
0.0
 11
42.0933467915644783
 21
227.7313266058507111
 31
0.0
  0
LINE
  5
3A42
  8
0
 62
     0
 10
41.4291332291914429
 20
226.9813266058507111
 30
0.0
 11
40.6791332291914074
 21
227.7313266058507111
 31
0.0
  0
LINE
  5
3A43
  8
0
 62
     0
 10
40.0149196668183365
 20
226.9813266058507111
 30
0.0
 11
39.2649196668183009
 21
227.7313266058507963
 31
0.0
  0
LINE
  5
3A44
  8
0
 62
     0
 10
38.6007061044452513
 20
226.9813266058507111
 30
0.0
 11
37.85070610444523
 21
227.7313266058507111
 31
0.0
  0
LINE
  5
3A45
  8
0
 62
     0
 10
37.186492542072159
 20
226.9813266058505974
 30
0.0
 11
36.4850706024310227
 21
227.6827485454917905
 31
0.0
  0
LINE
  5
3A46
  8
0
 62
     0
 10
35.9754625690800722
 20
226.7781430164696985
 30
0.0
 11
35.4031258492810395
 21
227.35047973626871
 31
0.0
  0
LINE
  5
3A47
  8
0
 62
     0
 10
35.0729424271308119
 20
226.2664495960457884
 30
0.0
 11
34.5400283953753586
 21
226.7993636278013128
 31
0.0
  0
LINE
  5
3A48
  8
0
 62
     0
 10
34.352115157220517
 20
225.5730633035830124
 30
0.0
 11
33.8217850713319734
 21
226.1033933894715915
 31
0.0
  0
LINE
  5
3A49
  8
0
 62
     0
 10
33.5123170050270289
 20
224.9986478934033869
 30
0.0
 11
32.8382930979750327
 21
225.6726718004553902
 31
0.0
  0
LINE
  5
3A4A
  8
0
 62
     0
 10
32.3571392730040728
 20
224.7396120630531868
 30
0.0
 11
31.7973926947933307
 21
225.299358641264007
 31
0.0
  0
LINE
  5
3A4B
  8
0
 62
     0
 10
31.5512376997732709
 20
224.1313000739108929
 30
0.0
 11
31.0012906953875884
 21
224.6812470782965931
 31
0.0
  0
LINE
  5
3A4C
  8
0
 62
     0
 10
31.0018727147023014
 20
223.2664514966089087
 30
0.0
 11
30.4209505707572987
 21
223.8473736405539114
 31
0.0
  0
LINE
  5
3A4D
  8
0
 62
     0
 10
31.3735662073825416
 20
221.4805444415555939
 30
0.0
 11
30.2825139682070912
 21
222.5715966807310053
 31
0.0
  0
LINE
  5
3A4E
  8
0
 62
     0
 10
31.6521297006721589
 20
219.7877673858928063
 30
0.0
 11
30.77919187600817
 21
220.660705210556813
 31
0.0
  0
LINE
  5
3A4F
  8
0
 62
     0
 10
31.6929554566189893
 20
218.3327280675729014
 30
0.0
 11
30.9441418471270318
 21
219.0815416770647914
 31
0.0
  0
LINE
  5
3A50
  8
0
 62
     0
 10
31.571262434641941
 20
217.0402075271769036
 30
0.0
 11
30.9021392273411095
 21
217.7093307344777031
 31
0.0
  0
LINE
  5
3A51
  8
0
 62
     0
 10
31.2473577319732492
 20
215.9498986674724961
 30
0.0
 11
30.6662002642372009
 21
216.5310561352085017
 31
0.0
  0
LINE
  5
3A52
  8
0
 62
     0
 10
30.7501665154916495
 20
215.032876321581
 30
0.0
 11
30.2085562101262504
 21
215.5744866269463955
 31
0.0
  0
LINE
  5
3A53
  8
0
 62
     0
 10
30.1092020693039295
 20
214.2596272053955886
 30
0.0
 11
29.5788699996157298
 21
214.7899592750837883
 31
0.0
  0
LINE
  5
3A54
  8
0
 62
     0
 10
29.3323049323211116
 20
213.6223107800053072
 30
0.0
 11
28.7900573893977203
 21
214.1645583229287126
 31
0.0
  0
LINE
  5
3A55
  8
0
 62
     0
 10
28.4111840007031411
 20
213.1292181492501925
 30
0.0
 11
27.8284449676870196
 21
213.7119571822663033
 31
0.0
  0
LINE
  5
3A56
  8
0
 62
     0
 10
27.3155300376739696
 20
212.810658549906293
 30
0.0
 11
26.6388493741055186
 21
213.4873392134747974
 31
0.0
  0
LINE
  5
3A57
  8
0
 62
     0
 10
25.9806484193564913
 20
212.7313266058507111
 30
0.0
 11
25.2306484193565694
 21
213.4813266058505974
 31
0.0
  0
LINE
  5
3A58
  8
0
 62
     0
 10
24.5664348569833386
 20
212.7313266058507111
 30
0.0
 11
24.1997182877083787
 21
213.0980431751256958
 31
0.0
  0
LINE
  5
3A59
  8
0
 62
     0
 10
-20.5526547083346109
 20
223.9092906742143043
 30
0.0
 11
-21.9947759550061193
 21
225.3514119208857949
 31
0.0
  0
LINE
  5
3A5A
  8
0
 62
     0
 10
-23.001651543044499
 20
224.9440739465511001
 30
0.0
 11
-25.3108491847961297
 21
227.2532715883027095
 31
0.0
  0
LINE
  5
3A5B
  8
0
 62
     0
 10
-20.4397463822345387
 20
222.3821687857411007
 30
0.0
 11
-21.05134548567192
 21
222.993767889178514
 31
0.0
  0
LINE
  5
3A5C
  8
0
 62
     0
 10
-26.3334927477884584
 20
226.8617015889219886
 30
0.0
 11
-27.2031157444481586
 21
227.7313245855816888
 31
0.0
  0
LINE
  5
3A5D
  8
0
 62
     0
 10
-20.7511103594997088
 20
221.2793192006332106
 30
0.0
 11
-21.3664556788359796
 21
221.8946645199694956
 31
0.0
  0
LINE
  5
3A5E
  8
0
 62
     0
 10
-20.9671490355618211
 20
220.0811443143223016
 30
0.0
 11
-21.6271223828756796
 21
220.7411176616361104
 31
0.0
  0
LINE
  5
3A5F
  8
0
 62
     0
 10
-27.8673313270902092
 20
226.9813266058507111
 30
0.0
 11
-28.6173313270902412
 21
227.7313266058507111
 31
0.0
  0
LINE
  5
3A60
  8
0
 62
     0
 10
-14.3002817122916301
 20
213.4142769910521054
 30
0.0
 11
-14.3673313270902092
 21
213.4813266058507111
 31
0.0
  0
LINE
  5
3A61
  8
0
 62
     0
 10
-21.0502657817437999
 20
218.7500474981312095
 30
0.0
 11
-21.7766341700651793
 21
219.4764158864525996
 31
0.0
  0
LINE
  5
3A62
  8
0
 62
     0
 10
-29.2815448894632908
 20
226.9813266058507111
 30
0.0
 11
-30.0315448894633299
 21
227.7313266058507111
 31
0.0
  0
LINE
  5
3A63
  8
0
 62
     0
 10
-15.0315448894632802
 20
212.7313266058507111
 30
0.0
 11
-15.7815448894631292
 21
213.4813266058505121
 31
0.0
  0
LINE
  5
3A64
  8
0
 62
     0
 10
-20.943554181839481
 20
217.2291223358537877
 30
0.0
 11
-21.7814899789598115
 21
218.0670581329740969
 31
0.0
  0
LINE
  5
3A65
  8
0
 62
     0
 10
-30.6957584518364008
 20
226.9813266058507111
 30
0.0
 11
-31.4457584518364115
 21
227.7313266058507111
 31
0.0
  0
LINE
  5
3A66
  8
0
 62
     0
 10
-16.4457584518363795
 20
212.7313266058507111
 30
0.0
 11
-17.2590717673610889
 21
213.5446399213753921
 31
0.0
  0
LINE
  5
3A67
  8
0
 62
     0
 10
-32.109972014209518
 20
226.9813266058507111
 30
0.0
 11
-32.8599720142095109
 21
227.7313266058507111
 31
0.0
  0
LINE
  5
3A68
  8
0
 62
     0
 10
-18.11106808777458
 20
212.9824226794158051
 30
0.0
 11
-21.5057714237995192
 21
216.3771260154406946
 31
0.0
  0
LINE
  5
3A69
  8
0
 62
     0
 10
-33.5241855765826173
 20
226.9813266058507111
 30
0.0
 11
-34.2741855765826315
 21
227.7313266058507111
 31
0.0
  0
LINE
  5
3A6A
  8
0
 62
     0
 10
-34.9383991389557096
 20
226.9813266058507111
 30
0.0
 11
-35.6883991389556883
 21
227.7313266058507111
 31
0.0
  0
LINE
  5
3A6B
  8
0
 62
     0
 10
-36.3526127013288232
 20
226.9813266058507111
 30
0.0
 11
-36.985315076841097
 21
227.6140289813631057
 31
0.0
  0
LINE
  5
3A6C
  8
0
 62
     0
 10
-37.2682239021065911
 20
226.4827242442553938
 30
0.0
 11
-37.7985539879965486
 21
227.013054330145394
 31
0.0
  0
LINE
  5
3A6D
  8
0
 62
     0
 10
-37.9753306832931017
 20
225.7756174630688975
 30
0.0
 11
-38.5056607691833293
 21
226.3059475489590113
 31
0.0
  0
LINE
  5
3A6E
  8
0
 62
     0
 10
-43.3361277320172604
 20
226.8937738246737013
 30
0.0
 11
-44.1736805131942774
 21
227.7313266058507111
 31
0.0
  0
LINE
  5
3A6F
  8
0
 62
     0
 10
-44.8378940755673909
 20
226.9813266058507111
 30
0.0
 11
-45.5878940755673483
 21
227.7313266058507111
 31
0.0
  0
LINE
  5
3A70
  8
0
 62
     0
 10
-46.2521076379404477
 20
226.9813266058507111
 30
0.0
 11
-47.0021076379404619
 21
227.7313266058507111
 31
0.0
  0
LINE
  5
3A71
  8
0
 62
     0
 10
-47.666321200313547
 20
226.9813266058507111
 30
0.0
 11
-48.4163212003135328
 21
227.7313266058507111
 31
0.0
  0
LINE
  5
3A72
  8
0
 62
     0
 10
-48.937615325830663
 20
226.8384071689947064
 30
0.0
 11
-49.5019808153099703
 21
227.4027726584739924
 31
0.0
  0
LINE
  5
3A73
  8
0
 62
     0
 10
-49.9020879278169005
 20
226.3886662086079014
 30
0.0
 11
-50.4664534172962078
 21
226.9530316980871021
 31
0.0
  0
LINE
  5
3A74
  8
0
 62
     0
 10
-50.8665605298031593
 20
225.9389252482210111
 30
0.0
 11
-51.4309260192824311
 21
226.5032907377002971
 31
0.0
  0
LINE
  5
3A75
  8
0
 62
     0
 10
-51.8310331317893969
 20
225.4891842878342061
 30
0.0
 11
-52.3953986212686686
 21
226.0535497773134921
 31
0.0
  0
ENDBLK
  5
3A77
  8
0
  0
ENDSEC
  0
SECTION
  2
ENTITIES
  0
TEXT
  5
8F
  8
VOLL
 10
78.076754716981128
 20
31.025947764705851
 30
0.0
 40
1.8
  1

  7
GREEKS
  0
INSERT
  5
1AAA
  8
ADSK_ASSOC_ENTITY_BACKUPS
  2
*S0
 10
0.0
 20
0.0
 30
0.0
  0
INSERT
  5
385A
  8
STEMPEL
  2
A$CA7B502A9
 10
548.2651436732330694
 20
-279.1982251776078101
 30
-35.2687322939847405
  0
INSERT
  5
3939
  8
STEMPEL
  2
A$C90D193FA
 10
548.2651436732329557
 20
318.8858397751307052
 30
-35.2687322939845629
  0
VIEWPORT
  5
2443
 67
     1
  8
0
 10
4.9489333823385593
 20
165.2293225056473034
 30
0.0
 40
224.7763677983978994
 41
125.9108263469635034
 68
     1
 69
     1
1001
ACAD
1000
MVIEW
1002
{
1070
    16
1010
0.0
1020
0.0
1030
0.0
1010
0.0
1020
0.0
1030
1.0
1040
0.0
1040
125.9108263469635034
1040
4.9489333823385593
1040
165.2293225056473034
1040
50.0
1040
0.0
1040
0.0
1070
     0
1070
  1500
1070
     1
1070
     1
1070
     0
1070
     0
1070
     0
1070
     0
1040
0.0
1040
0.0
1040
0.0
1040
10.0
1040
10.0
1040
10.0
1040
10.0
1070
     0
1002
{
1002
}
1002
}
  0
INSERT
  5
27BD
 67
     1
  8
SCHRAFF
  6
CONTINUOUS
  2
*X19
 10
0.0
 20
0.0
 30
0.0
1001
ACAD_MODELDOC_XFORM
1011
-150.4512649193642062
1021
0.0
1031
0.0
1021
165.2313266058500858
1031
-469.4056950857474817
1013
0.0
1023
0.0
1033
0.0
1023
-0.0000000000000001
1033
0.5
1013
0.5
1023
0.0
1033
0.0
1023
0.0
1033
0.0
1013
0.0
1023
0.0
1033
0.0
1023
0.5
1033
0.0000000000000001
1001
ACAD
1000
HATCH
1002
{
1070
    19
1000
_U
1040
1.0
1040
0.7853981633974483
1070
     0
1000
R14_HATCH_DATA
1000
27BD
1011
1.0
1021
0.0
1031
0.0
1021
0.0
1031
0.0
1011
0.0
1021
0.0
1031
0.0
1021
1.0
1031
0.0
1011
0.0
1021
0.0
1031
0.0
1021
0.0
1031
1.0
1040
0.0
1010
0.0
1020
0.0
1030
1.0
1000
_U
1070
     0
1070
     0
1071
        2
1071
        0
1071
       14
1070
     3
1040
-18.9252817122928185
1040
208.9593855087703957
1040
-0.0000000000001622
1040
4.8000000000009866
1040
1.0
1040
4.7123889803846888
1040
5.230457508841301
1070
     1
1070
     1
1040
-14.7551508153670206
1040
211.3363601200177015
1040
-15.5502817122918007
1040
212.7313266058507111
1070
     1
1040
-15.5502817122918007
1040
212.7313266058507111
1040
-16.2453035284459588
1040
212.3351641706427984
1070
     1
1040
-16.2453035284459588
1040
212.3351641706427984
1040
-15.4501726315211894
1040
210.9401976848097888
1070
     3
1040
-18.925281712291401
1040
208.9593855087705947
1040
3.475109080770221
1040
1.9808121760392541
1040
0.9999999999999998
1040
0.0000000000000012
1040
0.5180685284567678
1070
     0
1070
     1
1040
-14.9252817122917705
1040
208.9593855087705947
1040
-14.9252817122918007
1040
195.5424000221649123
1070
     3
1040
-8.9252817122910031
1040
195.5424000221651113
1040
0.0000000000001175
1040
-6.000000000000786
1040
1.0
1040
4.7123889803846888
1040
5.2904933449509111
1070
     1
1070
     3
1040
-17.3002817122922501
1040
190.0780267735661084
1040
2.1857492994398608
1040
-3.3500000000002741
1040
1.0
1040
4.7123889803846888
1040
5.2904933449510292
1070
     0
1070
     1
1040
-13.3002817122918007
1040
190.0780267735663074
1040
-13.3002817122918007
1040
167.7313266058505121
1070
     1
1040
-13.3002817122918007
1040
167.7313266058505121
1040
-12.5002817122918106
1040
167.7313266058505121
1070
     1
1040
-12.5002817122918408
1040
167.7313266058505121
1040
-12.5002817122918408
1040
190.0780267735663074
1070
     3
1040
-17.3002817122907508
1040
190.0780267735667053
1040
4.7999999999988834
1040
-0.0000000000003804
1040
0.9999999999999998
1040
0.0
1040
0.5781043645664333
1070
     1
1070
     3
1040
-8.9252817122921382
1040
195.5424000221647987
1040
-2.841474089271383
1040
4.3549999999995643
1040
1.0
1040
4.712388980384687
1040
5.2904933449511162
1070
     0
1070
     1
1040
-14.1252817122918408
1040
195.5424000221649123
1040
-14.1252817122918408
1040
208.9593855087705947
1071
        0
1071
        0
1071
       14
1070
     3
1040
28.8247182877093095
1040
208.9593855087703957
1040
-2.3769746112473129
1040
-4.1701308969259001
1040
1.0
1040
4.7123889803846888
1040
5.2304575088412921
1070
     1
1070
     1
1040
24.0247182877082501
1040
208.9593855087705947
1040
24.0247182877082501
1040
195.5424000221649123
1070
     3
1040
18.8247182877085386
1040
195.5424000221647987
1040
0.0000000000001007
1040
-5.1999999999996964
1040
1.0
1040
4.7123889803846888
1040
5.2904933449511162
1070
     0
1070
     3
1040
27.1997182877072099
1040
190.0780267735667053
1040
-2.6228991593267739
1040
-4.0199999999991061
1040
1.0
1040
4.712388980384687
1040
5.2904933449511136
1070
     1
1070
     1
1040
22.3997182877082501
1040
190.0780267735663074
1040
22.3997182877082217
1040
167.7313266058505121
1070
     1
1040
22.3997182877082501
1040
167.7313266058505121
1040
23.1997182877082295
1040
167.7313266058505121
1070
     1
1040
23.1997182877082011
1040
167.7313266058505121
1040
23.1997182877082011
1040
190.0780267735663074
1070
     3
1040
27.1997182877086594
1040
190.0780267735661084
1040
0.000000000000221
1040
4.0000000000004574
1040
1.0
1040
4.7123889803846888
1040
5.2904933449510292
1070
     0
1070
     3
1040
18.8247182877074017
1040
195.5424000221651113
1040
3.2786239491590798
1040
5.0250000000009933
1040
1.0
1040
4.7123889803846888
1040
5.2904933449509111
1070
     1
1070
     1
1040
24.8247182877081798
1040
195.5424000221649123
1040
24.8247182877082011
1040
208.9593855087705947
1070
     3
1040
28.8247182877078316
1040
208.9593855087705947
1040
0.0000000000000168
1040
3.9999999999996509
1040
1.0
1040
4.7123889803846888
1040
5.2304575088414547
1070
     0
1070
     1
1040
25.3496092069375898
1040
210.9401976848097888
1040
26.1447401038623717
1040
212.3351641706427984
1070
     1
1040
26.1447401038623717
1040
212.3351641706427984
1040
25.4497182877082011
1040
212.7313266058507111
1070
     1
1040
25.4497182877082011
1040
212.7313266058507111
1040
24.6545873907834299
1040
211.3363601200177015
1071
        0
1070
     0
1070
     0
1040
0.7853981633974483
1040
1.0
1070
     0
1070
     1
1040
0.7853981633974483
1040
-223.8223466055399911
1040
162.7210464076509027
1040
-0.7071067811865476
1040
0.7071067811865476
1070
     0
1071
        1
1040
4.9497182877082011
1040
165.2313266058505974
1040
0.0
1002
}
  0
INSERT
  5
27BE
 67
     1
  8
SCHRAFF
  6
CONTINUOUS
  2
*X20
 10
0.0
 20
0.0
 30
0.0
1001
ACAD_MODELDOC_XFORM
1011
-150.4512649193642062
1021
0.0
1031
0.0
1021
165.2313266058500858
1031
-469.4056950857474817
1013
0.0
1023
0.0
1033
0.0
1023
-0.0000000000000001
1033
0.5
1013
0.5
1023
0.0
1033
0.0
1023
0.0
1033
0.0
1013
0.0
1023
0.0
1033
0.0
1023
0.5
1033
0.0000000000000001
1001
ACAD
1000
HATCH
1002
{
1070
    19
1000
_U
1040
1.0
1040
0.7853981633974483
1070
     0
1000
R14_HATCH_DATA
1000
27BE
1011
1.0
1021
0.0
1031
0.0
1021
0.0
1031
0.0
1011
0.0
1021
0.0
1031
0.0
1021
1.0
1031
0.0
1011
0.0
1021
0.0
1031
0.0
1021
0.0
1031
1.0
1040
0.0
1010
0.0
1020
0.0
1030
1.0
1000
_U
1070
     0
1070
     0
1071
        2
1071
        0
1071
        8
1070
     3
1040
-9.0002817122718071
1040
107.8439260685969998
1040
-0.183175846850677
1040
3.4952033716609381
1040
1.0
1040
4.7123889803846888
1040
4.7647488579442028
1070
     0
1070
     1
1040
-12.5002817122917307
1040
107.8439260685966019
1040
-12.5002817122918408
1040
167.7313266058505121
1070
     1
1040
-12.5002817122918408
1040
167.7313266058505121
1040
-13.3002817122918309
1040
167.7313266058505121
1070
     1
1040
-13.3002817122918007
1040
167.7313266058505121
1040
-13.3002817122918007
1040
107.8439260685992025
1070
     3
1040
-9.0002817122772356
1040
107.8439260685998988
1040
0.0000000000006714
1040
-4.3000000000145562
1040
1.0
1040
4.7123889803846888
1040
4.7647488579443431
1070
     1
1070
     1
1040
-13.2943887117364508
1040
107.6188814567545933
1040
-13.0382428158765808
1040
102.7313266058505974
1070
     1
1040
-13.0382428158765808
1040
102.7313266058505974
1040
-12.2371449390783003
1040
102.7313266058505974
1070
     1
1040
-12.2371449390783003
1040
102.7313266058505974
1040
-12.4954850839327598
1040
107.6607502217463974
1071
        0
1071
        0
1071
        8
1070
     3
1040
18.8997182876882093
1040
107.8439260685969998
1040
-0.0000000000004252
1040
-3.5000000000199121
1040
1.0
1040
4.7123889803846888
1040
4.7647488579442063
1070
     0
1070
     1
1040
22.39492165934913
1040
107.6607502217463974
1040
22.1365815144946687
1040
102.7313266058505974
1070
     1
1040
22.1365815144947007
1040
102.7313266058505974
1040
22.9376793912929813
1040
102.7313266058505974
1070
     1
1040
22.9376793912929813
1040
102.7313266058505974
1040
23.1938252871528299
1040
107.6188814567545933
1070
     3
1040
18.8997182876936414
1040
107.8439260685998988
1040
0.2250446118453389
1040
4.2941069994592169
1040
1.0
1040
4.7123889803846879
1040
4.7647488579443413
1070
     1
1070
     1
1040
23.1997182877082011
1040
107.8439260685992025
1040
23.1997182877082011
1040
167.7313266058505121
1070
     1
1040
23.1997182877082011
1040
167.7313266058505121
1040
22.3997182877082217
1040
167.7313266058505121
1070
     1
1040
22.3997182877082501
1040
167.7313266058505121
1040
22.3997182877081293
1040
107.8439260685966019
1071
        0
1070
     0
1070
     0
1040
0.7853981633974483
1040
1.0
1070
     0
1070
     1
1040
0.7853981633974483
1040
-223.8223466055399911
1040
162.7210464076509027
1040
-0.7071067811865476
1040
0.7071067811865476
1070
     0
1071
        1
1040
4.9497182877082011
1040
165.2313266058505974
1040
0.0
1002
}
  0
INSERT
  5
27C2
 67
     1
  8
SCHRAFF
  6
CONTINUOUS
  2
*X21
 10
0.0
 20
0.0
 30
0.0
1001
GRADIENTCOLOR1ACI
1070
     5
1001
GRADIENTCOLOR2ACI
1070
     2
1001
ACAD
1000
HATCH
1002
{
1070
    19
1000
_U
1040
1.0
1040
2.3561944901923439
1070
     0
1000
R14_HATCH_DATA
1000
27C2
1011
1.0
1021
0.0
1031
0.0
1021
0.0
1031
0.0
1011
0.0
1021
0.0
1031
0.0
1021
1.0
1031
0.0
1011
0.0
1021
0.0
1031
0.0
1021
0.0
1031
1.0
1040
0.0
1010
0.0
1020
0.0
1030
1.0
1000
_U
1070
     0
1070
     0
1071
        3
1071
        1
1071
       10
1070
     1
1040
-52.5502817122916284
1040
225.9813266058507111
1040
-48.7973946014000219
1040
227.7313266058507111
1070
     1
1040
-48.7973946014000219
1040
227.7313266058507111
1040
-43.7451554464443007
1040
227.7313266058507111
1070
     2
1040
-43.7451554464442722
1040
225.9813266058513079
1040
1.7499999999994451
1040
4.7123889803846728
1040
5.4977871437822348
1070
     0
1070
     1
1040
-42.5077185793680883
1040
227.2187634729272077
1040
-41.5502817122916284
1040
226.2613266058505985
1070
     1
1040
-41.5502817122916284
1040
226.2613266058505985
1040
-42.0802817122913666
1040
225.7313266058507963
1070
     1
1040
-42.0802817122913666
1040
225.7313266058507963
1040
-43.0380486652576408
1040
226.6884333870372075
1070
     2
1040
-43.7455004935890486
1040
225.980493588353994
1040
1.0008330769759011
1040
0.7857429233374701
1040
1.5704515668548811
1070
     1
1070
     1
1040
-43.7451554464443007
1040
226.9813266058507111
1040
-48.6311236044176809
1040
226.9813266058507111
1070
     1
1040
-48.6311236044176809
1040
226.9813266058507111
1040
-52.2333180159859083
1040
225.3015957655732961
1070
     1
1040
-52.2333180159859083
1040
225.3015957655732961
1040
-52.5502817122914294
1040
225.9813266058507963
1071
        0
1071
        1
1071
       10
1070
     1
1040
62.4497182877083716
1040
225.9813266058507111
1040
58.6968311768167723
1040
227.7313266058507111
1070
     1
1040
58.6968311768167723
1040
227.7313266058507111
1040
53.644592021861051
1040
227.7313266058507111
1070
     2
1040
53.644592021861051
1040
225.9813266058513079
1040
1.7499999999994451
1040
1.5707963267948959
1040
2.3561944901924541
1070
     1
1070
     1
1040
52.4071551547848387
1040
227.2187634729272077
1040
51.4497182877083716
1040
226.2613266058505985
1070
     1
1040
51.4497182877083716
1040
226.2613266058505985
1040
51.9797182877081099
1040
225.7313266058507963
1070
     1
1040
51.9797182877081099
1040
225.7313266058507963
1040
52.9374852406743912
1040
226.6884333870372075
1070
     2
1040
53.6449370690058203
1040
225.980493588353994
1040
1.0008330769759211
1040
3.9273355769272431
1040
4.7120442204446462
1070
     0
1070
     1
1040
53.644592021861051
1040
226.9813266058507111
1040
58.53056017983441
1040
226.9813266058507111
1070
     1
1040
58.53056017983441
1040
226.9813266058507111
1040
62.1327545914026516
1040
225.3015957655732961
1070
     1
1040
62.1327545914026516
1040
225.3015957655732961
1040
62.4497182877082011
1040
225.9813266058507963
1071
        0
1071
       33
1071
       68
1070
     2
1040
-23.5373046940776582
1040
222.3662168986882079
1040
3.3601762202919221
1040
4.7070444450309177
1040
5.0161189285606174
1070
     0
1070
     2
1040
-23.537304694077509
1040
222.3662168986886059
1040
3.360176220291498
1040
5.016118928560612
1040
5.6319603406292851
1070
     0
1070
     2
1040
-23.5250488081881706
1040
222.3755575884025006
1040
3.344766638101702
1040
5.6319603406292851
1040
5.9413462622467206
1070
     0
1070
     2
1040
-21.6219215713022415
1040
223.0527043263271878
1040
1.3247614439353561
1040
5.9413462622467197
1040
6.5738700234310059
1070
     0
1070
     1
1040
-20.3527367118678093
1040
222.6730167232636006
1040
-20.5809309441593911
1040
221.9102299946532071
1070
     2
1040
-10.0502817122292694
1040
218.7313266058345107
1040
11.0000000000633502
1040
2.8484197279465509
1040
3.052827287025266
1070
     1
1070
     2
1040
-10.0502817123683901
1040
218.7313266058469026
1040
10.9999999999236699
1040
3.0528272870252651
1040
3.2572348461066332
1070
     1
1070
     2
1040
-16.5068674973617604
1040
217.981326605852388
1040
4.500000000002907
1040
3.2572348461066341
1040
3.9848119132454261
1070
     1
1070
     2
1040
-16.5068674973641194
1040
217.9813266058498016
1040
4.4999999999993596
1040
3.9848119132454269
1040
4.7123889803847776
1070
     1
1070
     1
1040
-16.5068674973637215
1040
213.4813266058503984
1040
-14.3002817122916301
1040
213.4813266058507111
1070
     1
1040
-14.3002817122916301
1040
213.4813266058507111
1040
-14.3002817122916301
1040
212.7313266058507111
1070
     1
1040
-14.3002817122916301
1040
212.7313266058507111
1040
-16.5068674973637215
1040
212.7313266058507111
1070
     2
1040
-16.5068674973637499
1040
217.981326605852189
1040
5.2500000000015774
1040
1.570796326794891
1040
2.2983733939341069
1070
     0
1070
     2
1040
-16.5068674973659917
1040
217.9813266058498016
1040
5.2499999999982183
1040
2.2983733939341038
1040
3.0259504610736618
1070
     0
1070
     2
1040
-10.0502817122901202
1040
218.731326605849091
1040
11.7500000000014992
1040
3.0259504610736632
1040
3.141592653589925
1070
     0
1070
     2
1040
-10.0502817122372292
1040
218.731326605849091
1040
11.7500000000543992
1040
3.141592653589925
1040
3.229134594559381
1070
     0
1070
     2
1040
-10.0502817123332893
1040
218.7313266058575039
1040
11.7499999999579607
1040
3.229134594559381
1040
3.432318728046257
1070
     0
1070
     1
1040
-21.3072047162769493
1040
222.0994395021685079
1040
-21.0712637121224695
1040
222.8880026528165956
1070
     2
1040
-21.5651197696313197
1040
223.0357662073533049
1040
0.515487995580401
1040
5.9924592327245101
1040
6.2831853071696893
1070
     1
1070
     2
1040
-21.5651197695912984
1040
223.0357662073533049
1040
0.5154879955403829
1040
6.2831853071696893
1040
6.6614855714988197
1070
     1
1070
     2
1040
-23.8550340672478711
1040
222.125655429828214
1040
2.9796326986735511
1040
0.378300264319235
1040
0.6918583222371107
1070
     1
1070
     2
1040
-23.7034431648112687
1040
222.2512431991706876
1040
2.782777194534197
1040
0.6918583222371124
1040
1.323330463613591
1070
     1
1070
     2
1040
-23.4665305060639504
1040
223.1889752556419069
1040
1.81558072141799
1040
1.3233304636135961
1040
1.7804612778826581
1070
     1
1070
     1
1040
-23.844411315813101
1040
224.9647960375926061
1040
-24.9090389229278415
1040
226.0294236447070091
1070
     2
1040
-27.2071359617845694
1040
223.7313266058494889
1040
3.2500000000011959
1040
0.7853981633976231
1040
1.5707963267947389
1070
     1
1070
     1
1040
-27.2071359617840614
1040
226.9813266058505974
1040
-36.3554079781380395
1040
226.9813266058507111
1070
     2
1040
-36.3554079781380395
1040
225.9813266058503984
1040
1.000000000000284
1040
1.5707963267948959
1040
2.356194490192224
1070
     1
1070
     1
1040
-37.0625147593247135
1040
226.6884333870372927
1040
-38.0199516264011805
1040
225.7309965199607973
1070
     1
1040
-38.0199516264011805
1040
225.7309965199607973
1040
-38.5502817122916284
1040
226.2613266058507975
1070
     1
1040
-38.5502817122916284
1040
226.2613266058507975
1040
-37.5928448452142518
1040
227.2187634729274919
1070
     2
1040
-36.3554079781379613
1040
225.9813266058503132
1040
1.750000000000395
1040
3.9269908169875971
1040
4.7123889803846399
1070
     0
1070
     1
1040
-36.3554079781380395
1040
227.7313266058507111
1040
-27.2071359617840614
1040
227.7313266058507111
1070
     2
1040
-27.2071359617840614
1040
223.7313266058517058
1040
3.9999999999990048
1040
4.7123889803846888
1040
5.4977871437819141
1070
     0
1070
     1
1040
-24.3787088370392091
1040
226.5597537305978051
1040
-23.5502817122961687
1040
225.7313266058507111
1070
     2
1040
33.436741269494398
1040
222.3662168986882079
1040
3.3601762202919221
1040
1.565451791441125
1040
1.874526274970824
1070
     1
1070
     2
1040
33.4367412694942914
1040
222.3662168986886059
1040
3.360176220291506
1040
1.874526274970828
1040
2.490367687039496
1070
     1
1070
     2
1040
33.4244853836049103
1040
222.3755575884025006
1040
3.344766638101702
1040
2.4903676870394928
1040
2.7997536086569279
1070
     1
1070
     2
1040
31.5213581467189883
1040
223.0527043263271878
1040
1.3247614439353561
1040
2.799753608656927
1040
3.4322773698412141
1070
     1
1070
     1
1040
30.2521732872845597
1040
222.6730167232636006
1040
30.4803675195761308
1040
221.9102299946532071
1070
     2
1040
19.9497182876460109
1040
218.7313266058345107
1040
11.0000000000633502
1040
5.990012381536344
1040
6.1944199406150586
1070
     0
1070
     2
1040
19.9497182877851387
1040
218.7313266058469026
1040
10.9999999999236699
1040
6.1944199406150577
1040
6.3988274996964272
1070
     0
1070
     2
1040
26.4063040727785001
1040
217.981326605852388
1040
4.500000000002907
1040
0.1156421925168409
1040
0.8432192596556342
1070
     0
1070
     2
1040
26.4063040727808698
1040
217.9813266058498016
1040
4.4999999999993596
1040
0.843219259655635
1040
1.570796326794984
1070
     0
1070
     1
1040
26.4063040727804683
1040
213.4813266058503984
1040
24.1997182877083716
1040
213.4813266058507111
1070
     1
1040
24.1997182877083716
1040
213.4813266058507111
1040
24.1997182877083716
1040
212.7313266058507111
1070
     1
1040
24.1997182877083716
1040
212.7313266058507111
1040
26.4063040727804683
1040
212.7313266058507111
1070
     2
1040
26.4063040727804896
1040
217.981326605852189
1040
5.2500000000015774
1040
4.7123889803846843
1040
5.4399660475238996
1070
     1
1070
     2
1040
26.4063040727827385
1040
217.9813266058498016
1040
5.2499999999982183
1040
5.4399660475238969
1040
6.167543114663455
1070
     1
1070
     2
1040
19.9497182877068617
1040
218.731326605849091
1040
11.7500000000014992
1040
6.1675431146634558
1040
6.2831853071797186
1070
     1
1070
     2
1040
19.9497182876539689
1040
218.731326605849091
1040
11.7500000000543992
1040
0.000000000000133
1040
0.0875419409695891
1070
     1
1070
     2
1040
19.9497182877500308
1040
218.7313266058575039
1040
11.7499999999579607
1040
0.0875419409695883
1040
0.2907260744564645
1070
     1
1070
     1
1040
31.2066412916936891
1040
222.0994395021685079
1040
30.9707002875392092
1040
222.8880026528165956
1070
     2
1040
31.4645563450480594
1040
223.0357662073533049
1040
0.515487995580401
1040
2.8508665791347161
1040
3.1415926535798961
1070
     0
1070
     2
1040
31.4645563450080417
1040
223.0357662073533049
1040
0.5154879955403829
1040
3.1415926535798961
1040
3.519892917909027
1070
     0
1070
     2
1040
33.7544706426646073
1040
222.125655429828214
1040
2.9796326986735511
1040
3.519892917909027
1040
3.8334509758269029
1070
     0
1070
     2
1040
33.6028797402280404
1040
222.2512431991706876
1040
2.7827771945342179
1040
3.833450975826898
1040
4.4649231172033739
1070
     0
1070
     2
1040
33.3659670814807328
1040
223.1889752556419069
1040
1.8155807214179971
1040
4.4649231172033739
1040
4.9220539314724361
1070
     0
1070
     1
1040
33.7438478912298407
1040
224.9647960375926061
1040
34.8084754983445919
1040
226.0294236447070091
1070
     2
1040
37.1065725372013091
1040
223.7313266058494889
1040
3.2500000000011959
1040
3.9269908169874159
1040
4.7123889803845316
1070
     0
1070
     1
1040
37.1065725372007975
1040
226.9813266058505974
1040
46.2548445535547827
1040
226.9813266058507111
1070
     2
1040
46.2548445535547827
1040
225.9813266058503984
1040
1.000000000000284
1040
4.7123889803846888
1040
5.4977871437820172
1070
     0
1070
     1
1040
46.9619513347414426
1040
226.6884333870372927
1040
47.9193882018179096
1040
225.7309965199607973
1070
     1
1040
47.9193882018179096
1040
225.7309965199607973
1040
48.4497182877083716
1040
226.2613266058507975
1070
     1
1040
48.4497182877083716
1040
226.2613266058507975
1040
47.492281420630988
1040
227.2187634729274919
1070
     2
1040
46.2548445535546691
1040
225.9813266058503132
1040
1.7500000000004159
1040
0.7853981633977928
1040
1.5707963267948311
1070
     1
1070
     1
1040
46.2548445535547827
1040
227.7313266058507111
1040
37.1065725372007975
1040
227.7313266058507111
1070
     2
1040
37.1065725372007975
1040
223.7313266058517058
1040
3.9999999999990048
1040
1.5707963267948959
1040
2.356194490192121
1070
     1
1070
     1
1040
34.2781454124559488
1040
226.5597537305978051
1040
33.4497182877129191
1040
225.7313266058507111
1071
        0
1070
     0
1070
     0
1040
2.3561944901923439
1040
1.0
1070
     0
1070
     1
1040
2.3561944901923439
1040
-223.8223466055399911
1040
162.7210464076509027
1040
-0.7071067811865476
1040
-0.7071067811865475
1070
     0
1071
        1
1040
-223.8223466055399911
1040
162.7210464076509027
1040
0.0
1002
}
  0
ENDSEC
  0
EOF
