  0
SECTION
  2
HEADER
  9
$ACADVER
  1
AC1009
  9
$INSBASE
 10
0.0
 20
0.0
 30
0.0
  9
$EXTMIN
 10
225.7457266194496128
 20
-448.5810055483523229
 30
-40.2137858519515703
  9
$EXTMAX
 10
455.7457266194497834
 20
103.1121400203282974
 30
-40.2137858519514779
  9
$LIMMIN
 10
0.0
 20
0.0
  9
$LIMMAX
 10
420.0
 20
297.0
  9
$ORTHOMODE
 70
     1
  9
$REGENMODE
 70
     1
  9
$FILLMODE
 70
     1
  9
$QTEXTMODE
 70
     0
  9
$MIRRTEXT
 70
     1
  9
$DRAGMODE
 70
     2
  9
$LTSCALE
 40
10.0
  9
$OSMODE
 70
  2495
  9
$ATTMODE
 70
     1
  9
$TEXTSIZE
 40
3.5
  9
$TRACEWID
 40
1.0
  9
$TEXTSTYLE
  7
STANDARD
  9
$CLAYER
  8
STEMPEL
  9
$CELTYPE
  6
BYLAYER
  9
$CECOLOR
 62
   256
  9
$DIMSCALE
 40
1.0
  9
$DIMASZ
 40
3.5
  9
$DIMEXO
 40
1.0
  9
$DIMDLI
 40
7.0
  9
$DIMRND
 40
0.0
  9
$DIMDLE
 40
0.0
  9
$DIMEXE
 40
1.0
  9
$DIMTP
 40
0.0
  9
$DIMTM
 40
0.0
  9
$DIMTXT
 40
3.5
  9
$DIMCEN
 40
1.5
  9
$DIMTSZ
 40
0.0
  9
$DIMTOL
 70
     0
  9
$DIMLIM
 70
     0
  9
$DIMTIH
 70
     0
  9
$DIMTOH
 70
     0
  9
$DIMSE1
 70
     0
  9
$DIMSE2
 70
     0
  9
$DIMTAD
 70
     1
  9
$DIMZIN
 70
     8
  9
$DIMBLK
  1

  9
$DIMASO
 70
     1
  9
$DIMSHO
 70
     0
  9
$DIMPOST
  1

  9
$DIMAPOST
  1

  9
$DIMALT
 70
     0
  9
$DIMALTD
 70
     2
  9
$DIMALTF
 40
25.3999999999999986
  9
$DIMLFAC
 40
2.0
  9
$DIMTOFL
 70
     1
  9
$DIMTVP
 40
0.0
  9
$DIMTIX
 70
     0
  9
$DIMSOXD
 70
     0
  9
$DIMSAH
 70
     0
  9
$DIMBLK1
  1

  9
$DIMBLK2
  1

  9
$DIMSTYLE
  2
STANDARD
  9
$DIMCLRD
 70
     0
  9
$DIMCLRE
 70
     0
  9
$DIMCLRT
 70
     1
  9
$DIMTFAC
 40
0.5142857142857143
  9
$DIMGAP
 40
1.5
  9
$LUNITS
 70
     2
  9
$LUPREC
 70
     2
  9
$SKETCHINC
 40
1.0
  9
$FILLETRAD
 40
0.0
  9
$AUNITS
 70
     0
  9
$AUPREC
 70
     0
  9
$MENU
  1
ACAD
  9
$ELEVATION
 40
0.0
  9
$PELEVATION
 40
0.0
  9
$THICKNESS
 40
0.0
  9
$LIMCHECK
 70
     0
  9
$BLIPMODE
 70
     0
  9
$CHAMFERA
 40
0.0
  9
$CHAMFERB
 40
0.0
  9
$SKPOLY
 70
     0
  9
$TDCREATE
 40
2455397.867048610933125
  9
$TDUPDATE
 40
2459677.5754282409325242
  9
$TDINDWG
 40
0.2701098727
  9
$TDUSRTIMER
 40
0.2701098727
  9
$USRTIMER
 70
     1
  9
$ANGBASE
 50
0.0
  9
$ANGDIR
 70
     0
  9
$PDMODE
 70
     0
  9
$PDSIZE
 40
0.0
  9
$PLINEWID
 40
0.0
  9
$COORDS
 70
     1
  9
$SPLFRAME
 70
     0
  9
$SPLINETYPE
 70
     6
  9
$SPLINESEGS
 70
     8
  9
$ATTDIA
 70
     1
  9
$ATTREQ
 70
     1
  9
$HANDLING
 70
     1
  9
$HANDSEED
  5
1712
  9
$SURFTAB1
 70
     6
  9
$SURFTAB2
 70
     6
  9
$SURFTYPE
 70
     6
  9
$SURFU
 70
     6
  9
$SURFV
 70
     6
  9
$UCSNAME
  2

  9
$UCSORG
 10
0.0
 20
0.0
 30
0.0
  9
$UCSXDIR
 10
1.0
 20
0.0
 30
0.0
  9
$UCSYDIR
 10
0.0
 20
1.0
 30
0.0
  9
$PUCSNAME
  2

  9
$PUCSORG
 10
0.0
 20
0.0
 30
0.0
  9
$PUCSXDIR
 10
1.0
 20
0.0
 30
0.0
  9
$PUCSYDIR
 10
0.0
 20
1.0
 30
0.0
  9
$USERI1
 70
     0
  9
$USERI2
 70
     0
  9
$USERI3
 70
     0
  9
$USERI4
 70
     0
  9
$USERI5
 70
     0
  9
$USERR1
 40
0.0
  9
$USERR2
 40
0.0
  9
$USERR3
 40
0.0
  9
$USERR4
 40
0.0
  9
$USERR5
 40
0.0
  9
$WORLDVIEW
 70
     1
  9
$SHADEDGE
 70
     3
  9
$SHADEDIF
 70
    70
  9
$TILEMODE
 70
     1
  9
$MAXACTVP
 70
    16
  9
$PLIMCHECK
 70
     0
  9
$PEXTMIN
 10
-0.2092053339058566
 20
-0.1281934638421944
 30
-0.0000000000112498
  9
$PEXTMAX
 10
296.7958475679527055
 20
419.8904280294117939
 30
0.0000000000002956
  9
$PLIMMIN
 10
-0.2086865826396433
 20
-0.1159860326437645
  9
$PLIMMAX
 10
296.7913134173604135
 20
419.8840139673562248
  9
$UNITMODE
 70
     0
  9
$VISRETAIN
 70
     0
  9
$PLINEGEN
 70
     0
  9
$PSLTSCALE
 70
     0
  0
ENDSEC
  0
SECTION
  2
TABLES
  0
TABLE
  2
VPORT
 70
     1
  0
VPORT
  2
*ACTIVE
 70
     0
 10
0.0
 20
0.0
 11
1.0
 21
1.0
 12
-0.1118643006206526
 22
-150.8465727843388038
 13
0.0
 23
0.0
 14
1.0
 24
1.0
 15
10.0
 25
10.0
 16
-0.0000000000001705
 26
0.0
 36
851.0330874432432893
 17
340.8575909200703791
 27
-21.8878599796731805
 37
-20.1068929259757709
 40
555.6385077539155191
 41
1.7852028639618129
 42
50.0
 43
0.0
 44
0.0
 50
0.0
 51
0.0
 71
     0
 72
  1500
 73
     1
 74
     0
 75
     0
 76
     0
 77
     0
 78
     0
  0
ENDTAB
  0
TABLE
  2
LTYPE
 70
     6
  0
LTYPE
  2
CONTINUOUS
 70
     0
  3
Solid line
 72
    65
 73
     0
 40
0.0
  0
LTYPE
  2
AUSGEZOGEN
 70
     0
  3
Ausgezogene Linie
 72
    65
 73
     0
 40
0.0
  0
LTYPE
  2
PHANTOM2
 70
     0
  3
Phantom (.5x) ___ _ _ ___ _ _ ___ _ _ ___ _ _
 72
    65
 73
     6
 40
1.25
 49
0.625
 49
-0.125
 49
0.125
 49
-0.125
 49
0.125
 49
-0.125
  0
LTYPE
  2
VERDECKT
 70
     0
  3
Verdeckt __ __ __ __ __ __ __ __ __ __ __ __ __
 72
    65
 73
     2
 40
0.375
 49
0.25
 49
-0.125
  0
ENDTAB
  0
TABLE
  2
LAYER
 70
    15
  0
LAYER
  2
0
 70
     0
 62
     7
  6
CONTINUOUS
  0
LAYER
  2
STEMPEL
 70
     0
 62
     3
  6
CONTINUOUS
  0
LAYER
  2
DEFPOINTS
 70
     0
 62
     7
  6
AUSGEZOGEN
  0
LAYER
  2
ADSK_ASSOC_ENTITY_BACKUPS
 70
     1
 62
    -7
  6
CONTINUOUS
  0
ENDTAB
  0
TABLE
  2
STYLE
 70
     4
  0
STYLE
  2
STANDARD
 70
     0
 40
0.0
 41
0.8
 50
0.0
 71
     0
 42
3.5
  3
simplex.shx
  4

  0
ENDTAB
  0
TABLE
  2
VIEW
 70
     1
  0
ENDTAB
  0
TABLE
  2
UCS
 70
     0
  0
ENDTAB
  0
TABLE
  2
APPID
 70
    21
  0
APPID
  2
ACAD
 70
     0
  0
APPID
  2
ACAD_NAV_VCDISPLAY
 70
     0
  0
APPID
  2
GRADIENTCOLOR1ACI
 70
     0
  0
APPID
  2
GRADIENTCOLOR2ACI
 70
     0
  0
APPID
  2
ACAD_DSTYLE_DIMRADIAL_EXTENSION
 70
     0
  0
APPID
  2
ACADANNOMONITORALERTICONDI
 70
     0
  0
APPID
  2
ACAD_EXEMPT_FROM_CAD_STANDARDS
 70
     0
  0
APPID
  2
ACAD_MLEADERVER
 70
     0
  0
APPID
  2
ACAD_PSEXT
 70
     0
  0
APPID
  2
ACAECLAYERSTANDARD
 70
     0
  0
APPID
  2
ACAUTHENVIRON
 70
     0
  0
APPID
  2
ACCMTRANSPARENCY
 70
     0
  0
APPID
  2
ACAD_STEPID
 70
     0
  0
APPID
  2
ACSYNERGY
 70
     0
  0
APPID
  2
SYNERGY_BODY_TBR_ID
 70
     0
  0
APPID
  2
ACAD_VIEW_EDGE_ID
 70
     0
  0
APPID
  2
ACSYNERGYSKETCH
 70
     0
  0
APPID
  2
ACAD_MODELDOC_XFORM
 70
     0
  0
APPID
  2
ACAD_DSTYLE_DIMJAG
 70
     0
  0
APPID
  2
ACAD_DSTYLE_DIMTALN
 70
     0
  0
APPID
  2
AcDbAttr
 70
     0
  0
ENDTAB
  0
TABLE
  2
DIMSTYLE
 70
     2
  0
DIMSTYLE
  2
STANDARD
 70
     0
  3

  4

  5

  6

  7

 40
1.0
 41
0.18
 42
0.0625
 43
0.38
 44
0.18
 45
0.0
 46
0.0
 47
0.0
 48
0.0
140
0.18
141
0.09
142
0.0
143
25.3999999999999986
144
1.0
145
0.0
146
1.0
147
0.09
 71
     0
 72
     0
 73
     1
 74
     1
 75
     0
 76
     0
 77
     0
 78
     0
170
     0
171
     2
172
     0
173
     0
174
     0
175
     0
176
     0
177
     0
178
     0
  0
ENDTAB
  0
ENDSEC
  0
SECTION
  2
BLOCKS
  0
BLOCK
  8
0
  2
$MODEL_SPACE
 70
     0
 10
0.0
 20
0.0
 30
0.0
  3
$MODEL_SPACE
  1

  0
ENDBLK
  5
38
  8
0
  0
BLOCK
 67
     1
  8
0
  2
$PAPER_SPACE
 70
     0
 10
0.0
 20
0.0
 30
0.0
  3
$PAPER_SPACE
  1

  0
ENDBLK
  5
36
 67
     1
  8
0
  0
BLOCK
  8
0
  2
*S3
 70
     1
 10
0.0
 20
0.0
 30
0.0
  3
*S3
  1

  0
ENDBLK
  5
E8E
  8
0
  0
BLOCK
  8
0
  2
A$C46D72D7C
 70
     0
 10
0.0
 20
0.0
 30
0.0
  3
A$C46D72D7C
  1

  0
CIRCLE
  5
159C
  8
0
 10
-10.0217324142596205
 20
-28.769212265535181
 30
0.0
 40
3.0
  0
CIRCLE
  5
159D
  8
0
 10
79.9782675857403831
 20
-118.7692122655352023
 30
0.0000000000000142
 40
3.0
  0
CIRCLE
  5
159E
  8
0
 10
169.9782675857404115
 20
-28.769212265535181
 30
0.0000000000000426
 40
3.0
  0
CIRCLE
  5
159F
  8
0
 10
79.9782675857403831
 20
61.2307877344648332
 30
0.0000000000000142
 40
3.0
  0
CIRCLE
  5
15A0
  8
0
 10
79.9782675857406105
 20
-28.769212265535181
 30
0.0000000000000142
 40
56.9999999999998721
  0
CIRCLE
  5
15A1
  8
0
 10
79.9782675857406105
 20
-28.769212265535181
 30
0.0000000000000142
 40
115.0000000000000995
  0
CIRCLE
  5
15A2
  8
0
 10
79.9782675857409515
 20
-28.769212265535181
 30
0.0000000000000142
 40
38.5000000000004121
  0
CIRCLE
  5
15A3
  8
0
 10
79.9782675857406105
 20
-28.769212265535181
 30
0.0000000000000142
 40
50.4937394715162782
  0
CIRCLE
  5
15A4
  8
0
 10
79.9782675857404257
 20
-28.7692122655348612
 30
0.0000000000000142
 40
24.5739508676112983
  0
CIRCLE
  5
15A5
  8
0
  6
VERDECKT
 62
     1
 10
79.978267585740312
 20
-28.7692122655349891
 30
0.0000000000000142
 40
40.4999999999999929
  0
CIRCLE
  5
15A6
  8
0
  6
VERDECKT
 62
     1
 10
79.978267585740312
 20
-28.7692122655349891
 30
0.0000000000000142
 40
41.0000000000000497
  0
CIRCLE
  5
15A7
  8
0
  6
VERDECKT
 62
     1
 10
79.9782675857402978
 20
-28.7692122655349891
 30
0.0000000000000178
 40
30.3098690184908683
  0
CIRCLE
  5
15A8
  8
0
  6
VERDECKT
 62
     1
 10
79.978267585740312
 20
-28.7692122655349891
 30
0.0000000000000213
 40
48.9999999999999503
  0
CIRCLE
  5
15A9
  8
0
  6
VERDECKT
 62
     1
 10
79.9782675857403262
 20
-28.7692122655349891
 30
0.0000000000000142
 40
59.0
  0
CIRCLE
  5
15AA
  8
0
  6
VERDECKT
 62
     1
 10
79.9782675857403262
 20
-28.7692122655349891
 30
0.0000000000000142
 40
57.5882592070434995
  0
CIRCLE
  5
15AB
  8
0
  6
VERDECKT
 62
     1
 10
79.9782675857403262
 20
-28.7692122655349891
 30
0.0000000000000142
 40
51.9999999999999929
  0
CIRCLE
  5
15AC
  8
0
  6
VERDECKT
 62
     1
 10
79.9782675857403262
 20
-28.7692122655349891
 30
0.0000000000000142
 40
53.49999999999973
  0
CIRCLE
  5
15AD
  8
0
  6
VERDECKT
 62
     1
 10
-10.0217324142596205
 20
-28.769212265535181
 30
0.0
 40
4.060660171779773
  0
CIRCLE
  5
15AE
  8
0
  6
VERDECKT
 62
     1
 10
79.9782675857403831
 20
61.2307877344648332
 30
0.0000000000000142
 40
4.060660171779773
  0
CIRCLE
  5
15AF
  8
0
  6
VERDECKT
 62
     1
 10
169.9782675857404968
 20
-28.769212265535181
 30
0.0000000000000426
 40
4.060660171779773
  0
CIRCLE
  5
15B0
  8
0
  6
VERDECKT
 62
     1
 10
79.9782675857403831
 20
-118.7692122655352023
 30
0.0000000000000142
 40
4.060660171779773
  0
CIRCLE
  5
15B1
  8
0
  6
VERDECKT
 62
     1
 10
79.9782675857406105
 20
-28.769212265535181
 30
0.0000000000000142
 40
114.3660726073890999
  0
CIRCLE
  5
15B2
  8
0
  6
VERDECKT
 62
     1
 10
79.9782675857406105
 20
-28.769212265535181
 30
0.0000000000000142
 40
57.5882592070438477
  0
CIRCLE
  5
15B3
  8
0
  6
VERDECKT
 62
     1
 10
79.9782675857406105
 20
-28.769212265535181
 30
0.0000000000000142
 40
52.0000000000001634
  0
CIRCLE
  5
15B4
  8
0
  6
VERDECKT
 62
     1
 10
79.9782675857407241
 20
-28.769212265535181
 30
0.0000000000000142
 40
53.4970621514570368
  0
CIRCLE
  5
15B5
  8
0
  6
VERDECKT
 62
     1
 10
79.9782675857403831
 20
-28.7692122655349785
 30
0.0000000000000213
 40
27.0
  0
CIRCLE
  5
15B6
  8
0
  6
VERDECKT
 62
     1
 10
114.9782675857403973
 20
-28.7692122655350104
 30
0.0000000000000284
 40
5.0
  0
CIRCLE
  5
15B7
  8
0
  6
VERDECKT
 62
     1
 10
79.9782675857404826
 20
-28.7692122655348612
 30
0.0000000000000142
 40
40.4999999999997726
  0
CIRCLE
  5
15B8
  8
0
  6
VERDECKT
 62
     1
 10
79.9782675857404826
 20
-28.7692122655348612
 30
0.0000000000000142
 40
40.9769230769231925
  0
CIRCLE
  5
15B9
  8
0
  6
VERDECKT
 62
     1
 10
79.9782675857404826
 20
-28.7692122655348612
 30
0.0000000000000142
 40
38.9999999999997726
  0
CIRCLE
  5
15BA
  8
0
  6
VERDECKT
 62
     1
 10
79.9782675857404826
 20
-28.7692122655348612
 30
0.0000000000000142
 40
39.4999999999997726
  0
CIRCLE
  5
15BB
  8
0
  6
VERDECKT
 62
     1
 10
79.9782675857404257
 20
-28.7692122655348612
 30
0.0000000000000142
 40
26.0625566823703103
  0
CIRCLE
  5
15BC
  8
0
  6
VERDECKT
 62
     1
 10
79.9782675857404683
 20
-28.7692122655348612
 30
0.0000000000000178
 40
26.4999999999997691
  0
CIRCLE
  5
15BD
  8
0
  6
VERDECKT
 62
     1
 10
79.9782675857404683
 20
-28.7692122655348612
 30
0.0000000000000178
 40
30.2890290662812802
  0
CIRCLE
  5
15BE
  8
0
  6
VERDECKT
 62
     1
 10
79.9782675857403831
 20
-28.7692122655349785
 30
0.0000000000000142
 40
59.0
  0
CIRCLE
  5
15BF
  8
0
  6
VERDECKT
 62
     1
 10
79.9782675857403831
 20
-28.7692122655349785
 30
0.0000000000000142
 40
61.0
  0
CIRCLE
  5
15C0
  8
0
  6
VERDECKT
 62
     1
 10
79.9782675857403689
 20
-28.7692122655349785
 30
0.0000000000000213
 40
51.0
  0
CIRCLE
  5
15C1
  8
0
  6
VERDECKT
 62
     1
 10
79.9782675857403689
 20
-28.7692122655349785
 30
0.0000000000000213
 40
49.0
  0
ENDBLK
  5
15C3
  8
0
  0
BLOCK
  8
0
  2
A$CAF6D4070
 70
     0
 10
0.0
 20
0.0
 30
0.0
  3
A$CAF6D4070
  1

  0
LINE
  5
15C7
  8
0
 10
-26.2966375479398984
 20
124.9999999999988063
 30
-0.0000000000000278
 11
186.2531727194208031
 21
125.0000000000015064
 31
-0.0000000000000278
210
0.0
220
1.0
230
-0.0000000000000002
  0
LINE
  5
15C8
  8
0
 10
-35.0217324142595317
 20
121.4999999999988063
 30
-0.000000000000027
 11
194.9782675857406957
 21
121.5000000000017053
 31
-0.000000000000027
210
0.0
220
1.0
230
-0.0000000000000002
  0
LINE
  5
15C9
  8
0
 10
-34.3878050216485533
 20
120.140538319443607
 30
-0.0000000000000267
 11
194.3443401931297103
 21
120.1405383194466054
 31
-0.0000000000000267
210
0.0
220
1.0
230
-0.0000000000000002
  0
ARC
  5
15CA
  8
0
 10
26.2966375479405414
 20
119.5000000000005969
 30
0.0
 40
5.4999999999981224
210
0.0
220
-0.0000000000000002
230
-1.0
 50
64.9999999999990763
 51
90.000000000007887
  0
ARC
  5
15CB
  8
0
 10
-186.2531727194215989
 20
119.5000000000027995
 30
0.0
 40
5.4999999999985638
210
0.0
220
-0.0000000000000002
230
-1.0
 50
89.9999999999914309
 51
114.9999999999992042
  0
LINE
  5
15CC
  8
0
 10
188.5775731589947952
 20
124.4846928287032028
 30
-0.0000000000000276
 11
194.9782675857406957
 21
121.5000000000016058
 31
-0.000000000000027
210
0.0
220
1.0
230
-0.0000000000000002
  0
LINE
  5
15CD
  8
0
 10
-28.6210379875136596
 20
124.4846928287004033
 30
-0.0000000000000276
 11
-35.0217324142595174
 21
121.4999999999987068
 31
-0.000000000000027
210
0.0
220
1.0
230
-0.0000000000000002
  0
LINE
  5
15CE
  8
0
 10
-34.3878050216485605
 20
120.1405383194438059
 30
-0.0000000000000267
 11
-35.021732414259553
 21
121.4999999999988063
 31
-0.000000000000027
210
0.0
220
1.0
230
-0.0000000000000002
  0
LINE
  5
15CF
  8
0
 10
194.3443401931297103
 20
120.1405383194466054
 30
-0.0000000000000267
 11
194.9782675857406957
 21
121.5000000000017053
 31
-0.000000000000027
210
0.0
220
1.0
230
-0.0000000000000002
  0
LINE
  5
15D0
  8
0
 10
130.9782675857402978
 20
-39.121320343556107
 30
0.0000000000000087
 11
28.9782675857404008
 21
-39.121320343556107
 31
0.0000000000000087
210
0.0
220
1.0
230
-0.0000000000000002
  0
LINE
  5
15D1
  8
0
 10
130.9782675857402978
 20
-41.121320343556107
 30
0.0000000000000091
 11
28.9782675857404008
 21
-41.121320343556107
 31
0.0000000000000091
210
0.0
220
1.0
230
-0.0000000000000002
  0
LINE
  5
15D2
  8
0
 10
28.9782675857404008
 20
-41.121320343556107
 30
0.0000000000000091
 11
28.9782675857404008
 21
-39.121320343556107
 31
0.0000000000000087
210
0.0
220
1.0
230
-0.0000000000000002
  0
LINE
  5
15D3
  8
0
 10
130.9782675857402978
 20
-41.121320343556107
 30
0.0000000000000091
 11
130.9782675857402978
 21
-39.121320343556107
 31
0.0000000000000087
210
0.0
220
1.0
230
-0.0000000000000002
  0
LINE
  5
15D4
  8
0
 10
106.0408242681106969
 20
-124.999999999999801
 30
0.0000000000000278
 11
53.9157109033701403
 21
-124.999999999999801
 31
0.0000000000000278
210
0.0
220
1.0
230
-0.0000000000000002
  0
ARC
  5
15D5
  8
0
 10
-99.9782675857402126
 20
-119.7162038710946064
 30
0.0
 40
6.5000000000000142
210
0.0
220
-0.0000000000000002
230
-1.0
 50
179.9999999999998863
 51
184.9999999999974989
  0
ARC
  5
15D6
  8
0
 10
-59.9782675857408591
 20
-119.7162038710946064
 30
0.0
 40
6.500000000000183
210
0.0
220
-0.0000000000000002
230
-1.0
 50
355.0000000000026716
 51
0.0000000000003817
  0
LINE
  5
15D7
  8
0
 10
53.9157109033701403
 20
-124.999999999999801
 30
0.0000000000000278
 11
53.5030020481443103
 21
-120.2827161989541054
 31
0.0000000000000267
210
0.0
220
1.0
230
-0.0000000000000002
  0
LINE
  5
15D8
  8
0
 10
106.0408242681106969
 20
-124.999999999999801
 30
0.0000000000000278
 11
106.453533123336598
 21
-120.2827161989540059
 31
0.0000000000000267
210
0.0
220
1.0
230
-0.0000000000000002
  0
LINE
  5
15D9
  8
0
 10
53.4782675857406815
 20
-119.7162038710945069
 30
0.0000000000000266
 11
53.4782675857406886
 21
-41.121320343556107
 31
0.0000000000000091
210
0.0
220
1.0
230
-0.0000000000000002
  0
LINE
  5
15DA
  8
0
 10
106.4782675857401983
 20
-119.7162038710945069
 30
0.0000000000000266
 11
106.4782675857401983
 21
-41.121320343556107
 31
0.0000000000000091
210
0.0
220
1.0
230
-0.0000000000000002
  0
LINE
  5
15DB
  8
0
 10
130.9782675857402978
 20
-39.121320343556107
 30
0.0000000000000087
 11
28.9782675857403618
 21
-39.121320343556107
 31
0.0000000000000087
210
0.0
220
1.0
230
-0.0000000000000002
  0
LINE
  5
15DC
  8
0
 10
28.9782675857403618
 20
-39.121320343556107
 30
0.0000000000000087
 11
28.9782675857403618
 21
54.3550632543917871
 31
-0.0000000000000121
210
0.0
220
1.0
230
-0.0000000000000002
  0
LINE
  5
15DD
  8
0
 10
130.9782675857402978
 20
-39.121320343556107
 30
0.0000000000000087
 11
130.9782675857402978
 21
54.3550632543917871
 31
-0.0000000000000121
210
0.0
220
1.0
230
-0.0000000000000002
  0
ARC
  5
15DE
  8
0
 10
-142.9782675857422873
 20
54.3550632543913608
 30
0.0
 40
12.0000000000019895
210
0.0
220
-0.0000000000000002
230
-1.0
 50
0.0000000000020356
 51
23.7526317039068395
  0
ARC
  5
15DF
  8
0
 10
-16.9782675857385605
 20
54.3550632543913821
 30
0.0
 40
12.0000000000017994
210
0.0
220
-0.0000000000000002
230
-1.0
 50
156.2473682960929011
 51
179.9999999999980105
  0
LINE
  5
15E0
  8
0
 10
27.961783336548141
 20
59.1885280315218765
 30
-0.0000000000000131
 11
20.1641658764648284
 21
76.9077539161983879
 31
-0.0000000000000171
210
0.0
220
1.0
230
-0.0000000000000002
  0
LINE
  5
15E1
  8
0
 10
131.9947518349324866
 20
59.1885280315218765
 30
-0.0000000000000131
 11
139.7923692950159023
 21
76.9077539161983879
 31
-0.0000000000000171
210
0.0
220
1.0
230
-0.0000000000000002
  0
ARC
  5
15E2
  8
0
 10
-126.978267585738493
 20
82.546796156184115
 30
0.0
 40
14.0000000000016804
210
0.0
220
-0.0000000000000002
230
-1.0
 50
180.0000000000015916
 51
203.7526317039084915
  0
ARC
  5
15E3
  8
0
 10
-32.9782675857422234
 20
82.546796156184115
 30
0.0
 40
14.0000000000017497
210
0.0
220
-0.0000000000000002
230
-1.0
 50
336.2473682960916221
 51
359.9999999999982947
  0
LINE
  5
15E4
  8
0
 10
18.9782675857403511
 20
82.5467961561836887
 30
-0.0000000000000183
 11
18.9782675857403511
 21
120.1405383194444028
 31
-0.0000000000000267
210
0.0
220
1.0
230
-0.0000000000000002
  0
LINE
  5
15E5
  8
0
 10
140.9782675857402978
 20
82.5467961561836887
 30
-0.0000000000000183
 11
140.9782675857402978
 21
120.1405383194458949
 31
-0.0000000000000267
210
0.0
220
1.0
230
-0.0000000000000002
  0
LINE
  5
15E6
  8
0
  6
VERDECKT
 62
     1
 10
110.2881366042311981
 20
31.0320614649374491
 30
-0.0000000000000069
 11
49.6683985672494188
 21
31.0320614649374491
 31
-0.0000000000000069
210
0.0
220
1.0
230
-0.0000000000000002
  0
LINE
  5
15E7
  8
0
  6
VERDECKT
 62
     1
 10
137.5665267927838045
 20
119.4669388634841027
 30
-0.0000000000000265
 11
22.3900083786967912
 21
119.4669388634841027
 31
-0.0000000000000265
210
0.0
220
1.0
230
-0.0000000000000002
  0
LINE
  5
15E8
  8
0
  6
VERDECKT
 62
     1
 10
122.8914391558848962
 20
95.0000000000001137
 30
-0.0000000000000211
 11
37.0650960155956568
 21
95.0000000000001137
 31
-0.0000000000000211
210
0.0
220
1.0
230
-0.0000000000000002
  0
ARC
  5
15E9
  8
0
  6
VERDECKT
 62
     1
 10
-125.4782675857418042
 20
90.6887112585073254
 30
0.0
 40
5.0000000000014921
210
0.0
220
-0.0000000000000002
230
-1.0
 50
0.0000000000014631
 51
7.1250163489014167
  0
ARC
  5
15EA
  8
0
  6
VERDECKT
 62
     1
 10
-34.4782675857425005
 20
90.688711258507567
 30
0.0
 40
4.9999999999978053
210
0.0
220
-0.0000000000000002
230
-1.0
 50
172.8749836510959028
 51
180.0000000000011084
  0
LINE
  5
15EB
  8
0
  6
VERDECKT
 62
     1
 10
39.4396569693086292
 20
91.3088849314535338
 30
-0.0000000000000203
 11
38.9782675857402694
 21
95.0000000000001137
 31
-0.0000000000000211
210
0.0
220
1.0
230
-0.0000000000000002
  0
LINE
  5
15EC
  8
0
  6
VERDECKT
 62
     1
 10
120.5168782021718954
 20
91.3088849314535338
 30
-0.0000000000000203
 11
120.9782675857402978
 21
95.0000000000001137
 31
-0.0000000000000211
210
0.0
220
1.0
230
-0.0000000000000002
  0
LINE
  5
15ED
  8
0
  6
VERDECKT
 62
     1
 10
39.4782675857402978
 20
55.8044115262063301
 30
-0.0000000000000124
 11
39.4782675857402978
 21
90.6887112585074533
 31
-0.0000000000000201
210
0.0
220
1.0
230
-0.0000000000000002
  0
LINE
  5
15EE
  8
0
  6
VERDECKT
 62
     1
 10
120.4782675857402978
 20
55.8044115262063301
 30
-0.0000000000000124
 11
120.4782675857402978
 21
90.6887112585074533
 31
-0.0000000000000201
210
0.0
220
1.0
230
-0.0000000000000002
  0
ARC
  5
15EF
  8
0
  6
VERDECKT
 62
     1
 10
-21.8091736116831214
 20
113.3447100553407978
 30
0.0
 40
6.638069961155626
210
0.0
220
-0.0000000000000002
230
-1.0
 50
124.4198340868336032
 51
156.9575620991111862
  0
ARC
  5
15F0
  8
0
  6
VERDECKT
 62
     1
 10
-138.1473615597977869
 20
113.3447100553403999
 30
0.0
 40
6.6380699611557361
210
0.0
220
-0.0000000000000002
230
-1.0
 50
23.0424379008905511
 51
55.5801659132572325
  0
ARC
  5
15F1
  8
0
  6
VERDECKT
 62
     1
 10
-51.6332499627256212
 20
106.854748391079994
 30
0.0
 40
25.1613442442867807
210
0.0
220
-0.0000000000000002
230
-1.0
 50
5.0157837479484479
 51
19.6439778542935102
  0
ARC
  5
15F2
  8
0
  6
VERDECKT
 62
     1
 10
-108.3232852087541005
 20
106.8547483910795961
 30
0.0
 40
25.1613442442878394
210
0.0
220
-0.0000000000000002
230
-1.0
 50
160.3560221457063051
 51
174.9842162521395892
  0
LINE
  5
15F3
  8
0
  6
VERDECKT
 62
     1
 10
49.6683985672493975
 20
31.0320614649374313
 30
-0.0000000000000069
 11
44.6351304167218075
 21
38.7755509272876608
 31
-0.0000000000000086
210
0.0
220
1.0
230
-0.0000000000000002
  0
LINE
  5
15F4
  8
0
  6
VERDECKT
 62
     1
 10
110.2881366042311981
 20
31.0320614649374313
 30
-0.0000000000000069
 11
115.3214047547588024
 21
38.7755509272876608
 31
-0.0000000000000086
210
0.0
220
1.0
230
-0.0000000000000002
  0
LINE
  5
15F5
  8
0
  6
VERDECKT
 62
     1
 10
53.0589994421662325
 20
18.5441991135040816
 30
-0.0000000000000041
 11
49.6683985672494188
 21
31.0320614649374491
 31
-0.0000000000000069
210
0.0
220
1.0
230
-0.0000000000000002
  0
LINE
  5
15F6
  8
0
  6
VERDECKT
 62
     1
 10
106.8975357293142991
 20
18.5441991135040816
 30
-0.0000000000000041
 11
110.2881366042311981
 21
31.0320614649374491
 31
-0.0000000000000069
210
0.0
220
1.0
230
-0.0000000000000002
  0
ARC
  5
15F7
  8
0
  6
VERDECKT
 62
     1
 10
-118.4782675857441063
 20
15.3998947914695599
 30
0.0
 40
12.0000000000038494
210
0.0
220
-0.0000000000000002
230
-1.0
 50
0.0000000000033968
 51
15.1902738547230598
  0
ARC
  5
15F8
  8
0
  6
VERDECKT
 62
     1
 10
-41.4782675857368375
 20
15.3998947914695901
 30
0.0
 40
12.0000000000034497
210
0.0
220
-0.0000000000000002
230
-1.0
 50
164.8097261452764997
 51
179.9999999999967031
  0
LINE
  5
15F9
  8
0
  6
VERDECKT
 62
     1
 10
53.4782675857402907
 20
-39.1213203435595602
 30
0.0000000000000087
 11
53.4782675857402907
 21
15.3998947914702793
 31
-0.0000000000000034
210
0.0
220
1.0
230
-0.0000000000000002
  0
LINE
  5
15FA
  8
0
  6
VERDECKT
 62
     1
 10
106.4782675857402978
 20
-39.1213203435595602
 30
0.0000000000000087
 11
106.4782675857402978
 21
15.3998947914702793
 31
-0.0000000000000034
210
0.0
220
1.0
230
-0.0000000000000002
  0
LINE
  5
15FB
  8
0
  6
VERDECKT
 62
     1
 10
30.9782675857403014
 20
-39.12132034355961
 30
0.0000000000000087
 11
30.9782675857403014
 21
54.3550632543884404
 31
-0.0000000000000121
210
0.0
220
1.0
230
-0.0000000000000002
  0
LINE
  5
15FC
  8
0
  6
VERDECKT
 62
     1
 10
128.9782675857402978
 20
-39.12132034355961
 30
0.0000000000000087
 11
128.9782675857402978
 21
54.3550632543884404
 31
-0.0000000000000121
210
0.0
220
1.0
230
-0.0000000000000002
  0
ARC
  5
15FD
  8
0
  6
VERDECKT
 62
     1
 10
-142.9782675857406957
 20
54.3550632543883125
 30
0.0
 40
14.0000000000004796
210
0.0
220
-0.0000000000000002
230
-1.0
 50
0.0
 51
23.7526317039079089
  0
ARC
  5
15FE
  8
0
  6
VERDECKT
 62
     1
 10
-16.9782675857401095
 20
54.3550632543883694
 30
0.0
 40
14.0000000000002398
210
0.0
220
-0.0000000000000002
230
-1.0
 50
156.2473682960913948
 51
179.9999999999996874
  0
LINE
  5
15FF
  8
0
  6
VERDECKT
 62
     1
 10
29.7923692950161012
 20
59.9941054943735281
 30
-0.0000000000000133
 11
21.9947518349326891
 21
77.7133313790498761
 31
-0.0000000000000173
210
0.0
220
1.0
230
-0.0000000000000002
  0
LINE
  5
1600
  8
0
  6
VERDECKT
 62
     1
 10
130.1641658764644944
 20
59.9941054943735281
 30
-0.0000000000000133
 11
137.96178333654791
 21
77.7133313790498761
 31
-0.0000000000000173
210
0.0
220
1.0
230
-0.0000000000000002
  0
ARC
  5
1601
  8
0
  6
VERDECKT
 62
     1
 10
-126.9782675857398004
 20
82.5467961561803207
 30
0.0
 40
12.0000000000003695
210
0.0
220
-0.0000000000000002
230
-1.0
 50
180.0000000000005969
 51
203.7526317039097989
  0
ARC
  5
1602
  8
0
  6
VERDECKT
 62
     1
 10
-32.9782675857407312
 20
82.5467961561803207
 30
0.0
 40
12.0000000000003801
210
0.0
220
-0.0000000000000002
230
-1.0
 50
336.2473682960902011
 51
359.9999999999993179
  0
LINE
  5
1603
  8
0
  6
VERDECKT
 62
     1
 10
20.9782675857403014
 20
82.5467961561801786
 30
-0.0000000000000183
 11
20.9782675857403014
 21
120.8786796564404966
 31
-0.0000000000000268
210
0.0
220
1.0
230
-0.0000000000000002
  0
LINE
  5
1604
  8
0
  6
VERDECKT
 62
     1
 10
138.9782675857402978
 20
82.5467961561801786
 30
-0.0000000000000183
 11
138.9782675857402978
 21
120.8786796564404966
 31
-0.0000000000000268
210
0.0
220
1.0
230
-0.0000000000000002
  0
LINE
  5
1605
  8
0
  6
VERDECKT
 62
     1
 10
22.3900083786967912
 20
119.4669388634841027
 30
-0.0000000000000265
 11
20.9782675857403014
 21
120.8786796564404966
 31
-0.0000000000000268
210
0.0
220
1.0
230
-0.0000000000000002
  0
LINE
  5
1606
  8
0
  6
VERDECKT
 62
     1
 10
137.5665267927838045
 20
119.4669388634841027
 30
-0.0000000000000265
 11
138.9782675857402978
 21
120.8786796564404966
 31
-0.0000000000000268
210
0.0
220
1.0
230
-0.0000000000000002
  0
ARC
  5
1607
  8
0
  6
VERDECKT
 62
     1
 10
-136.9655492652437943
 20
114.3124015646814939
 30
0.0
 40
5.1894536083633991
210
0.0
220
-0.0000000000000002
230
-1.0
 50
60.3099870970950178
 51
90.0
  0
ARC
  5
1608
  8
0
  6
VERDECKT
 62
     1
 10
-136.965549265243709
 20
114.3124015646803002
 30
0.0
 40
5.189453608364615
210
0.0
220
-0.0000000000000002
230
-1.0
 50
90.0000000000009379
 51
96.6502012447587333
  0
ARC
  5
1609
  8
0
  6
VERDECKT
 62
     1
 10
-22.9909859062368902
 20
114.3124015646801013
 30
0.0
 40
5.1894536083648584
210
0.0
220
-0.0000000000000002
230
-1.0
 50
83.3497987552414656
 51
89.9999999999990479
  0
ARC
  5
160A
  8
0
  6
VERDECKT
 62
     1
 10
-22.9909859062368405
 20
114.3124015646817071
 30
0.0
 40
5.1894536083631939
210
0.0
220
-0.0000000000000002
230
-1.0
 50
89.9999999999995737
 51
119.6900129030226054
  0
LINE
  5
160B
  8
0
  6
VERDECKT
 62
     1
 10
136.9655492652437943
 20
119.5018551730449019
 30
-0.0000000000000265
 11
22.9909859062368014
 21
119.5018551730449019
 31
-0.0000000000000265
210
0.0
220
1.0
230
-0.0000000000000002
  0
ARC
  5
160C
  8
0
  6
VERDECKT
 62
     1
 10
-132.9782675857406105
 20
115.6000000000000938
 30
0.0
 40
1.000000000000361
210
0.0
220
-0.0000000000000002
230
-1.0
 50
343.3426229392727009
 51
20.055837107307859
  0
ARC
  5
160D
  8
0
  6
VERDECKT
 62
     1
 10
-26.9782675857398893
 20
115.6000000000000938
 30
0.0
 40
1.0000000000004221
210
0.0
220
-0.0000000000000002
230
-1.0
 50
159.9441628926925887
 51
196.6573770607253095
  0
ARC
  5
160E
  8
0
  6
VERDECKT
 62
     1
 10
-109.9782675857390046
 20
107.0000000000006963
 30
0.0
 40
23.5000000000009983
210
0.0
220
-0.0000000000000002
230
-1.0
 50
174.9842162521395892
 51
186.6258095648240101
  0
ARC
  5
160F
  8
0
  6
VERDECKT
 62
     1
 10
-49.9782675857421168
 20
107.0000000000006963
 30
0.0
 40
23.500000000001549
210
0.0
220
-0.0000000000000002
230
-1.0
 50
353.3741904351761036
 51
5.0157837479553047
  0
ARC
  5
1610
  8
0
  6
VERDECKT
 62
     1
 10
-122.8914391558849957
 20
105.5000000000000995
 30
0.0
 40
10.5
210
0.0
220
-0.0000000000000002
230
-1.0
 50
186.6258095648229016
 51
270.0000000000002842
  0
ARC
  5
1611
  8
0
  6
VERDECKT
 62
     1
 10
-37.0650960155956213
 20
105.5000000000000995
 30
0.0
 40
10.5000000000000107
210
0.0
220
-0.0000000000000002
230
-1.0
 50
270.0
 51
353.3741904351772973
  0
ARC
  5
1612
  8
0
  6
VERDECKT
 62
     1
 10
-106.9782675857387062
 20
55.8044115262069482
 30
0.0
 40
13.5000000000015898
210
0.0
220
-0.0000000000000002
230
-1.0
 50
180.0000000000025011
 51
197.1027289690534872
  0
ARC
  5
1613
  8
0
  6
VERDECKT
 62
     1
 10
-52.9782675857418894
 20
55.8044115262069482
 30
0.0
 40
13.5000000000016005
210
0.0
220
-0.0000000000000002
230
-1.0
 50
342.8972710309463992
 51
359.9999999999973284
  0
LINE
  5
1614
  8
0
  6
VERDECKT
 62
     1
 10
43.0511026190343387
 20
42.1627347010190832
 30
-0.0000000000000094
 11
40.0752509679941227
 21
51.8342525668996501
 31
-0.0000000000000115
210
0.0
220
1.0
230
-0.0000000000000002
  0
LINE
  5
1615
  8
0
  6
VERDECKT
 62
     1
 10
116.9054325524462001
 20
42.1627347010190832
 30
-0.0000000000000094
 11
119.8812842034864019
 21
51.8342525668996501
 31
-0.0000000000000115
210
0.0
220
1.0
230
-0.0000000000000002
  0
ARC
  5
1616
  8
0
  6
VERDECKT
 62
     1
 10
-104.0024159346999966
 20
46.132893660325081
 30
0.0
 40
13.4999999999996998
210
0.0
220
-0.0000000000000002
230
-1.0
 50
197.1027289690501902
 51
213.0238675557939985
  0
ARC
  5
1617
  8
0
  6
VERDECKT
 62
     1
 10
-55.954119236780528
 20
46.132893660325081
 30
0.0
 40
13.4999999999996998
210
0.0
220
-0.0000000000000002
230
-1.0
 50
326.9761324442059731
 51
342.8972710309496961
  0
LINE
  5
1618
  8
0
  6
VERDECKT
 62
     1
 10
-26.2966375479395609
 20
123.4999999999988063
 30
-0.0000000000000274
 11
186.2531727194208884
 21
123.5000000000015064
 31
-0.0000000000000274
210
0.0
220
1.0
230
-0.0000000000000002
  0
LINE
  5
1619
  8
0
  6
VERDECKT
 62
     1
 10
-14.0823925860394201
 20
120.9993398282203003
 30
-0.0000000000000269
 11
-5.9610722424798723
 21
120.9993398282203003
 31
-0.0000000000000269
210
0.0
220
1.0
230
-0.0000000000000002
  0
LINE
  5
161A
  8
0
  6
VERDECKT
 62
     1
 10
165.9176074139606953
 20
120.9993398282203003
 30
-0.0000000000000269
 11
174.0389277575202129
 21
120.9993398282203003
 31
-0.0000000000000269
210
0.0
220
1.0
230
-0.0000000000000002
  0
LINE
  5
161B
  8
0
  6
VERDECKT
 62
     1
 10
75.9176074139605817
 20
120.9993398282203003
 30
-0.0000000000000269
 11
84.0389277575201135
 21
120.9993398282203003
 31
-0.0000000000000269
210
0.0
220
1.0
230
-0.0000000000000002
  0
LINE
  5
161C
  8
0
  6
VERDECKT
 62
     1
 10
-13.02173241425964
 20
122.0600000000001017
 30
-0.0000000000000271
 11
-7.0217324142596453
 21
122.0600000000001017
 31
-0.0000000000000271
210
0.0
220
1.0
230
-0.0000000000000002
  0
LINE
  5
161D
  8
0
  6
VERDECKT
 62
     1
 10
76.9782675857403547
 20
122.0600000000001017
 30
-0.0000000000000271
 11
82.9782675857403547
 21
122.0600000000001017
 31
-0.0000000000000271
210
0.0
220
1.0
230
-0.0000000000000002
  0
LINE
  5
161E
  8
0
  6
VERDECKT
 62
     1
 10
166.9782675857402978
 20
122.0600000000001017
 30
-0.0000000000000271
 11
172.9782675857402978
 21
122.0600000000001017
 31
-0.0000000000000271
210
0.0
220
1.0
230
-0.0000000000000002
  0
LINE
  5
161F
  8
0
  6
VERDECKT
 62
     1
 10
22.9782675857406993
 20
120.9999999999985931
 30
-0.0000000000000269
 11
136.9782675857404115
 21
121.0000000000000995
 31
-0.0000000000000269
210
0.0
220
1.0
230
-0.0000000000000002
  0
LINE
  5
1620
  8
0
  6
VERDECKT
 62
     1
 10
22.3900083786967308
 20
119.4669388634828948
 30
-0.0000000000000265
 11
137.5665267927844013
 21
119.4669388634842022
 31
-0.0000000000000265
210
0.0
220
1.0
230
-0.0000000000000002
  0
LINE
  5
1621
  8
0
  6
VERDECKT
 62
     1
 10
37.0650960155958273
 20
96.4999999999989058
 30
-0.0000000000000214
 11
122.8914391558860046
 21
96.5000000000000284
 31
-0.0000000000000214
210
0.0
220
1.0
230
-0.0000000000000002
  0
ARC
  5
1622
  8
0
  6
VERDECKT
 62
     1
 10
2.6319849459549278
 20
121.4999999999989058
 30
0.0
 40
1.999999999999915
210
0.0
220
-0.0000000000000002
230
-1.0
 50
45.0000000000046398
 51
90.0000000000004547
  0
ARC
  5
1623
  8
0
  6
VERDECKT
 62
     1
 10
17.4114798825644286
 20
121.4999999999985931
 30
0.0
 40
2.0000000000000848
210
0.0
220
-0.0000000000000002
230
-1.0
 50
90.0000000000008953
 51
134.9999999999938041
  0
LINE
  5
1624
  8
0
  6
VERDECKT
 62
     1
 10
-14.0823925860394006
 20
120.9993398282203003
 30
-0.0000000000000269
 11
-15.9972663201913807
 21
122.9142135623718985
 31
-0.0000000000000273
210
0.0
220
1.0
230
-0.0000000000000002
  0
LINE
  5
1625
  8
0
  6
VERDECKT
 62
     1
 10
-5.9610722424798857
 20
120.9993398282203003
 30
-0.0000000000000269
 11
-4.046198508327798
 21
122.914213562371998
 31
-0.0000000000000273
210
0.0
220
1.0
230
-0.0000000000000002
  0
ARC
  5
1626
  8
0
  6
VERDECKT
 62
     1
 10
-162.5885201174357064
 20
121.4999999999987068
 30
0.0
 40
1.9999999999999569
210
0.0
220
-0.0000000000000002
230
-1.0
 50
90.0
 51
134.9999999999944862
  0
ARC
  5
1627
  8
0
  6
VERDECKT
 62
     1
 10
-177.3680150540452019
 20
121.4999999999989058
 30
0.0
 40
1.999999999999996
210
0.0
220
-0.0000000000000002
230
-1.0
 50
45.0000000000086473
 51
90.0000000000008242
  0
LINE
  5
1628
  8
0
  6
VERDECKT
 62
     1
 10
165.9176074139606953
 20
120.9993398282203003
 30
-0.0000000000000269
 11
164.0027336798086992
 21
122.9142135623718985
 31
-0.0000000000000273
210
0.0
220
1.0
230
-0.0000000000000002
  0
LINE
  5
1629
  8
0
  6
VERDECKT
 62
     1
 10
174.0389277575202129
 20
120.9993398282203003
 30
-0.0000000000000269
 11
175.953801491672408
 21
122.9142135623720975
 31
-0.0000000000000273
210
0.0
220
1.0
230
-0.0000000000000002
  0
ARC
  5
162A
  8
0
  6
VERDECKT
 62
     1
 10
-87.368015054045074
 20
121.4999999999989058
 30
0.0
 40
1.9999999999999349
210
0.0
220
-0.0000000000000002
230
-1.0
 50
45.0000000000040501
 51
90.0000000000020464
  0
ARC
  5
162B
  8
0
  6
VERDECKT
 62
     1
 10
-72.5885201174356212
 20
121.4999999999987068
 30
0.0
 40
1.9999999999999569
210
0.0
220
-0.0000000000000002
230
-1.0
 50
89.9999999999995879
 51
134.999999999994202
  0
LINE
  5
162C
  8
0
  6
VERDECKT
 62
     1
 10
75.9176074139605959
 20
120.9993398282203003
 30
-0.0000000000000269
 11
74.0027336798085997
 21
122.9142135623718985
 31
-0.0000000000000273
210
0.0
220
1.0
230
-0.0000000000000002
  0
LINE
  5
162D
  8
0
  6
VERDECKT
 62
     1
 10
84.0389277575200992
 20
120.9993398282203003
 30
-0.0000000000000269
 11
85.9538014916721664
 21
122.914213562371998
 31
-0.0000000000000273
210
0.0
220
1.0
230
-0.0000000000000002
  0
ARC
  5
162E
  8
0
  6
VERDECKT
 62
     1
 10
17.4114798825651711
 20
121.5000000000000995
 30
0.0
 40
3.4999999999999849
210
0.0
220
-0.0000000000000002
230
-1.0
 50
90.0
 51
135.0000000000048033
  0
ARC
  5
162F
  8
0
  6
VERDECKT
 62
     1
 10
2.6319849459541129
 20
121.5000000000000995
 30
0.0
 40
3.4999999999999951
210
0.0
220
-0.0000000000000002
230
-1.0
 50
44.9999999999952607
 51
90.0000000000000568
  0
LINE
  5
1630
  8
0
  6
VERDECKT
 62
     1
 10
-13.02173241425964
 20
122.0600000000001017
 30
-0.0000000000000271
 11
-14.9366061484120607
 21
123.9748737341527942
 31
-0.0000000000000275
210
0.0
220
1.0
230
-0.0000000000000002
  0
LINE
  5
1631
  8
0
  6
VERDECKT
 62
     1
 10
-7.0217324142596453
 20
122.0600000000001017
 30
-0.0000000000000271
 11
-5.1068586801072291
 21
123.9748737341527942
 31
-0.0000000000000275
210
0.0
220
1.0
230
-0.0000000000000002
  0
ARC
  5
1632
  8
0
  6
VERDECKT
 62
     1
 10
-72.5885201174348254
 20
121.5
 30
0.0
 40
3.5000000000000422
210
0.0
220
-0.0000000000000002
230
-1.0
 50
89.9999999999990905
 51
135.0000000000028137
  0
ARC
  5
1633
  8
0
  6
VERDECKT
 62
     1
 10
-87.3680150540458698
 20
121.5000000000000995
 30
0.0
 40
3.4999999999999671
210
0.0
220
-0.0000000000000002
230
-1.0
 50
44.9999999999963904
 51
90.0000000000002416
  0
LINE
  5
1634
  8
0
  6
VERDECKT
 62
     1
 10
76.9782675857403547
 20
122.0600000000001017
 30
-0.0000000000000271
 11
75.0633938515878754
 21
123.9748737341527942
 31
-0.0000000000000275
210
0.0
220
1.0
230
-0.0000000000000002
  0
LINE
  5
1635
  8
0
  6
VERDECKT
 62
     1
 10
82.9782675857403547
 20
122.0600000000001017
 30
-0.0000000000000271
 11
84.893141319892834
 21
123.9748737341527942
 31
-0.0000000000000275
210
0.0
220
1.0
230
-0.0000000000000002
  0
ARC
  5
1636
  8
0
  6
VERDECKT
 62
     1
 10
-162.5885201174347969
 20
121.5000000000000995
 30
0.0
 40
3.4999999999999569
210
0.0
220
-0.0000000000000002
230
-1.0
 50
89.9999999999990905
 51
135.0000000000036096
  0
ARC
  5
1637
  8
0
  6
VERDECKT
 62
     1
 10
-177.3680150540459124
 20
121.5000000000000995
 30
0.0
 40
3.4999999999999778
210
0.0
220
-0.0000000000000002
230
-1.0
 50
44.9999999999965397
 51
90.0
  0
LINE
  5
1638
  8
0
  6
VERDECKT
 62
     1
 10
166.9782675857402978
 20
122.0600000000001017
 30
-0.0000000000000271
 11
165.0633938515879038
 21
123.9748737341527942
 31
-0.0000000000000275
210
0.0
220
1.0
230
-0.0000000000000002
  0
LINE
  5
1639
  8
0
  6
VERDECKT
 62
     1
 10
172.9782675857402978
 20
122.0600000000001017
 30
-0.0000000000000271
 11
174.8931413198928055
 21
123.9748737341527942
 31
-0.0000000000000275
210
0.0
220
1.0
230
-0.0000000000000002
  0
LINE
  5
163A
  8
0
  6
VERDECKT
 62
     1
 10
-7.021732414259616
 20
122.0600000000001017
 30
-0.0000000000000271
 11
-5.961072242479843
 21
120.9993398282203003
 31
-0.0000000000000269
210
0.0
220
1.0
230
-0.0000000000000002
  0
LINE
  5
163B
  8
0
  6
VERDECKT
 62
     1
 10
-13.0217324142596702
 20
122.0600000000001017
 30
-0.0000000000000271
 11
-14.0823925860394397
 21
120.9993398282203003
 31
-0.0000000000000269
210
0.0
220
1.0
230
-0.0000000000000002
  0
LINE
  5
163C
  8
0
  6
VERDECKT
 62
     1
 10
172.9782675857404115
 20
122.0600000000001017
 30
-0.0000000000000271
 11
174.0389277575202129
 21
120.9993398282203003
 31
-0.0000000000000269
210
0.0
220
1.0
230
-0.0000000000000002
  0
LINE
  5
163D
  8
0
  6
VERDECKT
 62
     1
 10
166.9782675857402978
 20
122.0600000000001017
 30
-0.0000000000000271
 11
165.9176074139606101
 21
120.9993398282203998
 31
-0.0000000000000269
210
0.0
220
1.0
230
-0.0000000000000002
  0
LINE
  5
163E
  8
0
  6
VERDECKT
 62
     1
 10
82.9782675857403689
 20
122.0600000000001017
 30
-0.0000000000000271
 11
84.0389277575201561
 21
120.9993398282203003
 31
-0.0000000000000269
210
0.0
220
1.0
230
-0.0000000000000002
  0
LINE
  5
163F
  8
0
  6
VERDECKT
 62
     1
 10
76.9782675857403262
 20
122.0600000000001017
 30
-0.0000000000000271
 11
75.9176074139605532
 21
120.9993398282203003
 31
-0.0000000000000269
210
0.0
220
1.0
230
-0.0000000000000002
  0
LINE
  5
1640
  8
0
  6
VERDECKT
 62
     1
 10
22.9782675857406602
 20
120.9999999999985931
 30
-0.0000000000000269
 11
21.3214133362481206
 21
122.6568542494911043
 31
-0.0000000000000272
210
0.0
220
1.0
230
-0.0000000000000002
  0
LINE
  5
1641
  8
0
  6
VERDECKT
 62
     1
 10
136.9782675857404968
 20
121.0
 30
-0.0000000000000269
 11
138.6351218352330079
 21
122.6568542494924969
 31
-0.0000000000000272
210
0.0
220
1.0
230
-0.0000000000000002
  0
ARC
  5
1642
  8
0
  6
VERDECKT
 62
     1
 10
-15.6645590867557907
 20
116.9999999999988063
 30
0.0
 40
7.9999999999998996
210
0.0
220
-0.0000000000000002
230
-1.0
 50
89.9999999999995737
 51
135.0000000000003979
  0
ARC
  5
1643
  8
0
  6
VERDECKT
 62
     1
 10
-144.2919760847252917
 20
117.0000000000004974
 30
0.0
 40
7.9999999999998632
210
0.0
220
-0.0000000000000002
230
-1.0
 50
44.9999999999985789
 51
89.9999999999992042
  0
LINE
  5
1644
  8
0
  6
VERDECKT
 62
     1
 10
187.9436457663836961
 20
123.125231148148103
 30
-0.0000000000000273
 11
194.3443401931297103
 21
120.1405383194467049
 31
-0.0000000000000267
210
0.0
220
1.0
230
-0.0000000000000002
  0
LINE
  5
1645
  8
0
  6
VERDECKT
 62
     1
 10
-27.9871105949025782
 20
123.1252311481453035
 30
-0.0000000000000273
 11
-34.3878050216485391
 21
120.1405383194437064
 31
-0.0000000000000267
210
0.0
220
1.0
230
-0.0000000000000002
  0
ARC
  5
1646
  8
0
  6
VERDECKT
 62
     1
 10
26.2966375479394614
 20
119.4999999999974989
 30
0.0
 40
4.0000000000013207
210
0.0
220
-0.0000000000000002
230
-1.0
 50
65.0000000000036096
 51
89.9999999999954241
  0
ARC
  5
1647
  8
0
  6
VERDECKT
 62
     1
 10
-186.2531727194206042
 20
119.5000000000002984
 30
0.0
 40
4.0000000000011218
210
0.0
220
-0.0000000000000002
230
-1.0
 50
90.0000000000036522
 51
114.9999999999962057
  0
ARC
  5
1648
  8
0
  6
VERDECKT
 62
     1
 10
-15.6645590867559203
 20
116.9999999999995026
 30
0.0
 40
6.499999999999261
210
0.0
220
-0.0000000000000002
230
-1.0
 50
89.9999999999983373
 51
135.0000000000019895
  0
ARC
  5
1649
  8
0
  6
VERDECKT
 62
     1
 10
-144.2919760847252917
 20
117.0000000000009948
 30
0.0
 40
6.4999999999993694
210
0.0
220
-0.0000000000000002
230
-1.0
 50
44.999999999997172
 51
90.0000000000007532
  0
LINE
  5
164A
  8
0
  6
VERDECKT
 62
     1
 10
22.3900083786966597
 20
119.4669388634826959
 30
-0.0000000000000265
 11
20.26075316446817
 21
121.5961940777114023
 31
-0.000000000000027
210
0.0
220
1.0
230
-0.0000000000000002
  0
LINE
  5
164B
  8
0
  6
VERDECKT
 62
     1
 10
137.5665267927844866
 20
119.4669388634842022
 30
-0.0000000000000265
 11
139.6957820070128946
 21
121.5961940777128945
 31
-0.000000000000027
210
0.0
220
1.0
230
-0.0000000000000002
  0
ARC
  5
164C
  8
0
  6
VERDECKT
 62
     1
 10
-22.85134552734349
 20
114.0933669450434991
 30
0.0
 40
5.3933391444782171
210
0.0
220
-0.0000000000000002
230
-1.0
 50
85.0930191455171467
 51
89.9999999999960067
  0
ARC
  5
164D
  8
0
  6
VERDECKT
 62
     1
 10
-22.8513455273431809
 20
114.0933669450494961
 30
0.0
 40
5.3933391444722361
210
0.0
220
-0.0000000000000002
230
-1.0
 50
89.9999999999992042
 51
159.9441628926701071
  0
ARC
  5
164E
  8
0
  6
VERDECKT
 62
     1
 10
-137.1051896441381928
 20
114.0933669450509029
 30
0.0
 40
5.393339144472213
210
0.0
220
-0.0000000000000002
230
-1.0
 50
20.0558371073280206
 51
89.9999999999996874
  0
ARC
  5
164F
  8
0
  6
VERDECKT
 62
     1
 10
-137.1051896441381075
 20
114.0933669450480039
 30
0.0
 40
5.3933391444751626
210
0.0
220
-0.0000000000000002
230
-1.0
 50
90.0000000000002984
 51
94.9069808544807643
  0
LINE
  5
1650
  8
0
  6
VERDECKT
 62
     1
 10
137.1051896441381075
 20
119.4867060895230964
 30
-0.0000000000000265
 11
22.8513455273431099
 21
119.4867060895217037
 31
-0.0000000000000265
210
0.0
220
1.0
230
-0.0000000000000002
  0
ARC
  5
1651
  8
0
  6
VERDECKT
 62
     1
 10
-26.9782675857400704
 20
115.5999999999988006
 30
0.0
 40
1.0000000000003539
210
0.0
220
-0.0000000000000002
230
-1.0
 50
159.9441628926919066
 51
196.6573770607272138
  0
ARC
  5
1652
  8
0
  6
VERDECKT
 62
     1
 10
-132.9782675857412073
 20
115.6000000000000938
 30
0.0
 40
1.000000000000532
210
0.0
220
-0.0000000000000002
230
-1.0
 50
343.3426229392740083
 51
20.05583710730604
  0
LINE
  5
1653
  8
0
  6
VERDECKT
 62
     1
 10
132.0202315854016888
 20
115.3133520939306038
 30
-0.0000000000000256
 11
132.2561725895565985
 21
114.5247889432835962
 31
-0.0000000000000254
210
0.0
220
1.0
230
-0.0000000000000002
  0
LINE
  5
1654
  8
0
  6
VERDECKT
 62
     1
 10
27.9363035860796884
 20
115.3133520939291969
 30
-0.0000000000000256
 11
27.7003625819247503
 21
114.5247889432822035
 31
-0.0000000000000254
210
0.0
220
1.0
230
-0.0000000000000002
  0
ARC
  5
1655
  8
0
  6
VERDECKT
 62
     1
 10
-50.0009912227064817
 20
107.0572237938634004
 30
0.0
 40
23.5177075208207818
210
0.0
220
-0.0000000000000002
230
-1.0
 50
4.8720638923628119
 51
18.5135831753437401
  0
ARC
  5
1656
  8
0
  6
VERDECKT
 62
     1
 10
-109.9555439487752011
 20
107.0572237938642957
 30
0.0
 40
23.5177075208205117
210
0.0
220
-0.0000000000000002
230
-1.0
 50
161.4864168246550093
 51
175.1279361076360033
  0
ARC
  5
1657
  8
0
  6
VERDECKT
 62
     1
 10
-50.5741044843792196
 20
107.0083721342777068
 30
0.0
 40
24.0928990500955607
210
0.0
220
-0.0000000000000002
230
-1.0
 50
353.5179102907586071
 51
4.8720638923648218
  0
ARC
  5
1658
  8
0
  6
VERDECKT
 62
     1
 10
-109.3824306870996992
 20
107.0083721342786021
 30
0.0
 40
24.0928990500979694
210
0.0
220
-0.0000000000000002
230
-1.0
 50
175.1279361076344969
 51
186.4820897092394887
  0
ARC
  5
1659
  8
0
  6
VERDECKT
 62
     1
 10
-36.9998498369184787
 20
105.4660793278654012
 30
0.0
 40
10.4313085008651107
210
0.0
220
-0.0000000000000002
230
-1.0
 50
311.5433753620046105
 51
353.5179102907608808
  0
ARC
  5
165A
  8
0
  6
VERDECKT
 62
     1
 10
-122.9566853345629056
 20
105.4660793278665949
 30
0.0
 40
10.4313085008653204
210
0.0
220
-0.0000000000000002
230
-1.0
 50
186.4820897092380108
 51
228.4566246379941958
  0
ARC
  5
165B
  8
0
  6
VERDECKT
 62
     1
 10
-37.0915211165870105
 20
105.5695369348038071
 30
0.0
 40
10.5695369348050807
210
0.0
220
-0.0000000000000002
230
-1.0
 50
270.0
 51
311.5433753620043831
  0
ARC
  5
165C
  8
0
  6
VERDECKT
 62
     1
 10
-122.8650140548946013
 20
105.5695369348048018
 30
0.0
 40
10.5695369348049901
210
0.0
220
-0.0000000000000002
230
-1.0
 50
228.4566246379941958
 51
269.9999999999988063
  0
LINE
  5
165D
  8
0
  6
VERDECKT
 62
     1
 10
118.4782675857413068
 20
96.4999999999997726
 30
-0.0000000000000214
 11
118.4782675857414063
 21
94.9999999999997584
 31
-0.0000000000000211
210
0.0
220
1.0
230
-0.0000000000000002
  0
LINE
  5
165E
  8
0
  6
VERDECKT
 62
     1
 10
41.4782675857404612
 20
96.4999999999987637
 30
-0.0000000000000214
 11
41.4782675857404683
 21
94.9999999999987637
 31
-0.0000000000000211
210
0.0
220
1.0
230
-0.0000000000000002
  0
ARC
  5
165F
  8
0
  6
VERDECKT
 62
     1
 10
-37.0650960155957634
 20
105.4999999999993037
 30
0.0
 40
9.0000000000004405
210
0.0
220
-0.0000000000000002
230
-1.0
 50
270.0
 51
353.3741904351733183
  0
ARC
  5
1660
  8
0
  6
VERDECKT
 62
     1
 10
-122.8914391558858057
 20
105.5000000000004974
 30
0.0
 40
9.0000000000004832
210
0.0
220
-0.0000000000000002
230
-1.0
 50
186.6258095648256869
 51
269.9999999999989768
  0
ARC
  5
1661
  8
0
  6
VERDECKT
 62
     1
 10
-49.9782675857926506
 20
106.9999999999895977
 30
0.0
 40
22.0000000000527685
210
0.0
220
-0.0000000000000002
230
-1.0
 50
353.3741904352161214
 51
16.6573770607255085
  0
ARC
  5
1662
  8
0
  6
VERDECKT
 62
     1
 10
-109.9782675856892951
 20
106.9999999999903935
 30
0.0
 40
22.0000000000521716
210
0.0
220
-0.0000000000000002
230
-1.0
 50
163.3426229392728999
 51
186.6258095647825996
  0
LINE
  5
1663
  8
0
  6
VERDECKT
 62
     1
 10
130.5831775848930079
 20
114.8833802348257933
 30
-0.0000000000000255
 11
131.0550595932024862
 21
113.3062539335336965
 31
-0.0000000000000252
210
0.0
220
1.0
230
-0.0000000000000002
  0
LINE
  5
1664
  8
0
  6
VERDECKT
 62
     1
 10
29.3733575865883196
 20
114.8833802348245001
 30
-0.0000000000000255
 11
28.9014755782789088
 21
113.3062539335325027
 31
-0.0000000000000252
210
0.0
220
1.0
230
-0.0000000000000002
  0
ARC
  5
1665
  8
0
  6
VERDECKT
 62
     1
 10
-26.8353400355265315
 20
115.6427644503683041
 30
0.0
 40
2.6491880786977782
210
0.0
220
-0.0000000000000002
230
-1.0
 50
160.4116958018962009
 51
196.657377060747109
  0
ARC
  5
1666
  8
0
  6
VERDECKT
 62
     1
 10
-133.1211951359547072
 20
115.6427644503696968
 30
0.0
 40
2.649188078697819
210
0.0
220
-0.0000000000000002
230
-1.0
 50
343.3426229392503046
 51
19.5883041981021684
  0
ARC
  5
1667
  8
0
  6
VERDECKT
 62
     1
 10
-22.9972318350233209
 20
114.2769583432051945
 30
0.0
 40
6.7230684037670443
210
0.0
220
-0.0000000000000002
230
-1.0
 50
89.8383814024774665
 51
89.9999999999567137
  0
ARC
  5
1668
  8
0
  6
VERDECKT
 62
     1
 10
-22.99723183501834
 20
114.2769583472327071
 30
0.0
 40
6.7230683997395602
210
0.0
220
-0.0000000000000002
230
-1.0
 50
89.9999999999991616
 51
160.4116958019025958
  0
ARC
  5
1669
  8
0
  6
VERDECKT
 62
     1
 10
-136.9593033364629946
 20
114.2769583472340997
 30
0.0
 40
6.7230683997395904
210
0.0
220
-0.0000000000000002
230
-1.0
 50
19.5883041980956101
 51
89.9999999999992752
  0
ARC
  5
166A
  8
0
  6
VERDECKT
 62
     1
 10
-136.9593033364577934
 20
114.276958343226795
 30
0.0
 40
6.7230684037468933
210
0.0
220
-0.0000000000000002
230
-1.0
 50
90.0000000000435847
 51
90.1616185975229456
  0
LINE
  5
166B
  8
0
  6
VERDECKT
 62
     1
 10
136.9593033364629946
 20
121.0000267469737025
 30
-0.0000000000000269
 11
22.9972318350182405
 21
121.0000267469722957
 31
-0.0000000000000269
210
0.0
220
1.0
230
-0.0000000000000002
  0
LINE
  5
166C
  8
0
  6
VERDECKT
 62
     1
 10
52.9782675857403902
 20
-41.121320343556107
 30
0.0000000000000091
 11
52.9782675857403902
 21
-39.121320343556107
 31
0.0000000000000087
210
0.0
220
1.0
230
-0.0000000000000002
  0
LINE
  5
166D
  8
0
  6
VERDECKT
 62
     1
 10
106.9782675857403973
 20
-41.121320343556107
 30
0.0000000000000091
 11
106.9782675857403973
 21
-39.121320343556107
 31
0.0000000000000087
210
0.0
220
1.0
230
-0.0000000000000002
  0
LINE
  5
166E
  8
0
  6
VERDECKT
 62
     1
 10
109.9782675857403973
 20
-41.121320343556107
 30
0.0000000000000091
 11
109.9782675857403973
 21
-39.121320343556107
 31
0.0000000000000087
210
0.0
220
1.0
230
-0.0000000000000002
  0
LINE
  5
166F
  8
0
  6
VERDECKT
 62
     1
 10
119.9782675857403973
 20
-41.121320343556107
 30
0.0000000000000091
 11
119.9782675857403973
 21
-39.121320343556107
 31
0.0000000000000087
210
0.0
220
1.0
230
-0.0000000000000002
  0
LINE
  5
1670
  8
0
  6
VERDECKT
 62
     1
 10
120.9551906626635969
 20
94.8153846153845876
 30
-0.0000000000000211
 11
39.001344508817283
 21
94.8153846153845876
 31
-0.0000000000000211
210
0.0
220
1.0
230
-0.0000000000000002
  0
LINE
  5
1671
  8
0
  6
VERDECKT
 62
     1
 10
104.5522184533516992
 20
-124.8697638667495937
 30
0.0000000000000277
 11
55.4043167181291523
 21
-124.8697638667495937
 31
0.0000000000000277
210
0.0
220
1.0
230
-0.0000000000000002
  0
LINE
  5
1672
  8
0
  6
VERDECKT
 62
     1
 10
110.2672966520216988
 20
31.0000000000002309
 30
-0.0000000000000069
 11
49.6892385194592023
 21
31.0000000000002416
 31
-0.0000000000000069
210
0.0
220
1.0
230
-0.0000000000000002
  0
ARC
  5
1673
  8
0
  6
VERDECKT
 62
     1
 10
-105.0796581755504064
 20
15.2093272075831898
 30
0.0
 40
0.1000000000110385
210
0.0
220
-0.0000000000000002
230
-1.0
 50
0.0005892709074479
 51
1.9889385555587611
  0
ARC
  5
1674
  8
0
  6
VERDECKT
 62
     1
 10
-54.8768769959540919
 20
15.2093272075833994
 30
0.0
 40
0.0999999999874627
210
0.0
220
-0.0000000000000002
230
-1.0
 50
178.0110614440893073
 51
179.9994107292095009
  0
LINE
  5
1675
  8
0
  6
VERDECKT
 62
     1
 10
54.9782653408032189
 20
-119.7817210462605004
 30
0.0000000000000266
 11
54.9768769959362587
 21
15.2093282360549509
 31
-0.0000000000000034
210
0.0
220
1.0
230
-0.0000000000000002
  0
LINE
  5
1676
  8
0
  6
VERDECKT
 62
     1
 10
104.9782698306777036
 20
-119.7817210462605004
 30
0.0000000000000266
 11
104.9796581755446994
 21
15.2093282360549509
 31
-0.0000000000000034
210
0.0
220
1.0
230
-0.0000000000000002
  0
ARC
  5
1677
  8
0
  6
VERDECKT
 62
     1
 10
-113.126181999689905
 20
28.9761295277098014
 30
0.0
 40
5.0000000000002309
210
0.0
220
-0.0000000000000002
230
-1.0
 50
14.0362434679257699
 51
33.023867555795988
  0
ARC
  5
1678
  8
0
  6
VERDECKT
 62
     1
 10
-46.8303531717914581
 20
28.9761295277100004
 30
0.0
 40
4.9999999999997211
210
0.0
220
-0.0000000000000002
230
-1.0
 50
146.9761324441984982
 51
165.9637565320751094
  0
LINE
  5
1679
  8
0
  6
VERDECKT
 62
     1
 10
51.02257125329416
 20
31.701071280687259
 30
-0.000000000000007
 11
45.892795841173232
 21
39.5930334531808796
 31
-0.0000000000000088
210
0.0
220
1.0
230
-0.0000000000000002
  0
LINE
  5
167A
  8
0
  6
VERDECKT
 62
     1
 10
108.9339639181865067
 20
31.7010712806869392
 30
-0.000000000000007
 11
114.0637393303076976
 21
39.5930334531808796
 31
-0.0000000000000088
210
0.0
220
1.0
230
-0.0000000000000002
  0
LINE
  5
167B
  8
0
  6
VERDECKT
 62
     1
 10
54.3991810188338221
 20
19.3163462676272992
 30
-0.0000000000000043
 11
51.6810656725178816
 21
30.1888076528914588
 31
-0.0000000000000067
210
0.0
220
1.0
230
-0.0000000000000002
  0
LINE
  5
167C
  8
0
  6
VERDECKT
 62
     1
 10
105.5573541526470933
 20
19.3163462676272992
 30
-0.0000000000000043
 11
108.2754694989630053
 21
30.1888076528914588
 31
-0.0000000000000067
210
0.0
220
1.0
230
-0.0000000000000002
  0
ARC
  5
167D
  8
0
  6
VERDECKT
 62
     1
 10
-125.4782675857417047
 20
90.6887112585071691
 30
0.0
 40
5.0000000000015064
210
0.0
220
-0.0000000000000002
230
-1.0
 50
0.0000000000014631
 51
7.125016348906648
  0
ARC
  5
167E
  8
0
  6
VERDECKT
 62
     1
 10
-34.4782675857391965
 20
90.6887112585071691
 30
0.0
 40
5.0000000000014992
210
0.0
220
-0.0000000000000002
230
-1.0
 50
172.874983651093288
 51
179.9999999999984936
  0
LINE
  5
167F
  8
0
  6
VERDECKT
 62
     1
 10
39.4396569693089916
 20
91.308884931453818
 30
-0.0000000000000203
 11
39.0013445088172972
 21
94.8153846153845876
 31
-0.0000000000000211
210
0.0
220
1.0
230
-0.0000000000000002
  0
LINE
  5
1680
  8
0
  6
VERDECKT
 62
     1
 10
120.5168782021718954
 20
91.308884931453818
 30
-0.0000000000000203
 11
120.9551906626635969
 21
94.8153846153845876
 31
-0.0000000000000211
210
0.0
220
1.0
230
-0.0000000000000002
  0
LINE
  5
1681
  8
0
  6
VERDECKT
 62
     1
 10
39.4782675857407028
 20
55.8044115262064295
 30
-0.0000000000000124
 11
39.4782675857407028
 21
90.688711258507297
 31
-0.0000000000000201
210
0.0
220
1.0
230
-0.0000000000000002
  0
LINE
  5
1682
  8
0
  6
VERDECKT
 62
     1
 10
120.4782675857401983
 20
55.8044115262064295
 30
-0.0000000000000124
 11
120.4782675857401983
 21
90.688711258507297
 31
-0.0000000000000201
210
0.0
220
1.0
230
-0.0000000000000002
  0
ARC
  5
1683
  8
0
  6
VERDECKT
 62
     1
 10
-125.4782675857398004
 20
90.5953246360598143
 30
0.0
 40
6.4999999999996438
210
0.0
220
-0.0000000000000002
230
-1.0
 50
359.9999999999997726
 51
7.1250163489030731
  0
ARC
  5
1684
  8
0
  6
VERDECKT
 62
     1
 10
-34.478267585741051
 20
90.5953246360598143
 30
0.0
 40
6.4999999999996447
210
0.0
220
-0.0000000000000002
230
-1.0
 50
172.8749836510968976
 51
180.0
  0
LINE
  5
1685
  8
0
  6
VERDECKT
 62
     1
 10
40.9782675857406886
 20
55.8044115262066569
 30
-0.0000000000000124
 11
40.9782675857406886
 21
90.5953246360598143
 31
-0.0000000000000201
210
0.0
220
1.0
230
-0.0000000000000002
  0
LINE
  5
1686
  8
0
  6
VERDECKT
 62
     1
 10
118.9782675857401983
 20
55.8044115262066569
 30
-0.0000000000000124
 11
118.9782675857401983
 21
90.5953246360598143
 31
-0.0000000000000201
210
0.0
220
1.0
230
-0.0000000000000002
  0
LINE
  5
1687
  8
0
  6
VERDECKT
 62
     1
 10
40.9280737843794995
 20
91.4015504108897687
 30
-0.0000000000000203
 11
40.4782675857406886
 21
95.0000000000002416
 31
-0.0000000000000211
210
0.0
220
1.0
230
-0.0000000000000002
  0
LINE
  5
1688
  8
0
  6
VERDECKT
 62
     1
 10
119.0284613871014017
 20
91.4015504108897687
 30
-0.0000000000000203
 11
119.4782675857401983
 21
95.0000000000002416
 31
-0.0000000000000211
210
0.0
220
1.0
230
-0.0000000000000002
  0
LINE
  5
1689
  8
0
  6
VERDECKT
 62
     1
 10
53.4782675857406886
 20
-41.121320343556107
 30
0.0000000000000091
 11
53.4782675857407028
 21
15.4048253288458508
 31
-0.0000000000000034
210
0.0
220
1.0
230
-0.0000000000000002
  0
LINE
  5
168A
  8
0
  6
VERDECKT
 62
     1
 10
106.4782675857401983
 20
-41.121320343556107
 30
0.0000000000000091
 11
106.4782675857401983
 21
15.4048253288458508
 31
-0.0000000000000034
210
0.0
220
1.0
230
-0.0000000000000002
  0
ARC
  5
168B
  8
0
  6
VERDECKT
 62
     1
 10
-99.9782698309433044
 20
-119.7816696226707052
 30
0.0
 40
4.9999999999988374
210
0.0
220
-0.0000000000000002
230
-1.0
 50
180.0005892709324939
 51
184.9999999999978115
  0
ARC
  5
168C
  8
0
  6
VERDECKT
 62
     1
 10
-59.978265340538087
 20
-119.7816696226707052
 30
0.0
 40
4.9999999999993268
210
0.0
220
-0.0000000000000002
230
-1.0
 50
355.0000000000025011
 51
359.9994107290675061
  0
LINE
  5
168D
  8
0
  6
VERDECKT
 62
     1
 10
55.4043167181291381
 20
-124.8697638667495937
 30
0.0000000000000277
 11
54.9972918500790229
 21
-120.2174483364087934
 31
0.0000000000000267
210
0.0
220
1.0
230
-0.0000000000000002
  0
LINE
  5
168E
  8
0
  6
VERDECKT
 62
     1
 10
104.5522184533516992
 20
-124.8697638667495937
 30
0.0000000000000277
 11
104.9592433214018996
 21
-120.2174483364087934
 31
0.0000000000000267
210
0.0
220
1.0
230
-0.0000000000000002
  0
LINE
  5
168F
  8
0
  6
VERDECKT
 62
     1
 10
104.5522184533516992
 20
-124.8697638667496932
 30
0.0000000000000277
 11
106.0408242681106969
 21
-124.999999999999801
 31
0.0000000000000278
210
0.0
220
1.0
230
-0.0000000000000002
  0
LINE
  5
1690
  8
0
  6
VERDECKT
 62
     1
 10
55.4043167181291594
 20
-124.8697638667496932
 30
0.0000000000000277
 11
53.9157109033701474
 21
-124.999999999999801
 31
0.0000000000000278
210
0.0
220
1.0
230
-0.0000000000000002
  0
ARC
  5
1691
  8
0
  6
VERDECKT
 62
     1
 10
-104.0024159347048993
 20
46.1328936603238375
 30
0.0
 40
11.9999999999948503
210
0.0
220
-0.0000000000000002
230
-1.0
 50
197.1027289690507018
 51
213.0238675558013028
  0
ARC
  5
1692
  8
0
  6
VERDECKT
 62
     1
 10
-55.9541192367757034
 20
46.132893660323667
 30
0.0
 40
11.9999999999945004
210
0.0
220
-0.0000000000000002
230
-1.0
 50
326.9761324441985266
 51
342.8972710309495255
  0
LINE
  5
1693
  8
0
  6
VERDECKT
 62
     1
 10
44.4847711321174586
 20
42.6038634742753999
 30
-0.0000000000000095
 11
41.5089194810773634
 21
52.2753813401561871
 31
-0.0000000000000116
210
0.0
220
1.0
230
-0.0000000000000002
  0
LINE
  5
1694
  8
0
  6
VERDECKT
 62
     1
 10
115.4717640393635065
 20
42.6038634742753999
 30
-0.0000000000000095
 11
118.4476156904035946
 21
52.2753813401561871
 31
-0.0000000000000116
210
0.0
220
1.0
230
-0.0000000000000002
  0
ARC
  5
1695
  8
0
  6
VERDECKT
 62
     1
 10
-106.9782675857472043
 20
55.8044115262056124
 30
0.0
 40
11.9999999999930207
210
0.0
220
-0.0000000000000002
230
-1.0
 50
179.9999999999949125
 51
197.1027289690582904
  0
ARC
  5
1696
  8
0
  6
VERDECKT
 62
     1
 10
-52.9782675857336827
 20
55.8044115262056124
 30
0.0
 40
11.99999999999301
210
0.0
220
-0.0000000000000002
230
-1.0
 50
342.8972710309416243
 51
0.0000000000050253
  0
LINE
  5
1697
  8
0
  6
VERDECKT
 62
     1
 10
119.4782675857401983
 20
95.0000000000003553
 30
-0.0000000000000211
 11
120.9551906626635969
 21
94.8153846153847013
 31
-0.0000000000000211
210
0.0
220
1.0
230
-0.0000000000000002
  0
LINE
  5
1698
  8
0
  6
VERDECKT
 62
     1
 10
40.4782675857406815
 20
95.0000000000003553
 30
-0.0000000000000211
 11
39.0013445088172688
 21
94.8153846153847013
 31
-0.0000000000000211
210
0.0
220
1.0
230
-0.0000000000000002
  0
ARC
  5
1699
  8
0
  6
VERDECKT
 62
     1
 10
-106.9782675857431968
 20
55.8044115262052571
 30
0.0
 40
13.4999999999967706
210
0.0
220
-0.0000000000000002
230
-1.0
 50
179.9999999999949978
 51
197.1027289690520945
  0
ARC
  5
169A
  8
0
  6
VERDECKT
 62
     1
 10
-52.9782675857376688
 20
55.8044115262052571
 30
0.0
 40
13.4999999999967493
210
0.0
220
-0.0000000000000002
230
-1.0
 50
342.8972710309478771
 51
0.0000000000050126
  0
LINE
  5
169B
  8
0
  6
VERDECKT
 62
     1
 10
43.05110261903463
 20
42.1627347010191613
 30
-0.0000000000000094
 11
40.0752509679943216
 21
51.8342525668996572
 31
-0.0000000000000115
210
0.0
220
1.0
230
-0.0000000000000002
  0
LINE
  5
169C
  8
0
  6
VERDECKT
 62
     1
 10
116.9054325524462996
 20
42.1627347010191613
 30
-0.0000000000000094
 11
119.8812842034866009
 21
51.8342525668996572
 31
-0.0000000000000115
210
0.0
220
1.0
230
-0.0000000000000002
  0
ARC
  5
169D
  8
0
  6
VERDECKT
 62
     1
 10
-104.0024159346991013
 20
46.1328936603256778
 30
0.0
 40
13.5000000000006892
210
0.0
220
-0.0000000000000002
230
-1.0
 50
197.1027289690510997
 51
213.0238675557936858
  0
ARC
  5
169E
  8
0
  6
VERDECKT
 62
     1
 10
-55.954119236782411
 20
46.1328936603259692
 30
0.0
 40
13.50000000000135
210
0.0
220
-0.0000000000000002
230
-1.0
 50
326.9761324442067121
 51
342.8972710309483887
  0
LINE
  5
169F
  8
0
  6
VERDECKT
 62
     1
 10
49.6892385194590176
 20
31.0000000000001315
 30
-0.0000000000000069
 11
44.6351304167221912
 21
38.7755509272877674
 31
-0.0000000000000086
210
0.0
220
1.0
230
-0.0000000000000002
  0
LINE
  5
16A0
  8
0
  6
VERDECKT
 62
     1
 10
110.2672966520218978
 20
31.0000000000001208
 30
-0.0000000000000069
 11
115.3214047547587029
 21
38.7755509272877674
 31
-0.0000000000000086
210
0.0
220
1.0
230
-0.0000000000000002
  0
LINE
  5
16A1
  8
0
  6
VERDECKT
 62
     1
 10
53.0615345163501928
 20
18.5397778347441111
 30
-0.0000000000000041
 11
49.6892385194590886
 21
31.0000000000002096
 31
-0.0000000000000069
210
0.0
220
1.0
230
-0.0000000000000002
  0
LINE
  5
16A2
  8
0
  6
VERDECKT
 62
     1
 10
106.8950006551307013
 20
18.5397778347441111
 30
-0.0000000000000041
 11
110.2672966520217983
 21
31.000000000000199
 31
-0.0000000000000069
210
0.0
220
1.0
230
-0.0000000000000002
  0
ARC
  5
16A3
  8
0
  6
VERDECKT
 62
     1
 10
-118.4782675857388057
 20
15.4048253288458401
 30
0.0
 40
11.9999999999985807
210
0.0
220
-0.0000000000000002
230
-1.0
 50
0.0
 51
15.1440107227724798
  0
ARC
  5
16A4
  8
0
  6
VERDECKT
 62
     1
 10
-41.4782675857420813
 20
15.4048253288458508
 30
0.0
 40
11.9999999999985807
210
0.0
220
-0.0000000000000002
230
-1.0
 50
164.8559892772275077
 51
180.0
  0
ARC
  5
16A5
  8
0
  6
VERDECKT
 62
     1
 10
-124.7126470511974929
 20
14.5275230429886992
 30
0.0
 40
19.7448239775919987
210
0.0
220
-0.0000000000000002
230
-1.0
 50
1.988938555806907
 51
14.0362434679292694
  0
ARC
  5
16A6
  8
0
  6
VERDECKT
 62
     1
 10
-35.2438881202834509
 20
14.5275230429887099
 30
0.0
 40
19.7448239775919916
210
0.0
220
-0.0000000000000002
230
-1.0
 50
165.963756532070704
 51
178.0110614441929897
  0
LINE
  5
16A7
  8
0
  6
VERDECKT
 62
     1
 10
18.9782675857403511
 20
120.8786796564404966
 30
-0.0000000000000268
 11
140.9782675857402978
 21
120.8786796564404966
 31
-0.0000000000000268
210
0.0
220
1.0
230
-0.0000000000000002
  0
LINE
  5
16A8
  8
0
  6
VERDECKT
 62
     1
 10
18.9782675857403511
 20
120.1405383194444028
 30
-0.0000000000000267
 11
18.9782675857403511
 21
120.8786796564404966
 31
-0.0000000000000268
210
0.0
220
1.0
230
-0.0000000000000002
  0
LINE
  5
16A9
  8
0
  6
VERDECKT
 62
     1
 10
140.9782675857402978
 20
120.1405383194458949
 30
-0.0000000000000267
 11
140.9782675857402978
 21
120.8786796564403971
 31
-0.0000000000000268
210
0.0
220
1.0
230
-0.0000000000000002
  0
LINE
  5
16AA
  8
0
  6
VERDECKT
 62
     1
 10
20.9782675857403511
 20
82.5467961561837313
 30
-0.0000000000000183
 11
20.9782675857403511
 21
120.8786796564404966
 31
-0.0000000000000268
210
0.0
220
1.0
230
-0.0000000000000002
  0
LINE
  5
16AB
  8
0
  6
VERDECKT
 62
     1
 10
138.9782675857402978
 20
82.5467961561837313
 30
-0.0000000000000183
 11
138.9782675857402978
 21
120.8786796564403971
 31
-0.0000000000000268
210
0.0
220
1.0
230
-0.0000000000000002
  0
ARC
  5
16AC
  8
0
  6
VERDECKT
 62
     1
 10
-126.9782675857398004
 20
82.5467961561838734
 30
0.0
 40
12.0000000000003695
210
0.0
220
-0.0000000000000002
230
-1.0
 50
180.0000000000005969
 51
203.7526317039097989
  0
ARC
  5
16AD
  8
0
  6
VERDECKT
 62
     1
 10
-32.9782675857407668
 20
82.5467961561838734
 30
0.0
 40
12.0000000000003109
210
0.0
220
-0.0000000000000002
230
-1.0
 50
336.2473682960899737
 51
359.9999999999993179
  0
LINE
  5
16AE
  8
0
  6
VERDECKT
 62
     1
 10
29.792369295016119
 20
59.9941054943768677
 30
-0.0000000000000133
 11
21.9947518349327993
 21
77.7133313790534288
 31
-0.0000000000000173
210
0.0
220
1.0
230
-0.0000000000000002
  0
LINE
  5
16AF
  8
0
  6
VERDECKT
 62
     1
 10
130.1641658764644944
 20
59.9941054943768677
 30
-0.0000000000000133
 11
137.96178333654791
 21
77.7133313790534288
 31
-0.0000000000000173
210
0.0
220
1.0
230
-0.0000000000000002
  0
ARC
  5
16B0
  8
0
  6
VERDECKT
 62
     1
 10
-142.9782675857387062
 20
54.3550632543921495
 30
0.0
 40
13.9999999999983995
210
0.0
220
-0.0000000000000002
230
-1.0
 50
359.9999999999985221
 51
23.7526317039098984
  0
ARC
  5
16B1
  8
0
  6
VERDECKT
 62
     1
 10
-16.9782675857423691
 20
54.3550632543922418
 30
0.0
 40
13.9999999999979803
210
0.0
220
-0.0000000000000002
230
-1.0
 50
156.2473682960896895
 51
180.0000000000017053
  0
LINE
  5
16B2
  8
0
  6
VERDECKT
 62
     1
 10
30.9782675857403511
 20
-39.121320343556107
 30
0.0000000000000087
 11
30.9782675857403511
 21
54.3550632543917871
 31
-0.0000000000000121
210
0.0
220
1.0
230
-0.0000000000000002
  0
LINE
  5
16B3
  8
0
  6
VERDECKT
 62
     1
 10
128.9782675857402978
 20
-39.121320343556107
 30
0.0000000000000087
 11
128.9782675857402978
 21
54.3550632543917871
 31
-0.0000000000000121
210
0.0
220
1.0
230
-0.0000000000000002
  0
ENDBLK
  5
16B5
  8
0
  0
ENDSEC
  0
SECTION
  2
ENTITIES
  0
INSERT
  5
E90
  8
ADSK_ASSOC_ENTITY_BACKUPS
  2
*S3
 10
0.0
 20
0.0
 30
0.0
  0
INSERT
  5
15C4
  8
STEMPEL
  2
A$C46D72D7C
 10
260.7674590337090876
 20
-304.8117932828171206
 30
-40.2137858519515277
  0
INSERT
  5
16B6
  8
STEMPEL
  2
A$CAF6D4070
 10
260.7674590337092013
 20
-21.8878599796731805
 30
-40.2137858519515419
  0
VIEWPORT
  5
D4D
 67
     1
  8
0
 10
80.6915325020784167
 20
172.0200208093943104
 30
0.0
 40
1207.6033289124939074
 41
676.4515973453675315
 68
     1
 69
     1
1001
ACAD
1000
MVIEW
1002
{
1070
    16
1010
0.0
1020
0.0
1030
0.0
1010
0.0
1020
0.0
1030
1.0
1040
0.0
1040
676.4515973453675315
1040
80.6915325020784167
1040
172.0200208093943104
1040
50.0
1040
0.0
1040
0.0
1070
     0
1070
  1500
1070
     1
1070
     1
1070
     0
1070
     0
1070
     0
1070
     0
1040
0.0
1040
0.0
1040
0.0
1040
10.0
1040
10.0
1040
10.0
1040
10.0
1070
     0
1002
{
1002
}
1002
}
  0
ENDSEC
  0
EOF
