  0
SECTION
  2
HEADER
  9
$ACADVER
  1
AC1009
  9
$INSBASE
 10
0.0
 20
0.0
 30
0.0
  9
$EXTMIN
 10
-0.0111197203511893
 20
-0.0090630292066862
 30
-0.0154025277203118
  9
$EXTMAX
 10
53.0061915296590698
 20
204.7403875469933041
 30
0.0002174093235112
  9
$LIMMIN
 10
0.0
 20
0.0
  9
$LIMMAX
 10
210.0
 20
297.0
  9
$ORTHOMODE
 70
     1
  9
$REGENMODE
 70
     1
  9
$FILLMODE
 70
     1
  9
$QTEXTMODE
 70
     0
  9
$MIRRTEXT
 70
     1
  9
$DRAGMODE
 70
     2
  9
$LTSCALE
 40
10.0
  9
$OSMODE
 70
    39
  9
$ATTMODE
 70
     1
  9
$TEXTSIZE
 40
3.5
  9
$TRACEWID
 40
0.5
  9
$TEXTSTYLE
  7
STANDARD
  9
$CLAYER
  8
MITTEL
  9
$CELTYPE
  6
BYLAYER
  9
$CECOLOR
 62
   256
  9
$DIMSCALE
 40
1.0
  9
$DIMASZ
 40
3.5
  9
$DIMEXO
 40
1.0
  9
$DIMDLI
 40
7.0
  9
$DIMRND
 40
0.0
  9
$DIMDLE
 40
0.0
  9
$DIMEXE
 40
1.0
  9
$DIMTP
 40
0.0
  9
$DIMTM
 40
0.0
  9
$DIMTXT
 40
3.5
  9
$DIMCEN
 40
1.5
  9
$DIMTSZ
 40
0.0
  9
$DIMTOL
 70
     0
  9
$DIMLIM
 70
     0
  9
$DIMTIH
 70
     0
  9
$DIMTOH
 70
     0
  9
$DIMSE1
 70
     0
  9
$DIMSE2
 70
     0
  9
$DIMTAD
 70
     1
  9
$DIMZIN
 70
     8
  9
$DIMBLK
  1

  9
$DIMASO
 70
     1
  9
$DIMSHO
 70
     0
  9
$DIMPOST
  1

  9
$DIMAPOST
  1

  9
$DIMALT
 70
     0
  9
$DIMALTD
 70
     2
  9
$DIMALTF
 40
25.3999999999999986
  9
$DIMLFAC
 40
2.0
  9
$DIMTOFL
 70
     1
  9
$DIMTVP
 40
0.0
  9
$DIMTIX
 70
     0
  9
$DIMSOXD
 70
     0
  9
$DIMSAH
 70
     0
  9
$DIMBLK1
  1

  9
$DIMBLK2
  1

  9
$DIMSTYLE
  2
STANDARD
  9
$DIMCLRD
 70
     0
  9
$DIMCLRE
 70
     0
  9
$DIMCLRT
 70
     1
  9
$DIMTFAC
 40
0.5
  9
$DIMGAP
 40
1.5
  9
$LUNITS
 70
     2
  9
$LUPREC
 70
     2
  9
$SKETCHINC
 40
1.0
  9
$FILLETRAD
 40
0.0
  9
$AUNITS
 70
     0
  9
$AUPREC
 70
     0
  9
$MENU
  1
ACAD
  9
$ELEVATION
 40
0.0
  9
$PELEVATION
 40
0.0
  9
$THICKNESS
 40
0.0
  9
$LIMCHECK
 70
     0
  9
$BLIPMODE
 70
     0
  9
$CHAMFERA
 40
0.0
  9
$CHAMFERB
 40
0.0
  9
$SKPOLY
 70
     0
  9
$TDCREATE
 40
2455397.8646990740671754
  9
$TDUPDATE
 40
2458418.272453703917563
  9
$TDINDWG
 40
0.6174713657000001
  9
$TDUSRTIMER
 40
0.6174713657000001
  9
$USRTIMER
 70
     1
  9
$ANGBASE
 50
0.0
  9
$ANGDIR
 70
     0
  9
$PDMODE
 70
     0
  9
$PDSIZE
 40
0.0
  9
$PLINEWID
 40
0.0
  9
$COORDS
 70
     1
  9
$SPLFRAME
 70
     0
  9
$SPLINETYPE
 70
     6
  9
$SPLINESEGS
 70
  2000
  9
$ATTDIA
 70
     1
  9
$ATTREQ
 70
     1
  9
$HANDLING
 70
     1
  9
$HANDSEED
  5
1A0FC
  9
$SURFTAB1
 70
     6
  9
$SURFTAB2
 70
     6
  9
$SURFTYPE
 70
     6
  9
$SURFU
 70
     6
  9
$SURFV
 70
     6
  9
$UCSNAME
  2

  9
$UCSORG
 10
0.0
 20
0.0
 30
0.0
  9
$UCSXDIR
 10
1.0
 20
0.0
 30
0.0
  9
$UCSYDIR
 10
0.0
 20
1.0
 30
0.0
  9
$PUCSNAME
  2

  9
$PUCSORG
 10
0.0
 20
0.0
 30
0.0
  9
$PUCSXDIR
 10
1.0
 20
0.0
 30
0.0
  9
$PUCSYDIR
 10
0.0
 20
1.0
 30
0.0
  9
$USERI1
 70
     0
  9
$USERI2
 70
     0
  9
$USERI3
 70
     0
  9
$USERI4
 70
     0
  9
$USERI5
 70
     0
  9
$USERR1
 40
0.0
  9
$USERR2
 40
0.0
  9
$USERR3
 40
0.0
  9
$USERR4
 40
0.0
  9
$USERR5
 40
0.0
  9
$WORLDVIEW
 70
     1
  9
$SHADEDGE
 70
     3
  9
$SHADEDIF
 70
    70
  9
$TILEMODE
 70
     1
  9
$MAXACTVP
 70
    16
  9
$PLIMCHECK
 70
     0
  9
$PEXTMIN
 10
-7.512818414968307
 20
-20.0181266116719598
 30
-0.0000000349181948
  9
$PEXTMAX
 10
202.5128187520001859
 20
277.0181309387035071
 30
0.0000000814935746
  9
$PLIMMIN
 10
-7.5
 20
-20.0
  9
$PLIMMAX
 10
202.5
 20
277.0
  9
$UNITMODE
 70
     0
  9
$VISRETAIN
 70
     0
  9
$PLINEGEN
 70
     0
  9
$PSLTSCALE
 70
     0
  0
ENDSEC
  0
SECTION
  2
TABLES
  0
TABLE
  2
VPORT
 70
     1
  0
VPORT
  2
*ACTIVE
 70
     0
 10
0.0
 20
0.0
 11
1.0
 21
1.0
 12
26.4975359046539403
 22
102.3656622588932947
 13
0.0
 23
0.0
 14
1.0
 24
1.0
 15
10.0
 25
10.0
 16
-0.0000000000000012
 26
0.0
 36
5.5852494427615751
 17
0.0
 27
0.0
 37
0.0
 40
206.3852650947848986
 41
2.0800000000000001
 42
50.0
 43
0.0
 44
0.0
 50
0.0
 51
0.0
 71
     0
 72
  1500
 73
     1
 74
     0
 75
     0
 76
     0
 77
     0
 78
     0
  0
ENDTAB
  0
TABLE
  2
LTYPE
 70
     5
  0
LTYPE
  2
CONTINUOUS
 70
     0
  3
Solid line
 72
    65
 73
     0
 40
0.0
  0
LTYPE
  2
STRICHPUNKT
 70
     0
  3
__ . __ . __ . __ . __ . __ . __ . __ . __ . __
 72
    65
 73
     4
 40
1.0
 49
0.5
 49
-0.25
 49
0.0
 49
-0.25
  0
LTYPE
  2
AUSGEZOGEN
 70
     0
  3
Ausgezogene Linie
 72
    65
 73
     0
 40
0.0
  0
LTYPE
  2
PHANTOM2
 70
     0
  3
Phantom (.5x) ___ _ _ ___ _ _ ___ _ _ ___ _ _
 72
    65
 73
     6
 40
1.25
 49
0.625
 49
-0.125
 49
0.125
 49
-0.125
 49
0.125
 49
-0.125
  0
LTYPE
  2
VERDECKT
 70
     0
  3
Verdeckt __ __ __ __ __ __ __ __ __ __ __ __ __
 72
    65
 73
     2
 40
0.375
 49
0.25
 49
-0.125
  0
ENDTAB
  0
TABLE
  2
LAYER
 70
     5
  0
LAYER
  2
0
 70
     0
 62
     7
  6
CONTINUOUS
  0
LAYER
  2
VOLL
 70
     0
 62
     1
  6
CONTINUOUS
  0
LAYER
  2
MITTEL
 70
     0
 62
     2
  6
STRICHPUNKT
  0
LAYER
  2
DEFPOINTS
 70
     0
 62
     7
  6
AUSGEZOGEN
  0
LAYER
  2
ADSK_ASSOC_ENTITY_BACKUPS
 70
     1
 62
    -7
  6
CONTINUOUS
  0
ENDTAB
  0
TABLE
  2
STYLE
 70
     2
  0
STYLE
  2
STANDARD
 70
     0
 40
0.0
 41
0.8
 50
0.0
 71
     0
 42
3.5
  3
simplex.shx
  4

  0
STYLE
  2
GREEKS
 70
     0
 40
0.0
 41
0.8
 50
0.0
 71
     0
 42
2.5
  3
SIMPLEX.shx
  4

  0
ENDTAB
  0
TABLE
  2
VIEW
 70
     0
  0
ENDTAB
  0
TABLE
  2
UCS
 70
     0
  0
ENDTAB
  0
TABLE
  2
APPID
 70
    21
  0
APPID
  2
ACAD
 70
     0
  0
APPID
  2
ACAD_NAV_VCDISPLAY
 70
     0
  0
APPID
  2
ACAD_MLEADERVER
 70
     0
  0
APPID
  2
ACAD_EXEMPT_FROM_CAD_STANDARDS
 70
     0
  0
APPID
  2
ACAUTHENVIRON
 70
     0
  0
APPID
  2
ACDBDYNAMICBLOCKTRUENAME
 70
     0
  0
APPID
  2
ACDBDYNAMICBLOCKGUID
 70
     0
  0
APPID
  2
ACAECLAYERSTANDARD
 70
     0
  0
APPID
  2
ACCMTRANSPARENCY
 70
     0
  0
APPID
  2
ACAD_PSEXT
 70
     0
  0
APPID
  2
ACSYNERGY
 70
     0
  0
APPID
  2
SYNERGY_BODY_TBR_ID
 70
     0
  0
APPID
  2
ACAD_VIEW_EDGE_ID
 70
     0
  0
APPID
  2
ACAD_DIMASSOC_CALC_DIMLFAC
 70
     0
  0
APPID
  2
ACAD_DIMASSOC_DIMLFAC
 70
     0
  0
APPID
  2
ACAD_DIMASSOC_OVERRIDDEN_D
 70
     0
  0
APPID
  2
ACAD_DSTYLE_DIMRADIAL_EXTENSION
 70
     0
  0
APPID
  2
ACAD_DSTYLE_DIMJAG
 70
     0
  0
APPID
  2
ACAD_DSTYLE_DIMTALN
 70
     0
  0
APPID
  2
ACADANNOMONITORALERTICONDI
 70
     0
  0
APPID
  2
ACAD_OBJECT_CHANGE_GUID
 70
     0
  0
ENDTAB
  0
TABLE
  2
DIMSTYLE
 70
     1
  0
DIMSTYLE
  2
STANDARD
 70
     0
  3

  4

  5

  6

  7

 40
1.0
 41
0.18
 42
0.0625
 43
0.38
 44
0.18
 45
0.0
 46
0.0
 47
0.0
 48
0.0
140
0.18
141
0.09
142
0.0
143
25.3999999999999986
144
1.0
145
0.0
146
1.0
147
0.09
 71
     0
 72
     0
 73
     1
 74
     1
 75
     0
 76
     0
 77
     0
 78
     0
170
     0
171
     2
172
     0
173
     0
174
     0
175
     0
176
     0
177
     0
178
     0
  0
ENDTAB
  0
ENDSEC
  0
SECTION
  2
BLOCKS
  0
BLOCK
  8
0
  2
$MODEL_SPACE
 70
     0
 10
0.0
 20
0.0
 30
0.0
  3
$MODEL_SPACE
  1

  0
ENDBLK
  5
36
  8
0
  0
BLOCK
 67
     1
  8
0
  2
$PAPER_SPACE
 70
     0
 10
0.0
 20
0.0
 30
0.0
  3
$PAPER_SPACE
  1

  0
ENDBLK
  5
34
 67
     1
  8
0
  0
BLOCK
  8
0
 62
     3
  2
*S20
 70
     1
 10
0.0
 20
0.0
 30
0.0
  3
*S20
  1

  0
ENDBLK
  5
18CBE
  8
0
 62
     3
  0
BLOCK
  8
0
  2
A$C6C98571B
 70
     0
 10
0.0
 20
0.0
 30
0.0
  3
A$C6C98571B
  1

  0
LINE
  5
19D97
  8
0
  6
CONTINUOUS
 62
     3
 10
146.0396118164061932
 20
223.0749931335450071
 30
0.0
 11
199.0396118164061079
 21
223.0749931335450071
 31
0.0
210
0.0
220
1.0
230
0.0
  0
LINE
  5
19D98
  8
0
  6
CONTINUOUS
 62
     3
 10
146.0396118164061932
 20
222.0749931335448082
 30
0.0
 11
199.0396118164061079
 21
222.0749931335448082
 31
0.0
210
0.0
220
1.0
230
0.0
  0
LINE
  5
19D99
  8
0
  6
CONTINUOUS
 62
     3
 10
199.0396118164061079
 20
223.0749931335448935
 30
0.0
 11
199.0396118164061079
 21
222.0749931335448082
 31
0.0
210
0.0
220
1.0
230
0.0
  0
LINE
  5
19D9A
  8
0
  6
CONTINUOUS
 62
     3
 10
146.0396118164061932
 20
223.0749931335448935
 30
0.0
 11
146.0396118164061932
 21
222.0749931335448082
 31
0.0
210
0.0
220
1.0
230
0.0
  0
LINE
  5
19D9B
  8
0
  6
CONTINUOUS
 62
     3
 10
197.2198166045124026
 20
114.074993133544794
 30
0.0
 11
197.2198166045124026
 21
122.074993133544794
 31
0.0
210
0.0
220
1.0
230
0.0
  0
LINE
  5
19D9C
  8
0
  6
CONTINUOUS
 62
     3
 10
198.9630230797534125
 20
122.074993133544794
 30
0.0
 11
198.9630230797534125
 21
114.074993133544794
 31
0.0
210
0.0
220
1.0
230
0.0
  0
LINE
  5
19D9D
  8
0
  6
CONTINUOUS
 62
     3
 10
197.9659132207590915
 20
114.074993133544794
 30
0.0
 11
197.9659132207590915
 21
122.074993133544794
 31
0.0
210
0.0
220
1.0
230
0.0
  0
LINE
  5
19D9E
  8
0
  6
CONTINUOUS
 62
     3
 10
198.9630230797534125
 20
122.074993133544794
 30
0.0
 11
197.2198166045124026
 21
122.074993133544794
 31
0.0
210
0.0
220
1.0
230
0.0
  0
LINE
  5
19D9F
  8
0
  6
CONTINUOUS
 62
     3
 10
197.2198166045124026
 20
114.074993133544794
 30
0.0
 11
198.9630230797534125
 21
114.074993133544794
 31
0.0
210
0.0
220
1.0
230
0.0
  0
LINE
  5
19DA0
  8
0
  6
CONTINUOUS
 62
     3
 10
197.2198166045124026
 20
138.0749931335448082
 30
0.0
 11
197.2198166045124026
 21
146.0749931335448082
 31
0.0
210
0.0
220
1.0
230
0.0
  0
LINE
  5
19DA1
  8
0
  6
CONTINUOUS
 62
     3
 10
198.9630230797534125
 20
146.0749931335448082
 30
0.0
 11
198.9630230797534125
 21
138.0749931335448082
 31
0.0
210
0.0
220
1.0
230
0.0
  0
LINE
  5
19DA2
  8
0
  6
CONTINUOUS
 62
     3
 10
197.9659132207590915
 20
138.0749931335448082
 30
0.0
 11
197.9659132207590915
 21
146.0749931335448082
 31
0.0
210
0.0
220
1.0
230
0.0
  0
LINE
  5
19DA3
  8
0
  6
CONTINUOUS
 62
     3
 10
198.9630230797534125
 20
146.0749931335448082
 30
0.0
 11
197.2198166045124026
 21
146.0749931335448082
 31
0.0
210
0.0
220
1.0
230
0.0
  0
LINE
  5
19DA4
  8
0
  6
CONTINUOUS
 62
     3
 10
197.2198166045124026
 20
138.0749931335448082
 30
0.0
 11
198.9630230797534125
 21
138.0749931335448082
 31
0.0
210
0.0
220
1.0
230
0.0
  0
LINE
  5
19DA5
  8
0
  6
CONTINUOUS
 62
     3
 10
197.2198166045124026
 20
162.0749931335448082
 30
0.0
 11
197.2198166045124026
 21
170.0749931335448082
 31
0.0
210
0.0
220
1.0
230
0.0
  0
LINE
  5
19DA6
  8
0
  6
CONTINUOUS
 62
     3
 10
198.9630230797534125
 20
170.0749931335448082
 30
0.0
 11
198.9630230797534125
 21
162.0749931335448082
 31
0.0
210
0.0
220
1.0
230
0.0
  0
LINE
  5
19DA7
  8
0
  6
CONTINUOUS
 62
     3
 10
197.9659132207590915
 20
162.0749931335448082
 30
0.0
 11
197.9659132207590915
 21
170.0749931335448082
 31
0.0
210
0.0
220
1.0
230
0.0
  0
LINE
  5
19DA8
  8
0
  6
CONTINUOUS
 62
     3
 10
198.9630230797534125
 20
170.0749931335448082
 30
0.0
 11
197.2198166045124026
 21
170.0749931335448082
 31
0.0
210
0.0
220
1.0
230
0.0
  0
LINE
  5
19DA9
  8
0
  6
CONTINUOUS
 62
     3
 10
197.2198166045124026
 20
162.0749931335448082
 30
0.0
 11
198.9630230797534125
 21
162.0749931335448082
 31
0.0
210
0.0
220
1.0
230
0.0
  0
LINE
  5
19DAA
  8
0
  6
CONTINUOUS
 62
     3
 10
150.4718761394913997
 20
134.0749931335448082
 30
0.0
 11
150.4718761394913997
 21
126.074993133544794
 31
0.0
210
0.0
220
1.0
230
0.0
  0
LINE
  5
19DAB
  8
0
  6
CONTINUOUS
 62
     3
 10
149.6064747403966919
 20
126.074993133544794
 30
0.0
 11
149.6064747403966919
 21
134.0749931335448082
 31
0.0
210
0.0
220
1.0
230
0.0
  0
LINE
  5
19DAC
  8
0
  6
CONTINUOUS
 62
     3
 10
154.4908307446737012
 20
134.0749931335448082
 30
0.0
 11
154.4908307446737012
 21
126.074993133544794
 31
0.0
210
0.0
220
1.0
230
0.0
  0
LINE
  5
19DAD
  8
0
  6
CONTINUOUS
 62
     3
 10
154.4908307446737012
 20
134.0749931335448082
 30
0.0
 11
149.6064747403966066
 21
134.0749931335448082
 31
0.0
210
0.0
220
1.0
230
0.0
  0
LINE
  5
19DAE
  8
0
  6
CONTINUOUS
 62
     3
 10
149.6064747403966066
 20
126.074993133544794
 30
0.0
 11
154.4908307446737012
 21
126.074993133544794
 31
0.0
210
0.0
220
1.0
230
0.0
  0
LINE
  5
19DAF
  8
0
  6
CONTINUOUS
 62
     3
 10
150.4718761394913997
 20
158.0749931335448082
 30
0.0
 11
150.4718761394913997
 21
150.0749931335448082
 31
0.0
210
0.0
220
1.0
230
0.0
  0
LINE
  5
19DB0
  8
0
  6
CONTINUOUS
 62
     3
 10
149.6064747403966919
 20
150.0749931335448082
 30
0.0
 11
149.6064747403966919
 21
158.0749931335448082
 31
0.0
210
0.0
220
1.0
230
0.0
  0
LINE
  5
19DB1
  8
0
  6
CONTINUOUS
 62
     3
 10
154.4908307446737012
 20
158.0749931335448082
 30
0.0
 11
154.4908307446737012
 21
150.0749931335448082
 31
0.0
210
0.0
220
1.0
230
0.0
  0
LINE
  5
19DB2
  8
0
  6
CONTINUOUS
 62
     3
 10
154.4908307446737012
 20
158.0749931335448082
 30
0.0
 11
149.6064747403966066
 21
158.0749931335448082
 31
0.0
210
0.0
220
1.0
230
0.0
  0
LINE
  5
19DB3
  8
0
  6
CONTINUOUS
 62
     3
 10
149.6064747403966066
 20
150.0749931335448082
 30
0.0
 11
154.4908307446737012
 21
150.0749931335448082
 31
0.0
210
0.0
220
1.0
230
0.0
  0
LINE
  5
19DB4
  8
0
  6
CONTINUOUS
 62
     3
 10
150.4718761394913997
 20
182.0749931335448082
 30
0.0
 11
150.4718761394913997
 21
174.0749931335448082
 31
0.0
210
0.0
220
1.0
230
0.0
  0
LINE
  5
19DB5
  8
0
  6
CONTINUOUS
 62
     3
 10
149.6064747403966919
 20
174.0749931335448082
 30
0.0
 11
149.6064747403966919
 21
182.0749931335448082
 31
0.0
210
0.0
220
1.0
230
0.0
  0
LINE
  5
19DB6
  8
0
  6
CONTINUOUS
 62
     3
 10
154.4908307446737012
 20
182.0749931335448082
 30
0.0
 11
154.4908307446737012
 21
174.0749931335448082
 31
0.0
210
0.0
220
1.0
230
0.0
  0
LINE
  5
19DB7
  8
0
  6
CONTINUOUS
 62
     3
 10
154.4908307446737012
 20
182.0749931335448082
 30
0.0
 11
149.6064747403966066
 21
182.0749931335448082
 31
0.0
210
0.0
220
1.0
230
0.0
  0
LINE
  5
19DB8
  8
0
  6
CONTINUOUS
 62
     3
 10
149.6064747403966066
 20
174.0749931335448082
 30
0.0
 11
154.4908307446737012
 21
174.0749931335448082
 31
0.0
210
0.0
220
1.0
230
0.0
  0
LINE
  5
19DB9
  8
0
  6
CONTINUOUS
 62
     3
 10
150.4718761394913997
 20
206.0749931335448082
 30
0.0
 11
150.4718761394913997
 21
198.0749931335448082
 31
0.0
210
0.0
220
1.0
230
0.0
  0
LINE
  5
19DBA
  8
0
  6
CONTINUOUS
 62
     3
 10
149.6064747403966919
 20
198.0749931335448082
 30
0.0
 11
149.6064747403966919
 21
206.0749931335448082
 31
0.0
210
0.0
220
1.0
230
0.0
  0
LINE
  5
19DBB
  8
0
  6
CONTINUOUS
 62
     3
 10
154.4908307446737012
 20
206.0749931335448082
 30
0.0
 11
154.4908307446737012
 21
198.0749931335448082
 31
0.0
210
0.0
220
1.0
230
0.0
  0
LINE
  5
19DBC
  8
0
  6
CONTINUOUS
 62
     3
 10
154.4908307446737012
 20
206.0749931335448082
 30
0.0
 11
149.6064747403966066
 21
206.0749931335448082
 31
0.0
210
0.0
220
1.0
230
0.0
  0
LINE
  5
19DBD
  8
0
  6
CONTINUOUS
 62
     3
 10
149.6064747403966066
 20
198.0749931335448082
 30
0.0
 11
154.4908307446737012
 21
198.0749931335448082
 31
0.0
210
0.0
220
1.0
230
0.0
  0
LINE
  5
19DBE
  8
0
  6
CONTINUOUS
 62
     3
 10
158.2012275607594916
 20
158.0749931335448082
 30
0.0
 11
158.2012275607594916
 21
150.0749931335448082
 31
0.0
210
0.0
220
1.0
230
0.0
  0
LINE
  5
19DBF
  8
0
  6
CONTINUOUS
 62
     3
 10
157.6389379821067109
 20
150.0749931335448082
 30
0.0
 11
157.6389379821067109
 21
158.0749931335448082
 31
0.0
210
0.0
220
1.0
230
0.0
  0
LINE
  5
19DC0
  8
0
  6
CONTINUOUS
 62
     3
 10
164.6970369060773862
 20
158.0749931335448082
 30
0.0
 11
164.6970369060773862
 21
150.0749931335448082
 31
0.0
210
0.0
220
1.0
230
0.0
  0
LINE
  5
19DC1
  8
0
  6
CONTINUOUS
 62
     3
 10
164.6970369060773862
 20
158.0749931335448082
 30
0.0
 11
157.6389379821065972
 21
158.0749931335448082
 31
0.0
210
0.0
220
1.0
230
0.0
  0
LINE
  5
19DC2
  8
0
  6
CONTINUOUS
 62
     3
 10
157.6389379821065972
 20
150.0749931335448082
 30
0.0
 11
164.6970369060773862
 21
150.0749931335448082
 31
0.0
210
0.0
220
1.0
230
0.0
  0
LINE
  5
19DC3
  8
0
  6
CONTINUOUS
 62
     3
 10
158.2012275607594916
 20
182.0749931335448082
 30
0.0
 11
158.2012275607594916
 21
174.0749931335448082
 31
0.0
210
0.0
220
1.0
230
0.0
  0
LINE
  5
19DC4
  8
0
  6
CONTINUOUS
 62
     3
 10
157.6389379821067109
 20
174.0749931335448082
 30
0.0
 11
157.6389379821067109
 21
182.0749931335448082
 31
0.0
210
0.0
220
1.0
230
0.0
  0
LINE
  5
19DC5
  8
0
  6
CONTINUOUS
 62
     3
 10
164.6970369060773862
 20
182.0749931335448082
 30
0.0
 11
164.6970369060773862
 21
174.0749931335448082
 31
0.0
210
0.0
220
1.0
230
0.0
  0
LINE
  5
19DC6
  8
0
  6
CONTINUOUS
 62
     3
 10
164.6970369060773862
 20
182.0749931335448082
 30
0.0
 11
157.6389379821065972
 21
182.0749931335448082
 31
0.0
210
0.0
220
1.0
230
0.0
  0
LINE
  5
19DC7
  8
0
  6
CONTINUOUS
 62
     3
 10
157.6389379821065972
 20
174.0749931335448082
 30
0.0
 11
164.6970369060773862
 21
174.0749931335448082
 31
0.0
210
0.0
220
1.0
230
0.0
  0
LINE
  5
19DC8
  8
0
  6
CONTINUOUS
 62
     3
 10
158.2012275607594916
 20
206.0749931335448082
 30
0.0
 11
158.2012275607594916
 21
198.0749931335448082
 31
0.0
210
0.0
220
1.0
230
0.0
  0
LINE
  5
19DC9
  8
0
  6
CONTINUOUS
 62
     3
 10
157.6389379821067109
 20
198.0749931335448082
 30
0.0
 11
157.6389379821067109
 21
206.0749931335448082
 31
0.0
210
0.0
220
1.0
230
0.0
  0
LINE
  5
19DCA
  8
0
  6
CONTINUOUS
 62
     3
 10
164.6970369060773862
 20
206.0749931335448082
 30
0.0
 11
164.6970369060773862
 21
198.0749931335448082
 31
0.0
210
0.0
220
1.0
230
0.0
  0
LINE
  5
19DCB
  8
0
  6
CONTINUOUS
 62
     3
 10
164.6970369060773862
 20
206.0749931335448082
 30
0.0
 11
157.6389379821065972
 21
206.0749931335448082
 31
0.0
210
0.0
220
1.0
230
0.0
  0
LINE
  5
19DCC
  8
0
  6
CONTINUOUS
 62
     3
 10
157.6389379821065972
 20
198.0749931335448082
 30
0.0
 11
164.6970369060773862
 21
198.0749931335448082
 31
0.0
210
0.0
220
1.0
230
0.0
  0
LINE
  5
19DCD
  8
0
  6
CONTINUOUS
 62
     3
 10
150.4718761394913997
 20
110.074993133544794
 30
0.0
 11
150.4718761394913997
 21
102.074993133544794
 31
0.0
210
0.0
220
1.0
230
0.0
  0
LINE
  5
19DCE
  8
0
  6
CONTINUOUS
 62
     3
 10
149.6064747403966919
 20
102.074993133544794
 30
0.0
 11
149.6064747403966919
 21
110.074993133544794
 31
0.0
210
0.0
220
1.0
230
0.0
  0
LINE
  5
19DCF
  8
0
  6
CONTINUOUS
 62
     3
 10
154.4908307446737012
 20
110.074993133544794
 30
0.0
 11
154.4908307446737012
 21
102.074993133544794
 31
0.0
210
0.0
220
1.0
230
0.0
  0
LINE
  5
19DD0
  8
0
  6
CONTINUOUS
 62
     3
 10
154.4908307446737012
 20
110.074993133544794
 30
0.0
 11
149.6064747403966066
 21
110.074993133544794
 31
0.0
210
0.0
220
1.0
230
0.0
  0
LINE
  5
19DD1
  8
0
  6
CONTINUOUS
 62
     3
 10
149.6064747403966066
 20
102.074993133544794
 30
0.0
 11
154.4908307446737012
 21
102.074993133544794
 31
0.0
210
0.0
220
1.0
230
0.0
  0
LINE
  5
19DD2
  8
0
  6
CONTINUOUS
 62
     3
 10
158.2012275607594916
 20
110.074993133544794
 30
0.0
 11
158.2012275607594916
 21
102.074993133544794
 31
0.0
210
0.0
220
1.0
230
0.0
  0
LINE
  5
19DD3
  8
0
  6
CONTINUOUS
 62
     3
 10
157.6389379821067109
 20
102.074993133544794
 30
0.0
 11
157.6389379821067109
 21
110.074993133544794
 31
0.0
210
0.0
220
1.0
230
0.0
  0
LINE
  5
19DD4
  8
0
  6
CONTINUOUS
 62
     3
 10
164.6970369060773862
 20
110.074993133544794
 30
0.0
 11
164.6970369060773862
 21
102.074993133544794
 31
0.0
210
0.0
220
1.0
230
0.0
  0
LINE
  5
19DD5
  8
0
  6
CONTINUOUS
 62
     3
 10
164.6970369060773862
 20
110.074993133544794
 30
0.0
 11
157.6389379821065972
 21
110.074993133544794
 31
0.0
210
0.0
220
1.0
230
0.0
  0
LINE
  5
19DD6
  8
0
  6
CONTINUOUS
 62
     3
 10
157.6389379821065972
 20
102.074993133544794
 30
0.0
 11
164.6970369060773862
 21
102.074993133544794
 31
0.0
210
0.0
220
1.0
230
0.0
  0
LINE
  5
19DD7
  8
0
  6
CONTINUOUS
 62
     3
 10
158.2012275607594916
 20
134.0749931335448082
 30
0.0
 11
158.2012275607594916
 21
126.074993133544794
 31
0.0
210
0.0
220
1.0
230
0.0
  0
LINE
  5
19DD8
  8
0
  6
CONTINUOUS
 62
     3
 10
157.6389379821067109
 20
126.074993133544794
 30
0.0
 11
157.6389379821067109
 21
134.0749931335448082
 31
0.0
210
0.0
220
1.0
230
0.0
  0
LINE
  5
19DD9
  8
0
  6
CONTINUOUS
 62
     3
 10
164.6970369060773862
 20
134.0749931335448082
 30
0.0
 11
164.6970369060773862
 21
126.074993133544794
 31
0.0
210
0.0
220
1.0
230
0.0
  0
LINE
  5
19DDA
  8
0
  6
CONTINUOUS
 62
     3
 10
164.6970369060773862
 20
134.0749931335448082
 30
0.0
 11
157.6389379821065972
 21
134.0749931335448082
 31
0.0
210
0.0
220
1.0
230
0.0
  0
LINE
  5
19DDB
  8
0
  6
CONTINUOUS
 62
     3
 10
157.6389379821065972
 20
126.074993133544794
 30
0.0
 11
164.6970369060773862
 21
126.074993133544794
 31
0.0
210
0.0
220
1.0
230
0.0
  0
LINE
  5
19DDC
  8
0
  6
CONTINUOUS
 62
     3
 10
197.2198166045124026
 20
186.0749931335448082
 30
0.0
 11
197.2198166045124026
 21
194.0749931335448082
 31
0.0
210
0.0
220
1.0
230
0.0
  0
LINE
  5
19DDD
  8
0
  6
CONTINUOUS
 62
     3
 10
198.9630230797534125
 20
194.0749931335448082
 30
0.0
 11
198.9630230797534125
 21
186.0749931335448082
 31
0.0
210
0.0
220
1.0
230
0.0
  0
LINE
  5
19DDE
  8
0
  6
CONTINUOUS
 62
     3
 10
197.9659132207590915
 20
186.0749931335448082
 30
0.0
 11
197.9659132207590915
 21
194.0749931335448082
 31
0.0
210
0.0
220
1.0
230
0.0
  0
LINE
  5
19DDF
  8
0
  6
CONTINUOUS
 62
     3
 10
198.9630230797534125
 20
194.0749931335448082
 30
0.0
 11
197.2198166045124026
 21
194.0749931335448082
 31
0.0
210
0.0
220
1.0
230
0.0
  0
LINE
  5
19DE0
  8
0
  6
CONTINUOUS
 62
     3
 10
197.2198166045124026
 20
186.0749931335448082
 30
0.0
 11
198.9630230797534125
 21
186.0749931335448082
 31
0.0
210
0.0
220
1.0
230
0.0
  0
LINE
  5
19DE1
  8
0
  6
CONTINUOUS
 62
     3
 10
197.2198166045124026
 20
210.0749931335448082
 30
0.0
 11
197.2198166045124026
 21
218.0749931335448082
 31
0.0
210
0.0
220
1.0
230
0.0
  0
LINE
  5
19DE2
  8
0
  6
CONTINUOUS
 62
     3
 10
198.9630230797534125
 20
218.0749931335448082
 30
0.0
 11
198.9630230797534125
 21
210.0749931335448082
 31
0.0
210
0.0
220
1.0
230
0.0
  0
LINE
  5
19DE3
  8
0
  6
CONTINUOUS
 62
     3
 10
197.9659132207590915
 20
210.0749931335448082
 30
0.0
 11
197.9659132207590915
 21
218.0749931335448082
 31
0.0
210
0.0
220
1.0
230
0.0
  0
LINE
  5
19DE4
  8
0
  6
CONTINUOUS
 62
     3
 10
198.9630230797534125
 20
218.0749931335448082
 30
0.0
 11
197.2198166045124026
 21
218.0749931335448082
 31
0.0
210
0.0
220
1.0
230
0.0
  0
LINE
  5
19DE5
  8
0
  6
CONTINUOUS
 62
     3
 10
197.2198166045124026
 20
210.0749931335448082
 30
0.0
 11
198.9630230797534125
 21
210.0749931335448082
 31
0.0
210
0.0
220
1.0
230
0.0
  0
LINE
  5
19DE6
  8
0
  6
CONTINUOUS
 62
     3
 10
190.5883928881389124
 20
114.074993133544794
 30
0.0
 11
190.5883928881389124
 21
122.074993133544794
 31
0.0
210
0.0
220
1.0
230
0.0
  0
LINE
  5
19DE7
  8
0
  6
CONTINUOUS
 62
     3
 10
195.472748892416007
 20
122.074993133544794
 30
0.0
 11
195.472748892416007
 21
114.074993133544794
 31
0.0
210
0.0
220
1.0
230
0.0
  0
LINE
  5
19DE8
  8
0
  6
CONTINUOUS
 62
     3
 10
194.6073474933212992
 20
114.074993133544794
 30
0.0
 11
194.6073474933212992
 21
122.074993133544794
 31
0.0
210
0.0
220
1.0
230
0.0
  0
LINE
  5
19DE9
  8
0
  6
CONTINUOUS
 62
     3
 10
195.472748892416007
 20
122.074993133544794
 30
0.0
 11
190.5883928881389124
 21
122.074993133544794
 31
0.0
210
0.0
220
1.0
230
0.0
  0
LINE
  5
19DEA
  8
0
  6
CONTINUOUS
 62
     3
 10
190.5883928881389124
 20
114.074993133544794
 30
0.0
 11
195.472748892416007
 21
114.074993133544794
 31
0.0
210
0.0
220
1.0
230
0.0
  0
LINE
  5
19DEB
  8
0
  6
CONTINUOUS
 62
     3
 10
190.5883928881389124
 20
138.0749931335448082
 30
0.0
 11
190.5883928881389124
 21
146.0749931335448082
 31
0.0
210
0.0
220
1.0
230
0.0
  0
LINE
  5
19DEC
  8
0
  6
CONTINUOUS
 62
     3
 10
195.472748892416007
 20
146.0749931335448082
 30
0.0
 11
195.472748892416007
 21
138.0749931335448082
 31
0.0
210
0.0
220
1.0
230
0.0
  0
LINE
  5
19DED
  8
0
  6
CONTINUOUS
 62
     3
 10
194.6073474933212992
 20
138.0749931335448082
 30
0.0
 11
194.6073474933212992
 21
146.0749931335448082
 31
0.0
210
0.0
220
1.0
230
0.0
  0
LINE
  5
19DEE
  8
0
  6
CONTINUOUS
 62
     3
 10
195.472748892416007
 20
146.0749931335448082
 30
0.0
 11
190.5883928881389124
 21
146.0749931335448082
 31
0.0
210
0.0
220
1.0
230
0.0
  0
LINE
  5
19DEF
  8
0
  6
CONTINUOUS
 62
     3
 10
190.5883928881389124
 20
138.0749931335448082
 30
0.0
 11
195.472748892416007
 21
138.0749931335448082
 31
0.0
210
0.0
220
1.0
230
0.0
  0
LINE
  5
19DF0
  8
0
  6
CONTINUOUS
 62
     3
 10
190.5883928881389124
 20
162.0749931335448082
 30
0.0
 11
190.5883928881389124
 21
170.0749931335448082
 31
0.0
210
0.0
220
1.0
230
0.0
  0
LINE
  5
19DF1
  8
0
  6
CONTINUOUS
 62
     3
 10
195.472748892416007
 20
170.0749931335448082
 30
0.0
 11
195.472748892416007
 21
162.0749931335448082
 31
0.0
210
0.0
220
1.0
230
0.0
  0
LINE
  5
19DF2
  8
0
  6
CONTINUOUS
 62
     3
 10
194.6073474933212992
 20
162.0749931335448082
 30
0.0
 11
194.6073474933212992
 21
170.0749931335448082
 31
0.0
210
0.0
220
1.0
230
0.0
  0
LINE
  5
19DF3
  8
0
  6
CONTINUOUS
 62
     3
 10
195.472748892416007
 20
170.0749931335448082
 30
0.0
 11
190.5883928881389124
 21
170.0749931335448082
 31
0.0
210
0.0
220
1.0
230
0.0
  0
LINE
  5
19DF4
  8
0
  6
CONTINUOUS
 62
     3
 10
190.5883928881389124
 20
162.0749931335448082
 30
0.0
 11
195.472748892416007
 21
162.0749931335448082
 31
0.0
210
0.0
220
1.0
230
0.0
  0
LINE
  5
19DF5
  8
0
  6
CONTINUOUS
 62
     3
 10
190.5883928881389124
 20
186.0749931335448082
 30
0.0
 11
190.5883928881389124
 21
194.0749931335448082
 31
0.0
210
0.0
220
1.0
230
0.0
  0
LINE
  5
19DF6
  8
0
  6
CONTINUOUS
 62
     3
 10
195.472748892416007
 20
194.0749931335448082
 30
0.0
 11
195.472748892416007
 21
186.0749931335448082
 31
0.0
210
0.0
220
1.0
230
0.0
  0
LINE
  5
19DF7
  8
0
  6
CONTINUOUS
 62
     3
 10
194.6073474933212992
 20
186.0749931335448082
 30
0.0
 11
194.6073474933212992
 21
194.0749931335448082
 31
0.0
210
0.0
220
1.0
230
0.0
  0
LINE
  5
19DF8
  8
0
  6
CONTINUOUS
 62
     3
 10
195.472748892416007
 20
194.0749931335448082
 30
0.0
 11
190.5883928881389124
 21
194.0749931335448082
 31
0.0
210
0.0
220
1.0
230
0.0
  0
LINE
  5
19DF9
  8
0
  6
CONTINUOUS
 62
     3
 10
190.5883928881389124
 20
186.0749931335448082
 30
0.0
 11
195.472748892416007
 21
186.0749931335448082
 31
0.0
210
0.0
220
1.0
230
0.0
  0
LINE
  5
19DFA
  8
0
  6
CONTINUOUS
 62
     3
 10
190.5883928881389124
 20
210.0749931335448082
 30
0.0
 11
190.5883928881389124
 21
218.0749931335448082
 31
0.0
210
0.0
220
1.0
230
0.0
  0
LINE
  5
19DFB
  8
0
  6
CONTINUOUS
 62
     3
 10
195.472748892416007
 20
218.0749931335448082
 30
0.0
 11
195.472748892416007
 21
210.0749931335448082
 31
0.0
210
0.0
220
1.0
230
0.0
  0
LINE
  5
19DFC
  8
0
  6
CONTINUOUS
 62
     3
 10
194.6073474933212992
 20
210.0749931335448082
 30
0.0
 11
194.6073474933212992
 21
218.0749931335448082
 31
0.0
210
0.0
220
1.0
230
0.0
  0
LINE
  5
19DFD
  8
0
  6
CONTINUOUS
 62
     3
 10
195.472748892416007
 20
218.0749931335448082
 30
0.0
 11
190.5883928881389124
 21
218.0749931335448082
 31
0.0
210
0.0
220
1.0
230
0.0
  0
LINE
  5
19DFE
  8
0
  6
CONTINUOUS
 62
     3
 10
190.5883928881389124
 20
210.0749931335448082
 30
0.0
 11
195.472748892416007
 21
210.0749931335448082
 31
0.0
210
0.0
220
1.0
230
0.0
  0
LINE
  5
19DFF
  8
0
  6
CONTINUOUS
 62
     3
 10
180.3821867267353127
 20
114.074993133544794
 30
0.0
 11
180.3821867267353127
 21
122.074993133544794
 31
0.0
210
0.0
220
1.0
230
0.0
  0
LINE
  5
19E00
  8
0
  6
CONTINUOUS
 62
     3
 10
187.440285650705988
 20
122.074993133544794
 30
0.0
 11
187.440285650705988
 21
114.074993133544794
 31
0.0
210
0.0
220
1.0
230
0.0
  0
LINE
  5
19E01
  8
0
  6
CONTINUOUS
 62
     3
 10
186.8779960720532074
 20
114.074993133544794
 30
0.0
 11
186.8779960720532074
 21
122.074993133544794
 31
0.0
210
0.0
220
1.0
230
0.0
  0
LINE
  5
19E02
  8
0
  6
CONTINUOUS
 62
     3
 10
187.440285650705988
 20
122.074993133544794
 30
0.0
 11
180.382186726735199
 21
122.074993133544794
 31
0.0
210
0.0
220
1.0
230
0.0
  0
LINE
  5
19E03
  8
0
  6
CONTINUOUS
 62
     3
 10
180.382186726735199
 20
114.074993133544794
 30
0.0
 11
187.440285650705988
 21
114.074993133544794
 31
0.0
210
0.0
220
1.0
230
0.0
  0
LINE
  5
19E04
  8
0
  6
CONTINUOUS
 62
     3
 10
180.3821867267353127
 20
138.0749931335448082
 30
0.0
 11
180.3821867267353127
 21
146.0749931335448082
 31
0.0
210
0.0
220
1.0
230
0.0
  0
LINE
  5
19E05
  8
0
  6
CONTINUOUS
 62
     3
 10
187.440285650705988
 20
146.0749931335448082
 30
0.0
 11
187.440285650705988
 21
138.0749931335448082
 31
0.0
210
0.0
220
1.0
230
0.0
  0
LINE
  5
19E06
  8
0
  6
CONTINUOUS
 62
     3
 10
186.8779960720532074
 20
138.0749931335448082
 30
0.0
 11
186.8779960720532074
 21
146.0749931335448082
 31
0.0
210
0.0
220
1.0
230
0.0
  0
LINE
  5
19E07
  8
0
  6
CONTINUOUS
 62
     3
 10
187.440285650705988
 20
146.0749931335448082
 30
0.0
 11
180.382186726735199
 21
146.0749931335448082
 31
0.0
210
0.0
220
1.0
230
0.0
  0
LINE
  5
19E08
  8
0
  6
CONTINUOUS
 62
     3
 10
180.382186726735199
 20
138.0749931335448082
 30
0.0
 11
187.440285650705988
 21
138.0749931335448082
 31
0.0
210
0.0
220
1.0
230
0.0
  0
LINE
  5
19E09
  8
0
  6
CONTINUOUS
 62
     3
 10
180.3821867267353127
 20
162.0749931335448082
 30
0.0
 11
180.3821867267353127
 21
170.0749931335448082
 31
0.0
210
0.0
220
1.0
230
0.0
  0
LINE
  5
19E0A
  8
0
  6
CONTINUOUS
 62
     3
 10
187.440285650705988
 20
170.0749931335448082
 30
0.0
 11
187.440285650705988
 21
162.0749931335448082
 31
0.0
210
0.0
220
1.0
230
0.0
  0
LINE
  5
19E0B
  8
0
  6
CONTINUOUS
 62
     3
 10
186.8779960720532074
 20
162.0749931335448082
 30
0.0
 11
186.8779960720532074
 21
170.0749931335448082
 31
0.0
210
0.0
220
1.0
230
0.0
  0
LINE
  5
19E0C
  8
0
  6
CONTINUOUS
 62
     3
 10
187.440285650705988
 20
170.0749931335448082
 30
0.0
 11
180.382186726735199
 21
170.0749931335448082
 31
0.0
210
0.0
220
1.0
230
0.0
  0
LINE
  5
19E0D
  8
0
  6
CONTINUOUS
 62
     3
 10
180.382186726735199
 20
162.0749931335448082
 30
0.0
 11
187.440285650705988
 21
162.0749931335448082
 31
0.0
210
0.0
220
1.0
230
0.0
  0
LINE
  5
19E0E
  8
0
  6
CONTINUOUS
 62
     3
 10
180.3821867267353127
 20
186.0749931335448082
 30
0.0
 11
180.3821867267353127
 21
194.0749931335448082
 31
0.0
210
0.0
220
1.0
230
0.0
  0
LINE
  5
19E0F
  8
0
  6
CONTINUOUS
 62
     3
 10
187.440285650705988
 20
194.0749931335448082
 30
0.0
 11
187.440285650705988
 21
186.0749931335448082
 31
0.0
210
0.0
220
1.0
230
0.0
  0
LINE
  5
19E10
  8
0
  6
CONTINUOUS
 62
     3
 10
186.8779960720532074
 20
186.0749931335448082
 30
0.0
 11
186.8779960720532074
 21
194.0749931335448082
 31
0.0
210
0.0
220
1.0
230
0.0
  0
LINE
  5
19E11
  8
0
  6
CONTINUOUS
 62
     3
 10
187.440285650705988
 20
194.0749931335448082
 30
0.0
 11
180.382186726735199
 21
194.0749931335448082
 31
0.0
210
0.0
220
1.0
230
0.0
  0
LINE
  5
19E12
  8
0
  6
CONTINUOUS
 62
     3
 10
180.382186726735199
 20
186.0749931335448082
 30
0.0
 11
187.440285650705988
 21
186.0749931335448082
 31
0.0
210
0.0
220
1.0
230
0.0
  0
LINE
  5
19E13
  8
0
  6
CONTINUOUS
 62
     3
 10
180.3821867267353127
 20
210.0749931335448082
 30
0.0
 11
180.3821867267353127
 21
218.0749931335448082
 31
0.0
210
0.0
220
1.0
230
0.0
  0
LINE
  5
19E14
  8
0
  6
CONTINUOUS
 62
     3
 10
187.440285650705988
 20
218.0749931335448082
 30
0.0
 11
187.440285650705988
 21
210.0749931335448082
 31
0.0
210
0.0
220
1.0
230
0.0
  0
LINE
  5
19E15
  8
0
  6
CONTINUOUS
 62
     3
 10
186.8779960720532074
 20
210.0749931335448082
 30
0.0
 11
186.8779960720532074
 21
218.0749931335448082
 31
0.0
210
0.0
220
1.0
230
0.0
  0
LINE
  5
19E16
  8
0
  6
CONTINUOUS
 62
     3
 10
187.440285650705988
 20
218.0749931335448082
 30
0.0
 11
180.382186726735199
 21
218.0749931335448082
 31
0.0
210
0.0
220
1.0
230
0.0
  0
LINE
  5
19E17
  8
0
  6
CONTINUOUS
 62
     3
 10
180.382186726735199
 20
210.0749931335448082
 30
0.0
 11
187.440285650705988
 21
210.0749931335448082
 31
0.0
210
0.0
220
1.0
230
0.0
  0
LINE
  5
19E18
  8
0
  6
CONTINUOUS
 62
     3
 10
168.770471832601288
 20
122.074993133544794
 30
0.0
 11
168.770471832601288
 21
114.074993133544794
 31
0.0
210
0.0
220
1.0
230
0.0
  0
LINE
  5
19E19
  8
0
  6
CONTINUOUS
 62
     3
 10
168.6226624214716026
 20
114.074993133544794
 30
0.0
 11
168.6226624214716026
 21
122.074993133544794
 31
0.0
210
0.0
220
1.0
230
0.0
  0
LINE
  5
19E1A
  8
0
  6
CONTINUOUS
 62
     3
 10
176.4565612113410111
 20
122.074993133544794
 30
0.0
 11
176.4565612113410111
 21
114.074993133544794
 31
0.0
210
0.0
220
1.0
230
0.0
  0
LINE
  5
19E1B
  8
0
  6
CONTINUOUS
 62
     3
 10
176.3087518002114109
 20
114.074993133544794
 30
0.0
 11
176.3087518002114109
 21
122.074993133544794
 31
0.0
210
0.0
220
1.0
230
0.0
  0
LINE
  5
19E1C
  8
0
  6
CONTINUOUS
 62
     3
 10
176.4565612113410111
 20
122.074993133544794
 30
0.0
 11
168.6226624214716026
 21
122.074993133544794
 31
0.0
210
0.0
220
1.0
230
0.0
  0
LINE
  5
19E1D
  8
0
  6
CONTINUOUS
 62
     3
 10
168.6226624214716026
 20
114.074993133544794
 30
0.0
 11
176.4565612113410111
 21
114.074993133544794
 31
0.0
210
0.0
220
1.0
230
0.0
  0
LINE
  5
19E1E
  8
0
  6
CONTINUOUS
 62
     3
 10
168.770471832601288
 20
146.0749931335448082
 30
0.0
 11
168.770471832601288
 21
138.0749931335448082
 31
0.0
210
0.0
220
1.0
230
0.0
  0
LINE
  5
19E1F
  8
0
  6
CONTINUOUS
 62
     3
 10
168.6226624214716026
 20
138.0749931335448082
 30
0.0
 11
168.6226624214716026
 21
146.0749931335448082
 31
0.0
210
0.0
220
1.0
230
0.0
  0
LINE
  5
19E20
  8
0
  6
CONTINUOUS
 62
     3
 10
176.4565612113410111
 20
146.0749931335448082
 30
0.0
 11
176.4565612113410111
 21
138.0749931335448082
 31
0.0
210
0.0
220
1.0
230
0.0
  0
LINE
  5
19E21
  8
0
  6
CONTINUOUS
 62
     3
 10
176.3087518002114109
 20
138.0749931335448082
 30
0.0
 11
176.3087518002114109
 21
146.0749931335448082
 31
0.0
210
0.0
220
1.0
230
0.0
  0
LINE
  5
19E22
  8
0
  6
CONTINUOUS
 62
     3
 10
176.4565612113410111
 20
146.0749931335448082
 30
0.0
 11
168.6226624214716026
 21
146.0749931335448082
 31
0.0
210
0.0
220
1.0
230
0.0
  0
LINE
  5
19E23
  8
0
  6
CONTINUOUS
 62
     3
 10
168.6226624214716026
 20
138.0749931335448082
 30
0.0
 11
176.4565612113410111
 21
138.0749931335448082
 31
0.0
210
0.0
220
1.0
230
0.0
  0
LINE
  5
19E24
  8
0
  6
CONTINUOUS
 62
     3
 10
147.1133104120532948
 20
110.074993133544794
 30
0.0
 11
147.1133104120532948
 21
102.074993133544794
 31
0.0
210
0.0
220
1.0
230
0.0
  0
LINE
  5
19E25
  8
0
  6
CONTINUOUS
 62
     3
 10
146.1162005530590875
 20
102.074993133544794
 30
0.0
 11
146.1162005530590875
 21
110.074993133544794
 31
0.0
210
0.0
220
1.0
230
0.0
  0
LINE
  5
19E26
  8
0
  6
CONTINUOUS
 62
     3
 10
147.8594070283000974
 20
110.074993133544794
 30
0.0
 11
147.8594070283000974
 21
102.074993133544794
 31
0.0
210
0.0
220
1.0
230
0.0
  0
LINE
  5
19E27
  8
0
  6
CONTINUOUS
 62
     3
 10
147.8594070283000974
 20
110.074993133544794
 30
0.0
 11
146.1162005530590875
 21
110.074993133544794
 31
0.0
210
0.0
220
1.0
230
0.0
  0
LINE
  5
19E28
  8
0
  6
CONTINUOUS
 62
     3
 10
146.1162005530590875
 20
102.074993133544794
 30
0.0
 11
147.8594070283000974
 21
102.074993133544794
 31
0.0
210
0.0
220
1.0
230
0.0
  0
LINE
  5
19E29
  8
0
  6
CONTINUOUS
 62
     3
 10
147.1133104120532948
 20
134.0749931335448082
 30
0.0
 11
147.1133104120532948
 21
126.074993133544794
 31
0.0
210
0.0
220
1.0
230
0.0
  0
LINE
  5
19E2A
  8
0
  6
CONTINUOUS
 62
     3
 10
146.1162005530590875
 20
126.074993133544794
 30
0.0
 11
146.1162005530590875
 21
134.0749931335448082
 31
0.0
210
0.0
220
1.0
230
0.0
  0
LINE
  5
19E2B
  8
0
  6
CONTINUOUS
 62
     3
 10
147.8594070283000974
 20
134.0749931335448082
 30
0.0
 11
147.8594070283000974
 21
126.074993133544794
 31
0.0
210
0.0
220
1.0
230
0.0
  0
LINE
  5
19E2C
  8
0
  6
CONTINUOUS
 62
     3
 10
147.8594070283000974
 20
134.0749931335448082
 30
0.0
 11
146.1162005530590875
 21
134.0749931335448082
 31
0.0
210
0.0
220
1.0
230
0.0
  0
LINE
  5
19E2D
  8
0
  6
CONTINUOUS
 62
     3
 10
146.1162005530590875
 20
126.074993133544794
 30
0.0
 11
147.8594070283000974
 21
126.074993133544794
 31
0.0
210
0.0
220
1.0
230
0.0
  0
LINE
  5
19E2E
  8
0
  6
CONTINUOUS
 62
     3
 10
147.1133104120532948
 20
158.0749931335448082
 30
0.0
 11
147.1133104120532948
 21
150.0749931335448082
 31
0.0
210
0.0
220
1.0
230
0.0
  0
LINE
  5
19E2F
  8
0
  6
CONTINUOUS
 62
     3
 10
146.1162005530590875
 20
150.0749931335448082
 30
0.0
 11
146.1162005530590875
 21
158.0749931335448082
 31
0.0
210
0.0
220
1.0
230
0.0
  0
LINE
  5
19E30
  8
0
  6
CONTINUOUS
 62
     3
 10
147.8594070283000974
 20
158.0749931335448082
 30
0.0
 11
147.8594070283000974
 21
150.0749931335448082
 31
0.0
210
0.0
220
1.0
230
0.0
  0
LINE
  5
19E31
  8
0
  6
CONTINUOUS
 62
     3
 10
147.8594070283000974
 20
158.0749931335448082
 30
0.0
 11
146.1162005530590875
 21
158.0749931335448082
 31
0.0
210
0.0
220
1.0
230
0.0
  0
LINE
  5
19E32
  8
0
  6
CONTINUOUS
 62
     3
 10
146.1162005530590875
 20
150.0749931335448082
 30
0.0
 11
147.8594070283000974
 21
150.0749931335448082
 31
0.0
210
0.0
220
1.0
230
0.0
  0
LINE
  5
19E33
  8
0
  6
CONTINUOUS
 62
     3
 10
147.1133104120532948
 20
182.0749931335448082
 30
0.0
 11
147.1133104120532948
 21
174.0749931335448082
 31
0.0
210
0.0
220
1.0
230
0.0
  0
LINE
  5
19E34
  8
0
  6
CONTINUOUS
 62
     3
 10
146.1162005530590875
 20
174.0749931335448082
 30
0.0
 11
146.1162005530590875
 21
182.0749931335448082
 31
0.0
210
0.0
220
1.0
230
0.0
  0
LINE
  5
19E35
  8
0
  6
CONTINUOUS
 62
     3
 10
147.8594070283000974
 20
182.0749931335448082
 30
0.0
 11
147.8594070283000974
 21
174.0749931335448082
 31
0.0
210
0.0
220
1.0
230
0.0
  0
LINE
  5
19E36
  8
0
  6
CONTINUOUS
 62
     3
 10
147.8594070283000974
 20
182.0749931335448082
 30
0.0
 11
146.1162005530590875
 21
182.0749931335448082
 31
0.0
210
0.0
220
1.0
230
0.0
  0
LINE
  5
19E37
  8
0
  6
CONTINUOUS
 62
     3
 10
146.1162005530590875
 20
174.0749931335448082
 30
0.0
 11
147.8594070283000974
 21
174.0749931335448082
 31
0.0
210
0.0
220
1.0
230
0.0
  0
LINE
  5
19E38
  8
0
  6
CONTINUOUS
 62
     3
 10
147.1133104120532948
 20
206.0749931335448082
 30
0.0
 11
147.1133104120532948
 21
198.0749931335448082
 31
0.0
210
0.0
220
1.0
230
0.0
  0
LINE
  5
19E39
  8
0
  6
CONTINUOUS
 62
     3
 10
146.1162005530590875
 20
198.0749931335448082
 30
0.0
 11
146.1162005530590875
 21
206.0749931335448082
 31
0.0
210
0.0
220
1.0
230
0.0
  0
LINE
  5
19E3A
  8
0
  6
CONTINUOUS
 62
     3
 10
147.8594070283000974
 20
206.0749931335448082
 30
0.0
 11
147.8594070283000974
 21
198.0749931335448082
 31
0.0
210
0.0
220
1.0
230
0.0
  0
LINE
  5
19E3B
  8
0
  6
CONTINUOUS
 62
     3
 10
147.8594070283000974
 20
206.0749931335448082
 30
0.0
 11
146.1162005530590875
 21
206.0749931335448082
 31
0.0
210
0.0
220
1.0
230
0.0
  0
LINE
  5
19E3C
  8
0
  6
CONTINUOUS
 62
     3
 10
146.1162005530590875
 20
198.0749931335448082
 30
0.0
 11
147.8594070283000974
 21
198.0749931335448082
 31
0.0
210
0.0
220
1.0
230
0.0
  0
LINE
  5
19E3D
  8
0
  6
CONTINUOUS
 62
     3
 10
168.770471832601288
 20
170.0749931335448082
 30
0.0
 11
168.770471832601288
 21
162.0749931335448082
 31
0.0
210
0.0
220
1.0
230
0.0
  0
LINE
  5
19E3E
  8
0
  6
CONTINUOUS
 62
     3
 10
168.6226624214716026
 20
162.0749931335448082
 30
0.0
 11
168.6226624214716026
 21
170.0749931335448082
 31
0.0
210
0.0
220
1.0
230
0.0
  0
LINE
  5
19E3F
  8
0
  6
CONTINUOUS
 62
     3
 10
176.4565612113410111
 20
170.0749931335448082
 30
0.0
 11
176.4565612113410111
 21
162.0749931335448082
 31
0.0
210
0.0
220
1.0
230
0.0
  0
LINE
  5
19E40
  8
0
  6
CONTINUOUS
 62
     3
 10
176.3087518002114109
 20
162.0749931335448082
 30
0.0
 11
176.3087518002114109
 21
170.0749931335448082
 31
0.0
210
0.0
220
1.0
230
0.0
  0
LINE
  5
19E41
  8
0
  6
CONTINUOUS
 62
     3
 10
176.4565612113410111
 20
170.0749931335448082
 30
0.0
 11
168.6226624214716026
 21
170.0749931335448082
 31
0.0
210
0.0
220
1.0
230
0.0
  0
LINE
  5
19E42
  8
0
  6
CONTINUOUS
 62
     3
 10
168.6226624214716026
 20
162.0749931335448082
 30
0.0
 11
176.4565612113410111
 21
162.0749931335448082
 31
0.0
210
0.0
220
1.0
230
0.0
  0
LINE
  5
19E43
  8
0
  6
CONTINUOUS
 62
     3
 10
168.770471832601288
 20
194.0749931335448082
 30
0.0
 11
168.770471832601288
 21
186.0749931335448082
 31
0.0
210
0.0
220
1.0
230
0.0
  0
LINE
  5
19E44
  8
0
  6
CONTINUOUS
 62
     3
 10
168.6226624214716026
 20
186.0749931335448082
 30
0.0
 11
168.6226624214716026
 21
194.0749931335448082
 31
0.0
210
0.0
220
1.0
230
0.0
  0
LINE
  5
19E45
  8
0
  6
CONTINUOUS
 62
     3
 10
176.4565612113410111
 20
194.0749931335448082
 30
0.0
 11
176.4565612113410111
 21
186.0749931335448082
 31
0.0
210
0.0
220
1.0
230
0.0
  0
LINE
  5
19E46
  8
0
  6
CONTINUOUS
 62
     3
 10
176.3087518002114109
 20
186.0749931335448082
 30
0.0
 11
176.3087518002114109
 21
194.0749931335448082
 31
0.0
210
0.0
220
1.0
230
0.0
  0
LINE
  5
19E47
  8
0
  6
CONTINUOUS
 62
     3
 10
176.4565612113410111
 20
194.0749931335448082
 30
0.0
 11
168.6226624214716026
 21
194.0749931335448082
 31
0.0
210
0.0
220
1.0
230
0.0
  0
LINE
  5
19E48
  8
0
  6
CONTINUOUS
 62
     3
 10
168.6226624214716026
 20
186.0749931335448082
 30
0.0
 11
176.4565612113410111
 21
186.0749931335448082
 31
0.0
210
0.0
220
1.0
230
0.0
  0
LINE
  5
19E49
  8
0
  6
CONTINUOUS
 62
     3
 10
168.770471832601288
 20
218.0749931335448082
 30
0.0
 11
168.770471832601288
 21
210.0749931335448082
 31
0.0
210
0.0
220
1.0
230
0.0
  0
LINE
  5
19E4A
  8
0
  6
CONTINUOUS
 62
     3
 10
168.6226624214716026
 20
210.0749931335448082
 30
0.0
 11
168.6226624214716026
 21
218.0749931335448082
 31
0.0
210
0.0
220
1.0
230
0.0
  0
LINE
  5
19E4B
  8
0
  6
CONTINUOUS
 62
     3
 10
176.4565612113410111
 20
218.0749931335448082
 30
0.0
 11
176.4565612113410111
 21
210.0749931335448082
 31
0.0
210
0.0
220
1.0
230
0.0
  0
LINE
  5
19E4C
  8
0
  6
CONTINUOUS
 62
     3
 10
176.3087518002114109
 20
210.0749931335448082
 30
0.0
 11
176.3087518002114109
 21
218.0749931335448082
 31
0.0
210
0.0
220
1.0
230
0.0
  0
LINE
  5
19E4D
  8
0
  6
CONTINUOUS
 62
     3
 10
176.4565612113410111
 20
218.0749931335448082
 30
0.0
 11
168.6226624214716026
 21
218.0749931335448082
 31
0.0
210
0.0
220
1.0
230
0.0
  0
LINE
  5
19E4E
  8
0
  6
CONTINUOUS
 62
     3
 10
168.6226624214716026
 20
210.0749931335448082
 30
0.0
 11
176.4565612113410111
 21
210.0749931335448082
 31
0.0
210
0.0
220
1.0
230
0.0
  0
LINE
  5
19E4F
  8
0
  6
CONTINUOUS
 62
     3
 10
168.770471832601288
 20
206.0749931335448082
 30
0.0
 11
168.770471832601288
 21
198.0749931335448082
 31
0.0
210
0.0
220
1.0
230
0.0
  0
LINE
  5
19E50
  8
0
  6
CONTINUOUS
 62
     3
 10
168.6226624214716026
 20
198.0749931335448082
 30
0.0
 11
168.6226624214716026
 21
206.0749931335448082
 31
0.0
210
0.0
220
1.0
230
0.0
  0
LINE
  5
19E51
  8
0
  6
CONTINUOUS
 62
     3
 10
176.4565612113410111
 20
206.0749931335448082
 30
0.0
 11
176.4565612113410111
 21
198.0749931335448082
 31
0.0
210
0.0
220
1.0
230
0.0
  0
LINE
  5
19E52
  8
0
  6
CONTINUOUS
 62
     3
 10
176.3087518002114109
 20
198.0749931335448082
 30
0.0
 11
176.3087518002114109
 21
206.0749931335448082
 31
0.0
210
0.0
220
1.0
230
0.0
  0
LINE
  5
19E53
  8
0
  6
CONTINUOUS
 62
     3
 10
176.4565612113410111
 20
206.0749931335448082
 30
0.0
 11
168.6226624214716026
 21
206.0749931335448082
 31
0.0
210
0.0
220
1.0
230
0.0
  0
LINE
  5
19E54
  8
0
  6
CONTINUOUS
 62
     3
 10
168.6226624214716026
 20
198.0749931335448082
 30
0.0
 11
176.4565612113410111
 21
198.0749931335448082
 31
0.0
210
0.0
220
1.0
230
0.0
  0
LINE
  5
19E55
  8
0
  6
CONTINUOUS
 62
     3
 10
168.770471832601288
 20
182.0749931335448082
 30
0.0
 11
168.770471832601288
 21
174.0749931335448082
 31
0.0
210
0.0
220
1.0
230
0.0
  0
LINE
  5
19E56
  8
0
  6
CONTINUOUS
 62
     3
 10
168.6226624214716026
 20
174.0749931335448082
 30
0.0
 11
168.6226624214716026
 21
182.0749931335448082
 31
0.0
210
0.0
220
1.0
230
0.0
  0
LINE
  5
19E57
  8
0
  6
CONTINUOUS
 62
     3
 10
176.4565612113410111
 20
182.0749931335448082
 30
0.0
 11
176.4565612113410111
 21
174.0749931335448082
 31
0.0
210
0.0
220
1.0
230
0.0
  0
LINE
  5
19E58
  8
0
  6
CONTINUOUS
 62
     3
 10
176.3087518002114109
 20
174.0749931335448082
 30
0.0
 11
176.3087518002114109
 21
182.0749931335448082
 31
0.0
210
0.0
220
1.0
230
0.0
  0
LINE
  5
19E59
  8
0
  6
CONTINUOUS
 62
     3
 10
176.4565612113410111
 20
182.0749931335448082
 30
0.0
 11
168.6226624214716026
 21
182.0749931335448082
 31
0.0
210
0.0
220
1.0
230
0.0
  0
LINE
  5
19E5A
  8
0
  6
CONTINUOUS
 62
     3
 10
168.6226624214716026
 20
174.0749931335448082
 30
0.0
 11
176.4565612113410111
 21
174.0749931335448082
 31
0.0
210
0.0
220
1.0
230
0.0
  0
LINE
  5
19E5B
  8
0
  6
CONTINUOUS
 62
     3
 10
147.1133104120532948
 20
218.0749931335448082
 30
0.0
 11
147.1133104120532948
 21
210.0749931335448082
 31
0.0
210
0.0
220
1.0
230
0.0
  0
LINE
  5
19E5C
  8
0
  6
CONTINUOUS
 62
     3
 10
146.1162005530590875
 20
210.0749931335448082
 30
0.0
 11
146.1162005530590875
 21
218.0749931335448082
 31
0.0
210
0.0
220
1.0
230
0.0
  0
LINE
  5
19E5D
  8
0
  6
CONTINUOUS
 62
     3
 10
147.8594070283000974
 20
218.0749931335448082
 30
0.0
 11
147.8594070283000974
 21
210.0749931335448082
 31
0.0
210
0.0
220
1.0
230
0.0
  0
LINE
  5
19E5E
  8
0
  6
CONTINUOUS
 62
     3
 10
147.8594070283000974
 20
218.0749931335448082
 30
0.0
 11
146.1162005530590875
 21
218.0749931335448082
 31
0.0
210
0.0
220
1.0
230
0.0
  0
LINE
  5
19E5F
  8
0
  6
CONTINUOUS
 62
     3
 10
146.1162005530590875
 20
210.0749931335448082
 30
0.0
 11
147.8594070283000974
 21
210.0749931335448082
 31
0.0
210
0.0
220
1.0
230
0.0
  0
LINE
  5
19E60
  8
0
  6
CONTINUOUS
 62
     3
 10
147.1133104120532948
 20
194.0749931335448082
 30
0.0
 11
147.1133104120532948
 21
186.0749931335448082
 31
0.0
210
0.0
220
1.0
230
0.0
  0
LINE
  5
19E61
  8
0
  6
CONTINUOUS
 62
     3
 10
146.1162005530590875
 20
186.0749931335448082
 30
0.0
 11
146.1162005530590875
 21
194.0749931335448082
 31
0.0
210
0.0
220
1.0
230
0.0
  0
LINE
  5
19E62
  8
0
  6
CONTINUOUS
 62
     3
 10
147.8594070283000974
 20
194.0749931335448082
 30
0.0
 11
147.8594070283000974
 21
186.0749931335448082
 31
0.0
210
0.0
220
1.0
230
0.0
  0
LINE
  5
19E63
  8
0
  6
CONTINUOUS
 62
     3
 10
147.8594070283000974
 20
194.0749931335448082
 30
0.0
 11
146.1162005530590875
 21
194.0749931335448082
 31
0.0
210
0.0
220
1.0
230
0.0
  0
LINE
  5
19E64
  8
0
  6
CONTINUOUS
 62
     3
 10
146.1162005530590875
 20
186.0749931335448082
 30
0.0
 11
147.8594070283000974
 21
186.0749931335448082
 31
0.0
210
0.0
220
1.0
230
0.0
  0
LINE
  5
19E65
  8
0
  6
CONTINUOUS
 62
     3
 10
147.1133104120532948
 20
170.0749931335448082
 30
0.0
 11
147.1133104120532948
 21
162.0749931335448082
 31
0.0
210
0.0
220
1.0
230
0.0
  0
LINE
  5
19E66
  8
0
  6
CONTINUOUS
 62
     3
 10
146.1162005530590875
 20
162.0749931335448082
 30
0.0
 11
146.1162005530590875
 21
170.0749931335448082
 31
0.0
210
0.0
220
1.0
230
0.0
  0
LINE
  5
19E67
  8
0
  6
CONTINUOUS
 62
     3
 10
147.8594070283000974
 20
170.0749931335448082
 30
0.0
 11
147.8594070283000974
 21
162.0749931335448082
 31
0.0
210
0.0
220
1.0
230
0.0
  0
LINE
  5
19E68
  8
0
  6
CONTINUOUS
 62
     3
 10
147.8594070283000974
 20
170.0749931335448082
 30
0.0
 11
146.1162005530590875
 21
170.0749931335448082
 31
0.0
210
0.0
220
1.0
230
0.0
  0
LINE
  5
19E69
  8
0
  6
CONTINUOUS
 62
     3
 10
146.1162005530590875
 20
162.0749931335448082
 30
0.0
 11
147.8594070283000974
 21
162.0749931335448082
 31
0.0
210
0.0
220
1.0
230
0.0
  0
LINE
  5
19E6A
  8
0
  6
CONTINUOUS
 62
     3
 10
147.1133104120532948
 20
146.0749931335448082
 30
0.0
 11
147.1133104120532948
 21
138.0749931335448082
 31
0.0
210
0.0
220
1.0
230
0.0
  0
LINE
  5
19E6B
  8
0
  6
CONTINUOUS
 62
     3
 10
146.1162005530590875
 20
138.0749931335448082
 30
0.0
 11
146.1162005530590875
 21
146.0749931335448082
 31
0.0
210
0.0
220
1.0
230
0.0
  0
LINE
  5
19E6C
  8
0
  6
CONTINUOUS
 62
     3
 10
147.8594070283000974
 20
146.0749931335448082
 30
0.0
 11
147.8594070283000974
 21
138.0749931335448082
 31
0.0
210
0.0
220
1.0
230
0.0
  0
LINE
  5
19E6D
  8
0
  6
CONTINUOUS
 62
     3
 10
147.8594070283000974
 20
146.0749931335448082
 30
0.0
 11
146.1162005530590875
 21
146.0749931335448082
 31
0.0
210
0.0
220
1.0
230
0.0
  0
LINE
  5
19E6E
  8
0
  6
CONTINUOUS
 62
     3
 10
146.1162005530590875
 20
138.0749931335448082
 30
0.0
 11
147.8594070283000974
 21
138.0749931335448082
 31
0.0
210
0.0
220
1.0
230
0.0
  0
LINE
  5
19E6F
  8
0
  6
CONTINUOUS
 62
     3
 10
147.1133104120532948
 20
122.074993133544794
 30
0.0
 11
147.1133104120532948
 21
114.074993133544794
 31
0.0
210
0.0
220
1.0
230
0.0
  0
LINE
  5
19E70
  8
0
  6
CONTINUOUS
 62
     3
 10
146.1162005530590875
 20
114.074993133544794
 30
0.0
 11
146.1162005530590875
 21
122.074993133544794
 31
0.0
210
0.0
220
1.0
230
0.0
  0
LINE
  5
19E71
  8
0
  6
CONTINUOUS
 62
     3
 10
147.8594070283000974
 20
122.074993133544794
 30
0.0
 11
147.8594070283000974
 21
114.074993133544794
 31
0.0
210
0.0
220
1.0
230
0.0
  0
LINE
  5
19E72
  8
0
  6
CONTINUOUS
 62
     3
 10
147.8594070283000974
 20
122.074993133544794
 30
0.0
 11
146.1162005530590875
 21
122.074993133544794
 31
0.0
210
0.0
220
1.0
230
0.0
  0
LINE
  5
19E73
  8
0
  6
CONTINUOUS
 62
     3
 10
146.1162005530590875
 20
114.074993133544794
 30
0.0
 11
147.8594070283000974
 21
114.074993133544794
 31
0.0
210
0.0
220
1.0
230
0.0
  0
LINE
  5
19E74
  8
0
  6
CONTINUOUS
 62
     3
 10
168.770471832601288
 20
158.0749931335448082
 30
0.0
 11
168.770471832601288
 21
150.0749931335448082
 31
0.0
210
0.0
220
1.0
230
0.0
  0
LINE
  5
19E75
  8
0
  6
CONTINUOUS
 62
     3
 10
168.6226624214716026
 20
150.0749931335448082
 30
0.0
 11
168.6226624214716026
 21
158.0749931335448082
 31
0.0
210
0.0
220
1.0
230
0.0
  0
LINE
  5
19E76
  8
0
  6
CONTINUOUS
 62
     3
 10
176.4565612113410111
 20
158.0749931335448082
 30
0.0
 11
176.4565612113410111
 21
150.0749931335448082
 31
0.0
210
0.0
220
1.0
230
0.0
  0
LINE
  5
19E77
  8
0
  6
CONTINUOUS
 62
     3
 10
176.3087518002114109
 20
150.0749931335448082
 30
0.0
 11
176.3087518002114109
 21
158.0749931335448082
 31
0.0
210
0.0
220
1.0
230
0.0
  0
LINE
  5
19E78
  8
0
  6
CONTINUOUS
 62
     3
 10
176.4565612113410111
 20
158.0749931335448082
 30
0.0
 11
168.6226624214716026
 21
158.0749931335448082
 31
0.0
210
0.0
220
1.0
230
0.0
  0
LINE
  5
19E79
  8
0
  6
CONTINUOUS
 62
     3
 10
168.6226624214716026
 20
150.0749931335448082
 30
0.0
 11
176.4565612113410111
 21
150.0749931335448082
 31
0.0
210
0.0
220
1.0
230
0.0
  0
LINE
  5
19E7A
  8
0
  6
CONTINUOUS
 62
     3
 10
168.770471832601288
 20
134.0749931335448082
 30
0.0
 11
168.770471832601288
 21
126.074993133544794
 31
0.0
210
0.0
220
1.0
230
0.0
  0
LINE
  5
19E7B
  8
0
  6
CONTINUOUS
 62
     3
 10
168.6226624214716026
 20
126.074993133544794
 30
0.0
 11
168.6226624214716026
 21
134.0749931335448082
 31
0.0
210
0.0
220
1.0
230
0.0
  0
LINE
  5
19E7C
  8
0
  6
CONTINUOUS
 62
     3
 10
176.4565612113410111
 20
134.0749931335448082
 30
0.0
 11
176.4565612113410111
 21
126.074993133544794
 31
0.0
210
0.0
220
1.0
230
0.0
  0
LINE
  5
19E7D
  8
0
  6
CONTINUOUS
 62
     3
 10
176.3087518002114109
 20
126.074993133544794
 30
0.0
 11
176.3087518002114109
 21
134.0749931335448082
 31
0.0
210
0.0
220
1.0
230
0.0
  0
LINE
  5
19E7E
  8
0
  6
CONTINUOUS
 62
     3
 10
176.4565612113410111
 20
134.0749931335448082
 30
0.0
 11
168.6226624214716026
 21
134.0749931335448082
 31
0.0
210
0.0
220
1.0
230
0.0
  0
LINE
  5
19E7F
  8
0
  6
CONTINUOUS
 62
     3
 10
168.6226624214716026
 20
126.074993133544794
 30
0.0
 11
176.4565612113410111
 21
126.074993133544794
 31
0.0
210
0.0
220
1.0
230
0.0
  0
LINE
  5
19E80
  8
0
  6
CONTINUOUS
 62
     3
 10
168.770471832601288
 20
110.074993133544794
 30
0.0
 11
168.770471832601288
 21
102.074993133544794
 31
0.0
210
0.0
220
1.0
230
0.0
  0
LINE
  5
19E81
  8
0
  6
CONTINUOUS
 62
     3
 10
168.6226624214716026
 20
102.074993133544794
 30
0.0
 11
168.6226624214716026
 21
110.074993133544794
 31
0.0
210
0.0
220
1.0
230
0.0
  0
LINE
  5
19E82
  8
0
  6
CONTINUOUS
 62
     3
 10
176.4565612113410111
 20
110.074993133544794
 30
0.0
 11
176.4565612113410111
 21
102.074993133544794
 31
0.0
210
0.0
220
1.0
230
0.0
  0
LINE
  5
19E83
  8
0
  6
CONTINUOUS
 62
     3
 10
176.3087518002114109
 20
102.074993133544794
 30
0.0
 11
176.3087518002114109
 21
110.074993133544794
 31
0.0
210
0.0
220
1.0
230
0.0
  0
LINE
  5
19E84
  8
0
  6
CONTINUOUS
 62
     3
 10
176.4565612113410111
 20
110.074993133544794
 30
0.0
 11
168.6226624214716026
 21
110.074993133544794
 31
0.0
210
0.0
220
1.0
230
0.0
  0
LINE
  5
19E85
  8
0
  6
CONTINUOUS
 62
     3
 10
168.6226624214716026
 20
102.074993133544794
 30
0.0
 11
176.4565612113410111
 21
102.074993133544794
 31
0.0
210
0.0
220
1.0
230
0.0
  0
LINE
  5
19E86
  8
0
  6
CONTINUOUS
 62
     3
 10
180.3821867267353127
 20
198.0749931335448082
 30
0.0
 11
180.3821867267353127
 21
206.0749931335448082
 31
0.0
210
0.0
220
1.0
230
0.0
  0
LINE
  5
19E87
  8
0
  6
CONTINUOUS
 62
     3
 10
187.440285650705988
 20
206.0749931335448082
 30
0.0
 11
187.440285650705988
 21
198.0749931335448082
 31
0.0
210
0.0
220
1.0
230
0.0
  0
LINE
  5
19E88
  8
0
  6
CONTINUOUS
 62
     3
 10
186.8779960720532074
 20
198.0749931335448082
 30
0.0
 11
186.8779960720532074
 21
206.0749931335448082
 31
0.0
210
0.0
220
1.0
230
0.0
  0
LINE
  5
19E89
  8
0
  6
CONTINUOUS
 62
     3
 10
187.440285650705988
 20
206.0749931335448082
 30
0.0
 11
180.382186726735199
 21
206.0749931335448082
 31
0.0
210
0.0
220
1.0
230
0.0
  0
LINE
  5
19E8A
  8
0
  6
CONTINUOUS
 62
     3
 10
180.382186726735199
 20
198.0749931335448082
 30
0.0
 11
187.440285650705988
 21
198.0749931335448082
 31
0.0
210
0.0
220
1.0
230
0.0
  0
LINE
  5
19E8B
  8
0
  6
CONTINUOUS
 62
     3
 10
180.3821867267353127
 20
174.0749931335448082
 30
0.0
 11
180.3821867267353127
 21
182.0749931335448082
 31
0.0
210
0.0
220
1.0
230
0.0
  0
LINE
  5
19E8C
  8
0
  6
CONTINUOUS
 62
     3
 10
187.440285650705988
 20
182.0749931335448082
 30
0.0
 11
187.440285650705988
 21
174.0749931335448082
 31
0.0
210
0.0
220
1.0
230
0.0
  0
LINE
  5
19E8D
  8
0
  6
CONTINUOUS
 62
     3
 10
186.8779960720532074
 20
174.0749931335448082
 30
0.0
 11
186.8779960720532074
 21
182.0749931335448082
 31
0.0
210
0.0
220
1.0
230
0.0
  0
LINE
  5
19E8E
  8
0
  6
CONTINUOUS
 62
     3
 10
187.440285650705988
 20
182.0749931335448082
 30
0.0
 11
180.382186726735199
 21
182.0749931335448082
 31
0.0
210
0.0
220
1.0
230
0.0
  0
LINE
  5
19E8F
  8
0
  6
CONTINUOUS
 62
     3
 10
180.382186726735199
 20
174.0749931335448082
 30
0.0
 11
187.440285650705988
 21
174.0749931335448082
 31
0.0
210
0.0
220
1.0
230
0.0
  0
LINE
  5
19E90
  8
0
  6
CONTINUOUS
 62
     3
 10
180.3821867267353127
 20
150.0749931335448082
 30
0.0
 11
180.3821867267353127
 21
158.0749931335448082
 31
0.0
210
0.0
220
1.0
230
0.0
  0
LINE
  5
19E91
  8
0
  6
CONTINUOUS
 62
     3
 10
187.440285650705988
 20
158.0749931335448082
 30
0.0
 11
187.440285650705988
 21
150.0749931335448082
 31
0.0
210
0.0
220
1.0
230
0.0
  0
LINE
  5
19E92
  8
0
  6
CONTINUOUS
 62
     3
 10
186.8779960720532074
 20
150.0749931335448082
 30
0.0
 11
186.8779960720532074
 21
158.0749931335448082
 31
0.0
210
0.0
220
1.0
230
0.0
  0
LINE
  5
19E93
  8
0
  6
CONTINUOUS
 62
     3
 10
187.440285650705988
 20
158.0749931335448082
 30
0.0
 11
180.382186726735199
 21
158.0749931335448082
 31
0.0
210
0.0
220
1.0
230
0.0
  0
LINE
  5
19E94
  8
0
  6
CONTINUOUS
 62
     3
 10
180.382186726735199
 20
150.0749931335448082
 30
0.0
 11
187.440285650705988
 21
150.0749931335448082
 31
0.0
210
0.0
220
1.0
230
0.0
  0
LINE
  5
19E95
  8
0
  6
CONTINUOUS
 62
     3
 10
180.3821867267353127
 20
126.074993133544794
 30
0.0
 11
180.3821867267353127
 21
134.0749931335448082
 31
0.0
210
0.0
220
1.0
230
0.0
  0
LINE
  5
19E96
  8
0
  6
CONTINUOUS
 62
     3
 10
187.440285650705988
 20
134.0749931335448082
 30
0.0
 11
187.440285650705988
 21
126.074993133544794
 31
0.0
210
0.0
220
1.0
230
0.0
  0
LINE
  5
19E97
  8
0
  6
CONTINUOUS
 62
     3
 10
186.8779960720532074
 20
126.074993133544794
 30
0.0
 11
186.8779960720532074
 21
134.0749931335448082
 31
0.0
210
0.0
220
1.0
230
0.0
  0
LINE
  5
19E98
  8
0
  6
CONTINUOUS
 62
     3
 10
187.440285650705988
 20
134.0749931335448082
 30
0.0
 11
180.382186726735199
 21
134.0749931335448082
 31
0.0
210
0.0
220
1.0
230
0.0
  0
LINE
  5
19E99
  8
0
  6
CONTINUOUS
 62
     3
 10
180.382186726735199
 20
126.074993133544794
 30
0.0
 11
187.440285650705988
 21
126.074993133544794
 31
0.0
210
0.0
220
1.0
230
0.0
  0
LINE
  5
19E9A
  8
0
  6
CONTINUOUS
 62
     3
 10
180.3821867267353127
 20
102.074993133544794
 30
0.0
 11
180.3821867267353127
 21
110.074993133544794
 31
0.0
210
0.0
220
1.0
230
0.0
  0
LINE
  5
19E9B
  8
0
  6
CONTINUOUS
 62
     3
 10
187.440285650705988
 20
110.074993133544794
 30
0.0
 11
187.440285650705988
 21
102.074993133544794
 31
0.0
210
0.0
220
1.0
230
0.0
  0
LINE
  5
19E9C
  8
0
  6
CONTINUOUS
 62
     3
 10
186.8779960720532074
 20
102.074993133544794
 30
0.0
 11
186.8779960720532074
 21
110.074993133544794
 31
0.0
210
0.0
220
1.0
230
0.0
  0
LINE
  5
19E9D
  8
0
  6
CONTINUOUS
 62
     3
 10
187.440285650705988
 20
110.074993133544794
 30
0.0
 11
180.382186726735199
 21
110.074993133544794
 31
0.0
210
0.0
220
1.0
230
0.0
  0
LINE
  5
19E9E
  8
0
  6
CONTINUOUS
 62
     3
 10
180.382186726735199
 20
102.074993133544794
 30
0.0
 11
187.440285650705988
 21
102.074993133544794
 31
0.0
210
0.0
220
1.0
230
0.0
  0
LINE
  5
19E9F
  8
0
  6
CONTINUOUS
 62
     3
 10
190.5883928881389124
 20
198.0749931335448082
 30
0.0
 11
190.5883928881389124
 21
206.0749931335448082
 31
0.0
210
0.0
220
1.0
230
0.0
  0
LINE
  5
19EA0
  8
0
  6
CONTINUOUS
 62
     3
 10
195.472748892416007
 20
206.0749931335448082
 30
0.0
 11
195.472748892416007
 21
198.0749931335448082
 31
0.0
210
0.0
220
1.0
230
0.0
  0
LINE
  5
19EA1
  8
0
  6
CONTINUOUS
 62
     3
 10
194.6073474933212992
 20
198.0749931335448082
 30
0.0
 11
194.6073474933212992
 21
206.0749931335448082
 31
0.0
210
0.0
220
1.0
230
0.0
  0
LINE
  5
19EA2
  8
0
  6
CONTINUOUS
 62
     3
 10
195.472748892416007
 20
206.0749931335448082
 30
0.0
 11
190.5883928881389124
 21
206.0749931335448082
 31
0.0
210
0.0
220
1.0
230
0.0
  0
LINE
  5
19EA3
  8
0
  6
CONTINUOUS
 62
     3
 10
190.5883928881389124
 20
198.0749931335448082
 30
0.0
 11
195.472748892416007
 21
198.0749931335448082
 31
0.0
210
0.0
220
1.0
230
0.0
  0
LINE
  5
19EA4
  8
0
  6
CONTINUOUS
 62
     3
 10
190.5883928881389124
 20
174.0749931335448082
 30
0.0
 11
190.5883928881389124
 21
182.0749931335448082
 31
0.0
210
0.0
220
1.0
230
0.0
  0
LINE
  5
19EA5
  8
0
  6
CONTINUOUS
 62
     3
 10
195.472748892416007
 20
182.0749931335448082
 30
0.0
 11
195.472748892416007
 21
174.0749931335448082
 31
0.0
210
0.0
220
1.0
230
0.0
  0
LINE
  5
19EA6
  8
0
  6
CONTINUOUS
 62
     3
 10
194.6073474933212992
 20
174.0749931335448082
 30
0.0
 11
194.6073474933212992
 21
182.0749931335448082
 31
0.0
210
0.0
220
1.0
230
0.0
  0
LINE
  5
19EA7
  8
0
  6
CONTINUOUS
 62
     3
 10
195.472748892416007
 20
182.0749931335448082
 30
0.0
 11
190.5883928881389124
 21
182.0749931335448082
 31
0.0
210
0.0
220
1.0
230
0.0
  0
LINE
  5
19EA8
  8
0
  6
CONTINUOUS
 62
     3
 10
190.5883928881389124
 20
174.0749931335448082
 30
0.0
 11
195.472748892416007
 21
174.0749931335448082
 31
0.0
210
0.0
220
1.0
230
0.0
  0
LINE
  5
19EA9
  8
0
  6
CONTINUOUS
 62
     3
 10
190.5883928881389124
 20
150.0749931335448082
 30
0.0
 11
190.5883928881389124
 21
158.0749931335448082
 31
0.0
210
0.0
220
1.0
230
0.0
  0
LINE
  5
19EAA
  8
0
  6
CONTINUOUS
 62
     3
 10
195.472748892416007
 20
158.0749931335448082
 30
0.0
 11
195.472748892416007
 21
150.0749931335448082
 31
0.0
210
0.0
220
1.0
230
0.0
  0
LINE
  5
19EAB
  8
0
  6
CONTINUOUS
 62
     3
 10
194.6073474933212992
 20
150.0749931335448082
 30
0.0
 11
194.6073474933212992
 21
158.0749931335448082
 31
0.0
210
0.0
220
1.0
230
0.0
  0
LINE
  5
19EAC
  8
0
  6
CONTINUOUS
 62
     3
 10
195.472748892416007
 20
158.0749931335448082
 30
0.0
 11
190.5883928881389124
 21
158.0749931335448082
 31
0.0
210
0.0
220
1.0
230
0.0
  0
LINE
  5
19EAD
  8
0
  6
CONTINUOUS
 62
     3
 10
190.5883928881389124
 20
150.0749931335448082
 30
0.0
 11
195.472748892416007
 21
150.0749931335448082
 31
0.0
210
0.0
220
1.0
230
0.0
  0
LINE
  5
19EAE
  8
0
  6
CONTINUOUS
 62
     3
 10
190.5883928881389124
 20
126.074993133544794
 30
0.0
 11
190.5883928881389124
 21
134.0749931335448082
 31
0.0
210
0.0
220
1.0
230
0.0
  0
LINE
  5
19EAF
  8
0
  6
CONTINUOUS
 62
     3
 10
195.472748892416007
 20
134.0749931335448082
 30
0.0
 11
195.472748892416007
 21
126.074993133544794
 31
0.0
210
0.0
220
1.0
230
0.0
  0
LINE
  5
19EB0
  8
0
  6
CONTINUOUS
 62
     3
 10
194.6073474933212992
 20
126.074993133544794
 30
0.0
 11
194.6073474933212992
 21
134.0749931335448082
 31
0.0
210
0.0
220
1.0
230
0.0
  0
LINE
  5
19EB1
  8
0
  6
CONTINUOUS
 62
     3
 10
195.472748892416007
 20
134.0749931335448082
 30
0.0
 11
190.5883928881389124
 21
134.0749931335448082
 31
0.0
210
0.0
220
1.0
230
0.0
  0
LINE
  5
19EB2
  8
0
  6
CONTINUOUS
 62
     3
 10
190.5883928881389124
 20
126.074993133544794
 30
0.0
 11
195.472748892416007
 21
126.074993133544794
 31
0.0
210
0.0
220
1.0
230
0.0
  0
LINE
  5
19EB3
  8
0
  6
CONTINUOUS
 62
     3
 10
190.5883928881389124
 20
102.074993133544794
 30
0.0
 11
190.5883928881389124
 21
110.074993133544794
 31
0.0
210
0.0
220
1.0
230
0.0
  0
LINE
  5
19EB4
  8
0
  6
CONTINUOUS
 62
     3
 10
195.472748892416007
 20
110.074993133544794
 30
0.0
 11
195.472748892416007
 21
102.074993133544794
 31
0.0
210
0.0
220
1.0
230
0.0
  0
LINE
  5
19EB5
  8
0
  6
CONTINUOUS
 62
     3
 10
194.6073474933212992
 20
102.074993133544794
 30
0.0
 11
194.6073474933212992
 21
110.074993133544794
 31
0.0
210
0.0
220
1.0
230
0.0
  0
LINE
  5
19EB6
  8
0
  6
CONTINUOUS
 62
     3
 10
195.472748892416007
 20
110.074993133544794
 30
0.0
 11
190.5883928881389124
 21
110.074993133544794
 31
0.0
210
0.0
220
1.0
230
0.0
  0
LINE
  5
19EB7
  8
0
  6
CONTINUOUS
 62
     3
 10
190.5883928881389124
 20
102.074993133544794
 30
0.0
 11
195.472748892416007
 21
102.074993133544794
 31
0.0
210
0.0
220
1.0
230
0.0
  0
LINE
  5
19EB8
  8
0
  6
CONTINUOUS
 62
     3
 10
197.2198166045124026
 20
198.0749931335448082
 30
0.0
 11
197.2198166045124026
 21
206.0749931335448082
 31
0.0
210
0.0
220
1.0
230
0.0
  0
LINE
  5
19EB9
  8
0
  6
CONTINUOUS
 62
     3
 10
198.9630230797534125
 20
206.0749931335448082
 30
0.0
 11
198.9630230797534125
 21
198.0749931335448082
 31
0.0
210
0.0
220
1.0
230
0.0
  0
LINE
  5
19EBA
  8
0
  6
CONTINUOUS
 62
     3
 10
197.9659132207590915
 20
198.0749931335448082
 30
0.0
 11
197.9659132207590915
 21
206.0749931335448082
 31
0.0
210
0.0
220
1.0
230
0.0
  0
LINE
  5
19EBB
  8
0
  6
CONTINUOUS
 62
     3
 10
198.9630230797534125
 20
206.0749931335448082
 30
0.0
 11
197.2198166045124026
 21
206.0749931335448082
 31
0.0
210
0.0
220
1.0
230
0.0
  0
LINE
  5
19EBC
  8
0
  6
CONTINUOUS
 62
     3
 10
197.2198166045124026
 20
198.0749931335448082
 30
0.0
 11
198.9630230797534125
 21
198.0749931335448082
 31
0.0
210
0.0
220
1.0
230
0.0
  0
LINE
  5
19EBD
  8
0
  6
CONTINUOUS
 62
     3
 10
158.2012275607594916
 20
146.0749931335448082
 30
0.0
 11
158.2012275607594916
 21
138.0749931335448082
 31
0.0
210
0.0
220
1.0
230
0.0
  0
LINE
  5
19EBE
  8
0
  6
CONTINUOUS
 62
     3
 10
157.6389379821067109
 20
138.0749931335448082
 30
0.0
 11
157.6389379821067109
 21
146.0749931335448082
 31
0.0
210
0.0
220
1.0
230
0.0
  0
LINE
  5
19EBF
  8
0
  6
CONTINUOUS
 62
     3
 10
164.6970369060773862
 20
146.0749931335448082
 30
0.0
 11
164.6970369060773862
 21
138.0749931335448082
 31
0.0
210
0.0
220
1.0
230
0.0
  0
LINE
  5
19EC0
  8
0
  6
CONTINUOUS
 62
     3
 10
164.6970369060773862
 20
146.0749931335448082
 30
0.0
 11
157.6389379821065972
 21
146.0749931335448082
 31
0.0
210
0.0
220
1.0
230
0.0
  0
LINE
  5
19EC1
  8
0
  6
CONTINUOUS
 62
     3
 10
157.6389379821065972
 20
138.0749931335448082
 30
0.0
 11
164.6970369060773862
 21
138.0749931335448082
 31
0.0
210
0.0
220
1.0
230
0.0
  0
LINE
  5
19EC2
  8
0
  6
CONTINUOUS
 62
     3
 10
158.2012275607594916
 20
122.074993133544794
 30
0.0
 11
158.2012275607594916
 21
114.074993133544794
 31
0.0
210
0.0
220
1.0
230
0.0
  0
LINE
  5
19EC3
  8
0
  6
CONTINUOUS
 62
     3
 10
157.6389379821067109
 20
114.074993133544794
 30
0.0
 11
157.6389379821067109
 21
122.074993133544794
 31
0.0
210
0.0
220
1.0
230
0.0
  0
LINE
  5
19EC4
  8
0
  6
CONTINUOUS
 62
     3
 10
164.6970369060773862
 20
122.074993133544794
 30
0.0
 11
164.6970369060773862
 21
114.074993133544794
 31
0.0
210
0.0
220
1.0
230
0.0
  0
LINE
  5
19EC5
  8
0
  6
CONTINUOUS
 62
     3
 10
164.6970369060773862
 20
122.074993133544794
 30
0.0
 11
157.6389379821065972
 21
122.074993133544794
 31
0.0
210
0.0
220
1.0
230
0.0
  0
LINE
  5
19EC6
  8
0
  6
CONTINUOUS
 62
     3
 10
157.6389379821065972
 20
114.074993133544794
 30
0.0
 11
164.6970369060773862
 21
114.074993133544794
 31
0.0
210
0.0
220
1.0
230
0.0
  0
LINE
  5
19EC7
  8
0
  6
CONTINUOUS
 62
     3
 10
150.4718761394913997
 20
122.074993133544794
 30
0.0
 11
150.4718761394913997
 21
114.074993133544794
 31
0.0
210
0.0
220
1.0
230
0.0
  0
LINE
  5
19EC8
  8
0
  6
CONTINUOUS
 62
     3
 10
149.6064747403966919
 20
114.074993133544794
 30
0.0
 11
149.6064747403966919
 21
122.074993133544794
 31
0.0
210
0.0
220
1.0
230
0.0
  0
LINE
  5
19EC9
  8
0
  6
CONTINUOUS
 62
     3
 10
154.4908307446737012
 20
122.074993133544794
 30
0.0
 11
154.4908307446737012
 21
114.074993133544794
 31
0.0
210
0.0
220
1.0
230
0.0
  0
LINE
  5
19ECA
  8
0
  6
CONTINUOUS
 62
     3
 10
154.4908307446737012
 20
122.074993133544794
 30
0.0
 11
149.6064747403966066
 21
122.074993133544794
 31
0.0
210
0.0
220
1.0
230
0.0
  0
LINE
  5
19ECB
  8
0
  6
CONTINUOUS
 62
     3
 10
149.6064747403966066
 20
114.074993133544794
 30
0.0
 11
154.4908307446737012
 21
114.074993133544794
 31
0.0
210
0.0
220
1.0
230
0.0
  0
LINE
  5
19ECC
  8
0
  6
CONTINUOUS
 62
     3
 10
158.2012275607594916
 20
218.0749931335448082
 30
0.0
 11
158.2012275607594916
 21
210.0749931335448082
 31
0.0
210
0.0
220
1.0
230
0.0
  0
LINE
  5
19ECD
  8
0
  6
CONTINUOUS
 62
     3
 10
157.6389379821067109
 20
210.0749931335448082
 30
0.0
 11
157.6389379821067109
 21
218.0749931335448082
 31
0.0
210
0.0
220
1.0
230
0.0
  0
LINE
  5
19ECE
  8
0
  6
CONTINUOUS
 62
     3
 10
164.6970369060773862
 20
218.0749931335448082
 30
0.0
 11
164.6970369060773862
 21
210.0749931335448082
 31
0.0
210
0.0
220
1.0
230
0.0
  0
LINE
  5
19ECF
  8
0
  6
CONTINUOUS
 62
     3
 10
164.6970369060773862
 20
218.0749931335448082
 30
0.0
 11
157.6389379821065972
 21
218.0749931335448082
 31
0.0
210
0.0
220
1.0
230
0.0
  0
LINE
  5
19ED0
  8
0
  6
CONTINUOUS
 62
     3
 10
157.6389379821065972
 20
210.0749931335448082
 30
0.0
 11
164.6970369060773862
 21
210.0749931335448082
 31
0.0
210
0.0
220
1.0
230
0.0
  0
LINE
  5
19ED1
  8
0
  6
CONTINUOUS
 62
     3
 10
158.2012275607594916
 20
194.0749931335448082
 30
0.0
 11
158.2012275607594916
 21
186.0749931335448082
 31
0.0
210
0.0
220
1.0
230
0.0
  0
LINE
  5
19ED2
  8
0
  6
CONTINUOUS
 62
     3
 10
157.6389379821067109
 20
186.0749931335448082
 30
0.0
 11
157.6389379821067109
 21
194.0749931335448082
 31
0.0
210
0.0
220
1.0
230
0.0
  0
LINE
  5
19ED3
  8
0
  6
CONTINUOUS
 62
     3
 10
164.6970369060773862
 20
194.0749931335448082
 30
0.0
 11
164.6970369060773862
 21
186.0749931335448082
 31
0.0
210
0.0
220
1.0
230
0.0
  0
LINE
  5
19ED4
  8
0
  6
CONTINUOUS
 62
     3
 10
164.6970369060773862
 20
194.0749931335448082
 30
0.0
 11
157.6389379821065972
 21
194.0749931335448082
 31
0.0
210
0.0
220
1.0
230
0.0
  0
LINE
  5
19ED5
  8
0
  6
CONTINUOUS
 62
     3
 10
157.6389379821065972
 20
186.0749931335448082
 30
0.0
 11
164.6970369060773862
 21
186.0749931335448082
 31
0.0
210
0.0
220
1.0
230
0.0
  0
LINE
  5
19ED6
  8
0
  6
CONTINUOUS
 62
     3
 10
158.2012275607594916
 20
170.0749931335448082
 30
0.0
 11
158.2012275607594916
 21
162.0749931335448082
 31
0.0
210
0.0
220
1.0
230
0.0
  0
LINE
  5
19ED7
  8
0
  6
CONTINUOUS
 62
     3
 10
157.6389379821067109
 20
162.0749931335448082
 30
0.0
 11
157.6389379821067109
 21
170.0749931335448082
 31
0.0
210
0.0
220
1.0
230
0.0
  0
LINE
  5
19ED8
  8
0
  6
CONTINUOUS
 62
     3
 10
164.6970369060773862
 20
170.0749931335448082
 30
0.0
 11
164.6970369060773862
 21
162.0749931335448082
 31
0.0
210
0.0
220
1.0
230
0.0
  0
LINE
  5
19ED9
  8
0
  6
CONTINUOUS
 62
     3
 10
164.6970369060773862
 20
170.0749931335448082
 30
0.0
 11
157.6389379821065972
 21
170.0749931335448082
 31
0.0
210
0.0
220
1.0
230
0.0
  0
LINE
  5
19EDA
  8
0
  6
CONTINUOUS
 62
     3
 10
157.6389379821065972
 20
162.0749931335448082
 30
0.0
 11
164.6970369060773862
 21
162.0749931335448082
 31
0.0
210
0.0
220
1.0
230
0.0
  0
LINE
  5
19EDB
  8
0
  6
CONTINUOUS
 62
     3
 10
150.4718761394913997
 20
218.0749931335448082
 30
0.0
 11
150.4718761394913997
 21
210.0749931335448082
 31
0.0
210
0.0
220
1.0
230
0.0
  0
LINE
  5
19EDC
  8
0
  6
CONTINUOUS
 62
     3
 10
149.6064747403966919
 20
210.0749931335448082
 30
0.0
 11
149.6064747403966919
 21
218.0749931335448082
 31
0.0
210
0.0
220
1.0
230
0.0
  0
LINE
  5
19EDD
  8
0
  6
CONTINUOUS
 62
     3
 10
154.4908307446737012
 20
218.0749931335448082
 30
0.0
 11
154.4908307446737012
 21
210.0749931335448082
 31
0.0
210
0.0
220
1.0
230
0.0
  0
LINE
  5
19EDE
  8
0
  6
CONTINUOUS
 62
     3
 10
154.4908307446737012
 20
218.0749931335448082
 30
0.0
 11
149.6064747403966066
 21
218.0749931335448082
 31
0.0
210
0.0
220
1.0
230
0.0
  0
LINE
  5
19EDF
  8
0
  6
CONTINUOUS
 62
     3
 10
149.6064747403966066
 20
210.0749931335448082
 30
0.0
 11
154.4908307446737012
 21
210.0749931335448082
 31
0.0
210
0.0
220
1.0
230
0.0
  0
LINE
  5
19EE0
  8
0
  6
CONTINUOUS
 62
     3
 10
150.4718761394913997
 20
194.0749931335448082
 30
0.0
 11
150.4718761394913997
 21
186.0749931335448082
 31
0.0
210
0.0
220
1.0
230
0.0
  0
LINE
  5
19EE1
  8
0
  6
CONTINUOUS
 62
     3
 10
149.6064747403966919
 20
186.0749931335448082
 30
0.0
 11
149.6064747403966919
 21
194.0749931335448082
 31
0.0
210
0.0
220
1.0
230
0.0
  0
LINE
  5
19EE2
  8
0
  6
CONTINUOUS
 62
     3
 10
154.4908307446737012
 20
194.0749931335448082
 30
0.0
 11
154.4908307446737012
 21
186.0749931335448082
 31
0.0
210
0.0
220
1.0
230
0.0
  0
LINE
  5
19EE3
  8
0
  6
CONTINUOUS
 62
     3
 10
154.4908307446737012
 20
194.0749931335448082
 30
0.0
 11
149.6064747403966066
 21
194.0749931335448082
 31
0.0
210
0.0
220
1.0
230
0.0
  0
LINE
  5
19EE4
  8
0
  6
CONTINUOUS
 62
     3
 10
149.6064747403966066
 20
186.0749931335448082
 30
0.0
 11
154.4908307446737012
 21
186.0749931335448082
 31
0.0
210
0.0
220
1.0
230
0.0
  0
LINE
  5
19EE5
  8
0
  6
CONTINUOUS
 62
     3
 10
150.4718761394913997
 20
170.0749931335448082
 30
0.0
 11
150.4718761394913997
 21
162.0749931335448082
 31
0.0
210
0.0
220
1.0
230
0.0
  0
LINE
  5
19EE6
  8
0
  6
CONTINUOUS
 62
     3
 10
149.6064747403966919
 20
162.0749931335448082
 30
0.0
 11
149.6064747403966919
 21
170.0749931335448082
 31
0.0
210
0.0
220
1.0
230
0.0
  0
LINE
  5
19EE7
  8
0
  6
CONTINUOUS
 62
     3
 10
154.4908307446737012
 20
170.0749931335448082
 30
0.0
 11
154.4908307446737012
 21
162.0749931335448082
 31
0.0
210
0.0
220
1.0
230
0.0
  0
LINE
  5
19EE8
  8
0
  6
CONTINUOUS
 62
     3
 10
154.4908307446737012
 20
170.0749931335448082
 30
0.0
 11
149.6064747403966066
 21
170.0749931335448082
 31
0.0
210
0.0
220
1.0
230
0.0
  0
LINE
  5
19EE9
  8
0
  6
CONTINUOUS
 62
     3
 10
149.6064747403966066
 20
162.0749931335448082
 30
0.0
 11
154.4908307446737012
 21
162.0749931335448082
 31
0.0
210
0.0
220
1.0
230
0.0
  0
LINE
  5
19EEA
  8
0
  6
CONTINUOUS
 62
     3
 10
150.4718761394913997
 20
146.0749931335448082
 30
0.0
 11
150.4718761394913997
 21
138.0749931335448082
 31
0.0
210
0.0
220
1.0
230
0.0
  0
LINE
  5
19EEB
  8
0
  6
CONTINUOUS
 62
     3
 10
149.6064747403966919
 20
138.0749931335448082
 30
0.0
 11
149.6064747403966919
 21
146.0749931335448082
 31
0.0
210
0.0
220
1.0
230
0.0
  0
LINE
  5
19EEC
  8
0
  6
CONTINUOUS
 62
     3
 10
154.4908307446737012
 20
146.0749931335448082
 30
0.0
 11
154.4908307446737012
 21
138.0749931335448082
 31
0.0
210
0.0
220
1.0
230
0.0
  0
LINE
  5
19EED
  8
0
  6
CONTINUOUS
 62
     3
 10
154.4908307446737012
 20
146.0749931335448082
 30
0.0
 11
149.6064747403966066
 21
146.0749931335448082
 31
0.0
210
0.0
220
1.0
230
0.0
  0
LINE
  5
19EEE
  8
0
  6
CONTINUOUS
 62
     3
 10
149.6064747403966066
 20
138.0749931335448082
 30
0.0
 11
154.4908307446737012
 21
138.0749931335448082
 31
0.0
210
0.0
220
1.0
230
0.0
  0
LINE
  5
19EEF
  8
0
  6
CONTINUOUS
 62
     3
 10
197.2198166045124026
 20
174.0749931335448082
 30
0.0
 11
197.2198166045124026
 21
182.0749931335448082
 31
0.0
210
0.0
220
1.0
230
0.0
  0
LINE
  5
19EF0
  8
0
  6
CONTINUOUS
 62
     3
 10
198.9630230797534125
 20
182.0749931335448082
 30
0.0
 11
198.9630230797534125
 21
174.0749931335448082
 31
0.0
210
0.0
220
1.0
230
0.0
  0
LINE
  5
19EF1
  8
0
  6
CONTINUOUS
 62
     3
 10
197.9659132207590915
 20
174.0749931335448082
 30
0.0
 11
197.9659132207590915
 21
182.0749931335448082
 31
0.0
210
0.0
220
1.0
230
0.0
  0
LINE
  5
19EF2
  8
0
  6
CONTINUOUS
 62
     3
 10
198.9630230797534125
 20
182.0749931335448082
 30
0.0
 11
197.2198166045124026
 21
182.0749931335448082
 31
0.0
210
0.0
220
1.0
230
0.0
  0
LINE
  5
19EF3
  8
0
  6
CONTINUOUS
 62
     3
 10
197.2198166045124026
 20
174.0749931335448082
 30
0.0
 11
198.9630230797534125
 21
174.0749931335448082
 31
0.0
210
0.0
220
1.0
230
0.0
  0
LINE
  5
19EF4
  8
0
  6
CONTINUOUS
 62
     3
 10
197.2198166045124026
 20
150.0749931335448082
 30
0.0
 11
197.2198166045124026
 21
158.0749931335448082
 31
0.0
210
0.0
220
1.0
230
0.0
  0
LINE
  5
19EF5
  8
0
  6
CONTINUOUS
 62
     3
 10
198.9630230797534125
 20
158.0749931335448082
 30
0.0
 11
198.9630230797534125
 21
150.0749931335448082
 31
0.0
210
0.0
220
1.0
230
0.0
  0
LINE
  5
19EF6
  8
0
  6
CONTINUOUS
 62
     3
 10
197.9659132207590915
 20
150.0749931335448082
 30
0.0
 11
197.9659132207590915
 21
158.0749931335448082
 31
0.0
210
0.0
220
1.0
230
0.0
  0
LINE
  5
19EF7
  8
0
  6
CONTINUOUS
 62
     3
 10
198.9630230797534125
 20
158.0749931335448082
 30
0.0
 11
197.2198166045124026
 21
158.0749931335448082
 31
0.0
210
0.0
220
1.0
230
0.0
  0
LINE
  5
19EF8
  8
0
  6
CONTINUOUS
 62
     3
 10
197.2198166045124026
 20
150.0749931335448082
 30
0.0
 11
198.9630230797534125
 21
150.0749931335448082
 31
0.0
210
0.0
220
1.0
230
0.0
  0
LINE
  5
19EF9
  8
0
  6
CONTINUOUS
 62
     3
 10
197.2198166045124026
 20
126.074993133544794
 30
0.0
 11
197.2198166045124026
 21
134.0749931335448082
 31
0.0
210
0.0
220
1.0
230
0.0
  0
LINE
  5
19EFA
  8
0
  6
CONTINUOUS
 62
     3
 10
198.9630230797534125
 20
134.0749931335448082
 30
0.0
 11
198.9630230797534125
 21
126.074993133544794
 31
0.0
210
0.0
220
1.0
230
0.0
  0
LINE
  5
19EFB
  8
0
  6
CONTINUOUS
 62
     3
 10
197.9659132207590915
 20
126.074993133544794
 30
0.0
 11
197.9659132207590915
 21
134.0749931335448082
 31
0.0
210
0.0
220
1.0
230
0.0
  0
LINE
  5
19EFC
  8
0
  6
CONTINUOUS
 62
     3
 10
198.9630230797534125
 20
134.0749931335448082
 30
0.0
 11
197.2198166045124026
 21
134.0749931335448082
 31
0.0
210
0.0
220
1.0
230
0.0
  0
LINE
  5
19EFD
  8
0
  6
CONTINUOUS
 62
     3
 10
197.2198166045124026
 20
126.074993133544794
 30
0.0
 11
198.9630230797534125
 21
126.074993133544794
 31
0.0
210
0.0
220
1.0
230
0.0
  0
LINE
  5
19EFE
  8
0
  6
CONTINUOUS
 62
     3
 10
197.2198166045124026
 20
102.074993133544794
 30
0.0
 11
197.2198166045124026
 21
110.074993133544794
 31
0.0
210
0.0
220
1.0
230
0.0
  0
LINE
  5
19EFF
  8
0
  6
CONTINUOUS
 62
     3
 10
198.9630230797534125
 20
110.074993133544794
 30
0.0
 11
198.9630230797534125
 21
102.074993133544794
 31
0.0
210
0.0
220
1.0
230
0.0
  0
LINE
  5
19F00
  8
0
  6
CONTINUOUS
 62
     3
 10
197.9659132207590915
 20
102.074993133544794
 30
0.0
 11
197.9659132207590915
 21
110.074993133544794
 31
0.0
210
0.0
220
1.0
230
0.0
  0
LINE
  5
19F01
  8
0
  6
CONTINUOUS
 62
     3
 10
198.9630230797534125
 20
110.074993133544794
 30
0.0
 11
197.2198166045124026
 21
110.074993133544794
 31
0.0
210
0.0
220
1.0
230
0.0
  0
LINE
  5
19F02
  8
0
  6
CONTINUOUS
 62
     3
 10
197.2198166045124026
 20
102.074993133544794
 30
0.0
 11
198.9630230797534125
 21
102.074993133544794
 31
0.0
210
0.0
220
1.0
230
0.0
  0
LINE
  5
19F03
  8
0
  6
CONTINUOUS
 62
     3
 10
146.0396118164061932
 20
101.0749931335448935
 30
0.0
 11
199.0396118164061079
 21
101.0749931335448935
 31
0.0
210
0.0
220
1.0
230
0.0
  0
LINE
  5
19F04
  8
0
  6
CONTINUOUS
 62
     3
 10
199.0396118164061079
 20
222.0749931335448082
 30
0.0
 11
146.0396118164061932
 21
222.0749931335448082
 31
0.0
210
0.0
220
1.0
230
0.0
  0
LINE
  5
19F05
  8
0
  6
CONTINUOUS
 62
     3
 10
146.3895664705098056
 20
97.0749931335448935
 30
0.0
 11
198.6896571623026091
 21
97.0749931335448935
 31
0.0
210
0.0
220
1.0
230
0.0
  0
LINE
  5
19F06
  8
0
  6
CONTINUOUS
 62
     3
 10
146.0396118164061932
 20
101.0749931335448935
 30
0.0
 11
146.0396118164061932
 21
222.0749931335448082
 31
0.0
210
0.0
220
1.0
230
0.0
  0
LINE
  5
19F07
  8
0
  6
CONTINUOUS
 62
     3
 10
199.0396118164061079
 20
101.0749931335448935
 30
0.0
 11
199.0396118164061079
 21
222.0749931335448082
 31
0.0
210
0.0
220
1.0
230
0.0
  0
LINE
  5
19F08
  8
0
  6
CONTINUOUS
 62
     3
 10
146.3895664705098056
 20
97.0749931335448935
 30
0.0
 11
146.0396118164061932
 21
101.0749931335448935
 31
0.0
210
0.0
220
1.0
230
0.0
  0
LINE
  5
19F09
  8
0
  6
CONTINUOUS
 62
     3
 10
198.6896571623026091
 20
97.0749931335448935
 30
0.0
 11
199.0396118164061079
 21
101.0749931335448935
 31
0.0
210
0.0
220
1.0
230
0.0
  0
LINE
  5
19F0A
  8
0
  6
VERDECKT
 62
     1
 10
194.6359916103905903
 20
223.0749931335448935
 30
0.0
 11
194.6359916103905903
 21
222.0749931335448082
 31
0.0
210
0.0
220
1.0
230
0.0
  0
LINE
  5
19F0B
  8
0
  6
VERDECKT
 62
     1
 10
192.5396118164061079
 20
222.0749931335448082
 30
0.0
 11
192.5396118164061079
 21
223.0749931335448935
 31
0.0
210
0.0
220
1.0
230
0.0
  0
LINE
  5
19F0C
  8
0
  6
VERDECKT
 62
     1
 10
184.8785744956593078
 20
223.0749931335448935
 30
0.0
 11
184.8785744956593078
 21
222.0749931335448082
 31
0.0
210
0.0
220
1.0
230
0.0
  0
LINE
  5
19F0D
  8
0
  6
VERDECKT
 62
     1
 10
180.5396118164061079
 20
222.0749931335448082
 30
0.0
 11
180.5396118164061079
 21
223.0749931335448935
 31
0.0
210
0.0
220
1.0
230
0.0
  0
LINE
  5
19F0E
  8
0
  6
VERDECKT
 62
     1
 10
188.5396118164061079
 20
222.0749931335448082
 30
0.0
 11
188.5396118164061079
 21
223.0749931335448935
 31
0.0
210
0.0
220
1.0
230
0.0
  0
LINE
  5
19F0F
  8
0
  6
VERDECKT
 62
     1
 10
152.5396118164063068
 20
223.0749931335448935
 30
0.0
 11
152.5396118164063068
 21
222.0749931335448082
 31
0.0
210
0.0
220
1.0
230
0.0
  0
LINE
  5
19F10
  8
0
  6
VERDECKT
 62
     1
 10
150.4432320224219097
 20
222.0749931335448082
 30
0.0
 11
150.4432320224219097
 21
223.0749931335448935
 31
0.0
210
0.0
220
1.0
230
0.0
  0
LINE
  5
19F11
  8
0
  6
VERDECKT
 62
     1
 10
164.5396118164061932
 20
223.0749931335448935
 30
0.0
 11
164.5396118164061932
 21
222.0749931335448082
 31
0.0
210
0.0
220
1.0
230
0.0
  0
LINE
  5
19F12
  8
0
  6
VERDECKT
 62
     1
 10
160.2006491371531922
 20
222.0749931335448082
 30
0.0
 11
160.2006491371531922
 21
223.0749931335448935
 31
0.0
210
0.0
220
1.0
230
0.0
  0
LINE
  5
19F13
  8
0
  6
VERDECKT
 62
     1
 10
176.5396118164061079
 20
223.0749931335448935
 30
0.0
 11
176.5396118164061079
 21
222.0749931335448082
 31
0.0
210
0.0
220
1.0
230
0.0
  0
LINE
  5
19F14
  8
0
  6
VERDECKT
 62
     1
 10
195.6966841702250122
 20
222.0749931335448082
 30
0.0
 11
195.6966841702250122
 21
223.0749931335448935
 31
0.0
210
0.0
220
1.0
230
0.0
  0
LINE
  5
19F15
  8
0
  6
VERDECKT
 62
     1
 10
168.5396118164061932
 20
222.0749931335448082
 30
0.0
 11
168.5396118164061932
 21
223.0749931335448935
 31
0.0
210
0.0
220
1.0
230
0.0
  0
LINE
  5
19F16
  8
0
  6
VERDECKT
 62
     1
 10
149.3825394625874026
 20
223.0749931335448935
 30
0.0
 11
149.3825394625874026
 21
222.0749931335448082
 31
0.0
210
0.0
220
1.0
230
0.0
  0
LINE
  5
19F17
  8
0
  6
VERDECKT
 62
     1
 10
156.5396118164061932
 20
222.0749931335448082
 30
0.0
 11
156.5396118164061932
 21
223.0749931335448935
 31
0.0
210
0.0
220
1.0
230
0.0
  0
LINE
  5
19F18
  8
0
  6
VERDECKT
 62
     1
 10
196.0396118164061079
 20
223.0749931335448935
 30
0.0
 11
196.0396118164061079
 21
222.0749931335448082
 31
0.0
210
0.0
220
1.0
230
0.0
  0
LINE
  5
19F19
  8
0
  6
VERDECKT
 62
     1
 10
149.0396118164061932
 20
223.0749931335448935
 30
0.0
 11
149.0396118164061932
 21
222.0749931335448082
 31
0.0
210
0.0
220
1.0
230
0.0
  0
LINE
  5
19F1A
  8
0
  6
VERDECKT
 62
     1
 10
196.2884881219424074
 20
114.074993133544794
 30
0.0
 11
197.2198166045124879
 21
114.074993133544794
 31
0.0
210
0.0
220
1.0
230
0.0
  0
LINE
  5
19F1B
  8
0
  6
VERDECKT
 62
     1
 10
196.2884881219422937
 20
122.074993133544794
 30
0.0
 11
196.2884881219422937
 21
114.074993133544794
 31
0.0
210
0.0
220
1.0
230
0.0
  0
LINE
  5
19F1C
  8
0
  6
VERDECKT
 62
     1
 10
196.2884881219424074
 20
122.074993133544794
 30
0.0
 11
197.2198166045124879
 21
122.074993133544794
 31
0.0
210
0.0
220
1.0
230
0.0
  0
LINE
  5
19F1D
  8
0
  6
VERDECKT
 62
     1
 10
196.2884881219424074
 20
138.0749931335448082
 30
0.0
 11
197.2198166045124879
 21
138.0749931335448082
 31
0.0
210
0.0
220
1.0
230
0.0
  0
LINE
  5
19F1E
  8
0
  6
VERDECKT
 62
     1
 10
196.2884881219422937
 20
146.0749931335448082
 30
0.0
 11
196.2884881219422937
 21
138.0749931335448082
 31
0.0
210
0.0
220
1.0
230
0.0
  0
LINE
  5
19F1F
  8
0
  6
VERDECKT
 62
     1
 10
196.2884881219424074
 20
146.0749931335448082
 30
0.0
 11
197.2198166045124879
 21
146.0749931335448082
 31
0.0
210
0.0
220
1.0
230
0.0
  0
LINE
  5
19F20
  8
0
  6
VERDECKT
 62
     1
 10
196.2884881219424074
 20
162.0749931335448082
 30
0.0
 11
197.2198166045124879
 21
162.0749931335448082
 31
0.0
210
0.0
220
1.0
230
0.0
  0
LINE
  5
19F21
  8
0
  6
VERDECKT
 62
     1
 10
196.2884881219422937
 20
170.0749931335448082
 30
0.0
 11
196.2884881219422937
 21
162.0749931335448082
 31
0.0
210
0.0
220
1.0
230
0.0
  0
LINE
  5
19F22
  8
0
  6
VERDECKT
 62
     1
 10
196.2884881219424074
 20
170.0749931335448082
 30
0.0
 11
197.2198166045124879
 21
170.0749931335448082
 31
0.0
210
0.0
220
1.0
230
0.0
  0
LINE
  5
19F23
  8
0
  6
VERDECKT
 62
     1
 10
154.4908307446737865
 20
126.074993133544794
 30
0.0
 11
155.1719168228524097
 21
126.074993133544794
 31
0.0
210
0.0
220
1.0
230
0.0
  0
LINE
  5
19F24
  8
0
  6
VERDECKT
 62
     1
 10
154.4908307446737865
 20
134.0749931335448082
 30
0.0
 11
155.1719168228524097
 21
134.0749931335448082
 31
0.0
210
0.0
220
1.0
230
0.0
  0
LINE
  5
19F25
  8
0
  6
VERDECKT
 62
     1
 10
155.1719168228524097
 20
126.074993133544794
 30
0.0
 11
155.1719168228524097
 21
134.0749931335448082
 31
0.0
210
0.0
220
1.0
230
0.0
  0
LINE
  5
19F26
  8
0
  6
VERDECKT
 62
     1
 10
154.4908307446737865
 20
150.0749931335448082
 30
0.0
 11
155.1719168228524097
 21
150.0749931335448082
 31
0.0
210
0.0
220
1.0
230
0.0
  0
LINE
  5
19F27
  8
0
  6
VERDECKT
 62
     1
 10
154.4908307446737865
 20
158.0749931335448082
 30
0.0
 11
155.1719168228524097
 21
158.0749931335448082
 31
0.0
210
0.0
220
1.0
230
0.0
  0
LINE
  5
19F28
  8
0
  6
VERDECKT
 62
     1
 10
155.1719168228524097
 20
150.0749931335448082
 30
0.0
 11
155.1719168228524097
 21
158.0749931335448082
 31
0.0
210
0.0
220
1.0
230
0.0
  0
LINE
  5
19F29
  8
0
  6
VERDECKT
 62
     1
 10
154.4908307446737865
 20
174.0749931335448082
 30
0.0
 11
155.1719168228524097
 21
174.0749931335448082
 31
0.0
210
0.0
220
1.0
230
0.0
  0
LINE
  5
19F2A
  8
0
  6
VERDECKT
 62
     1
 10
154.4908307446737865
 20
182.0749931335448082
 30
0.0
 11
155.1719168228524097
 21
182.0749931335448082
 31
0.0
210
0.0
220
1.0
230
0.0
  0
LINE
  5
19F2B
  8
0
  6
VERDECKT
 62
     1
 10
155.1719168228524097
 20
174.0749931335448082
 30
0.0
 11
155.1719168228524097
 21
182.0749931335448082
 31
0.0
210
0.0
220
1.0
230
0.0
  0
LINE
  5
19F2C
  8
0
  6
VERDECKT
 62
     1
 10
154.4908307446737865
 20
198.0749931335448082
 30
0.0
 11
155.1719168228524097
 21
198.0749931335448082
 31
0.0
210
0.0
220
1.0
230
0.0
  0
LINE
  5
19F2D
  8
0
  6
VERDECKT
 62
     1
 10
154.4908307446737865
 20
206.0749931335448082
 30
0.0
 11
155.1719168228524097
 21
206.0749931335448082
 31
0.0
210
0.0
220
1.0
230
0.0
  0
LINE
  5
19F2E
  8
0
  6
VERDECKT
 62
     1
 10
155.1719168228524097
 20
198.0749931335448082
 30
0.0
 11
155.1719168228524097
 21
206.0749931335448082
 31
0.0
210
0.0
220
1.0
230
0.0
  0
LINE
  5
19F2F
  8
0
  6
VERDECKT
 62
     1
 10
164.6970369060773862
 20
150.0749931335448082
 30
0.0
 11
164.9929831291086089
 21
150.0749931335448082
 31
0.0
210
0.0
220
1.0
230
0.0
  0
LINE
  5
19F30
  8
0
  6
VERDECKT
 62
     1
 10
164.6970369060773862
 20
158.0749931335448082
 30
0.0
 11
164.9929831291086089
 21
158.0749931335448082
 31
0.0
210
0.0
220
1.0
230
0.0
  0
LINE
  5
19F31
  8
0
  6
VERDECKT
 62
     1
 10
164.9929831291086089
 20
150.0749931335448082
 30
0.0
 11
164.9929831291086089
 21
158.0749931335448082
 31
0.0
210
0.0
220
1.0
230
0.0
  0
LINE
  5
19F32
  8
0
  6
VERDECKT
 62
     1
 10
164.6970369060773862
 20
174.0749931335448082
 30
0.0
 11
164.9929831291086089
 21
174.0749931335448082
 31
0.0
210
0.0
220
1.0
230
0.0
  0
LINE
  5
19F33
  8
0
  6
VERDECKT
 62
     1
 10
164.6970369060773862
 20
182.0749931335448082
 30
0.0
 11
164.9929831291086089
 21
182.0749931335448082
 31
0.0
210
0.0
220
1.0
230
0.0
  0
LINE
  5
19F34
  8
0
  6
VERDECKT
 62
     1
 10
164.9929831291086089
 20
174.0749931335448082
 30
0.0
 11
164.9929831291086089
 21
182.0749931335448082
 31
0.0
210
0.0
220
1.0
230
0.0
  0
LINE
  5
19F35
  8
0
  6
VERDECKT
 62
     1
 10
164.6970369060773862
 20
198.0749931335448082
 30
0.0
 11
164.9929831291086089
 21
198.0749931335448082
 31
0.0
210
0.0
220
1.0
230
0.0
  0
LINE
  5
19F36
  8
0
  6
VERDECKT
 62
     1
 10
164.6970369060773862
 20
206.0749931335448082
 30
0.0
 11
164.9929831291086089
 21
206.0749931335448082
 31
0.0
210
0.0
220
1.0
230
0.0
  0
LINE
  5
19F37
  8
0
  6
VERDECKT
 62
     1
 10
164.9929831291086089
 20
198.0749931335448082
 30
0.0
 11
164.9929831291086089
 21
206.0749931335448082
 31
0.0
210
0.0
220
1.0
230
0.0
  0
LINE
  5
19F38
  8
0
  6
VERDECKT
 62
     1
 10
154.4908307446737865
 20
102.074993133544794
 30
0.0
 11
155.1719168228524097
 21
102.074993133544794
 31
0.0
210
0.0
220
1.0
230
0.0
  0
LINE
  5
19F39
  8
0
  6
VERDECKT
 62
     1
 10
154.4908307446737865
 20
110.074993133544794
 30
0.0
 11
155.1719168228524097
 21
110.074993133544794
 31
0.0
210
0.0
220
1.0
230
0.0
  0
LINE
  5
19F3A
  8
0
  6
VERDECKT
 62
     1
 10
155.1719168228524097
 20
102.074993133544794
 30
0.0
 11
155.1719168228524097
 21
110.074993133544794
 31
0.0
210
0.0
220
1.0
230
0.0
  0
LINE
  5
19F3B
  8
0
  6
VERDECKT
 62
     1
 10
164.6970369060773862
 20
102.074993133544794
 30
0.0
 11
164.9929831291086089
 21
102.074993133544794
 31
0.0
210
0.0
220
1.0
230
0.0
  0
LINE
  5
19F3C
  8
0
  6
VERDECKT
 62
     1
 10
164.6970369060773862
 20
110.074993133544794
 30
0.0
 11
164.9929831291086089
 21
110.074993133544794
 31
0.0
210
0.0
220
1.0
230
0.0
  0
LINE
  5
19F3D
  8
0
  6
VERDECKT
 62
     1
 10
164.9929831291086089
 20
102.074993133544794
 30
0.0
 11
164.9929831291086089
 21
110.074993133544794
 31
0.0
210
0.0
220
1.0
230
0.0
  0
LINE
  5
19F3E
  8
0
  6
VERDECKT
 62
     1
 10
164.6970369060773862
 20
126.074993133544794
 30
0.0
 11
164.9929831291086089
 21
126.074993133544794
 31
0.0
210
0.0
220
1.0
230
0.0
  0
LINE
  5
19F3F
  8
0
  6
VERDECKT
 62
     1
 10
164.6970369060773862
 20
134.0749931335448082
 30
0.0
 11
164.9929831291086089
 21
134.0749931335448082
 31
0.0
210
0.0
220
1.0
230
0.0
  0
LINE
  5
19F40
  8
0
  6
VERDECKT
 62
     1
 10
164.9929831291086089
 20
126.074993133544794
 30
0.0
 11
164.9929831291086089
 21
134.0749931335448082
 31
0.0
210
0.0
220
1.0
230
0.0
  0
LINE
  5
19F41
  8
0
  6
VERDECKT
 62
     1
 10
196.2884881219424074
 20
186.0749931335448082
 30
0.0
 11
197.2198166045124879
 21
186.0749931335448082
 31
0.0
210
0.0
220
1.0
230
0.0
  0
LINE
  5
19F42
  8
0
  6
VERDECKT
 62
     1
 10
196.2884881219422937
 20
194.0749931335448082
 30
0.0
 11
196.2884881219422937
 21
186.0749931335448082
 31
0.0
210
0.0
220
1.0
230
0.0
  0
LINE
  5
19F43
  8
0
  6
VERDECKT
 62
     1
 10
196.2884881219424074
 20
194.0749931335448082
 30
0.0
 11
197.2198166045124879
 21
194.0749931335448082
 31
0.0
210
0.0
220
1.0
230
0.0
  0
LINE
  5
19F44
  8
0
  6
VERDECKT
 62
     1
 10
196.2884881219424074
 20
210.0749931335448082
 30
0.0
 11
197.2198166045124879
 21
210.0749931335448082
 31
0.0
210
0.0
220
1.0
230
0.0
  0
LINE
  5
19F45
  8
0
  6
VERDECKT
 62
     1
 10
196.2884881219422937
 20
218.0749931335448082
 30
0.0
 11
196.2884881219422937
 21
210.0749931335448082
 31
0.0
210
0.0
220
1.0
230
0.0
  0
LINE
  5
19F46
  8
0
  6
VERDECKT
 62
     1
 10
196.2884881219424074
 20
218.0749931335448082
 30
0.0
 11
197.2198166045124879
 21
218.0749931335448082
 31
0.0
210
0.0
220
1.0
230
0.0
  0
LINE
  5
19F47
  8
0
  6
VERDECKT
 62
     1
 10
189.9073068099602892
 20
114.074993133544794
 30
0.0
 11
190.5883928881389124
 21
114.074993133544794
 31
0.0
210
0.0
220
1.0
230
0.0
  0
LINE
  5
19F48
  8
0
  6
VERDECKT
 62
     1
 10
189.9073068099602892
 20
122.074993133544794
 30
0.0
 11
189.9073068099602892
 21
114.074993133544794
 31
0.0
210
0.0
220
1.0
230
0.0
  0
LINE
  5
19F49
  8
0
  6
VERDECKT
 62
     1
 10
189.9073068099602892
 20
122.074993133544794
 30
0.0
 11
190.5883928881389124
 21
122.074993133544794
 31
0.0
210
0.0
220
1.0
230
0.0
  0
LINE
  5
19F4A
  8
0
  6
VERDECKT
 62
     1
 10
189.9073068099602892
 20
138.0749931335448082
 30
0.0
 11
190.5883928881389124
 21
138.0749931335448082
 31
0.0
210
0.0
220
1.0
230
0.0
  0
LINE
  5
19F4B
  8
0
  6
VERDECKT
 62
     1
 10
189.9073068099602892
 20
146.0749931335448082
 30
0.0
 11
189.9073068099602892
 21
138.0749931335448082
 31
0.0
210
0.0
220
1.0
230
0.0
  0
LINE
  5
19F4C
  8
0
  6
VERDECKT
 62
     1
 10
189.9073068099602892
 20
146.0749931335448082
 30
0.0
 11
190.5883928881389124
 21
146.0749931335448082
 31
0.0
210
0.0
220
1.0
230
0.0
  0
LINE
  5
19F4D
  8
0
  6
VERDECKT
 62
     1
 10
189.9073068099602892
 20
162.0749931335448082
 30
0.0
 11
190.5883928881389124
 21
162.0749931335448082
 31
0.0
210
0.0
220
1.0
230
0.0
  0
LINE
  5
19F4E
  8
0
  6
VERDECKT
 62
     1
 10
189.9073068099602892
 20
170.0749931335448082
 30
0.0
 11
189.9073068099602892
 21
162.0749931335448082
 31
0.0
210
0.0
220
1.0
230
0.0
  0
LINE
  5
19F4F
  8
0
  6
VERDECKT
 62
     1
 10
189.9073068099602892
 20
170.0749931335448082
 30
0.0
 11
190.5883928881389124
 21
170.0749931335448082
 31
0.0
210
0.0
220
1.0
230
0.0
  0
LINE
  5
19F50
  8
0
  6
VERDECKT
 62
     1
 10
189.9073068099602892
 20
186.0749931335448082
 30
0.0
 11
190.5883928881389124
 21
186.0749931335448082
 31
0.0
210
0.0
220
1.0
230
0.0
  0
LINE
  5
19F51
  8
0
  6
VERDECKT
 62
     1
 10
189.9073068099602892
 20
194.0749931335448082
 30
0.0
 11
189.9073068099602892
 21
186.0749931335448082
 31
0.0
210
0.0
220
1.0
230
0.0
  0
LINE
  5
19F52
  8
0
  6
VERDECKT
 62
     1
 10
189.9073068099602892
 20
194.0749931335448082
 30
0.0
 11
190.5883928881389124
 21
194.0749931335448082
 31
0.0
210
0.0
220
1.0
230
0.0
  0
LINE
  5
19F53
  8
0
  6
VERDECKT
 62
     1
 10
189.9073068099602892
 20
210.0749931335448082
 30
0.0
 11
190.5883928881389124
 21
210.0749931335448082
 31
0.0
210
0.0
220
1.0
230
0.0
  0
LINE
  5
19F54
  8
0
  6
VERDECKT
 62
     1
 10
189.9073068099602892
 20
218.0749931335448082
 30
0.0
 11
189.9073068099602892
 21
210.0749931335448082
 31
0.0
210
0.0
220
1.0
230
0.0
  0
LINE
  5
19F55
  8
0
  6
VERDECKT
 62
     1
 10
189.9073068099602892
 20
218.0749931335448082
 30
0.0
 11
190.5883928881389124
 21
218.0749931335448082
 31
0.0
210
0.0
220
1.0
230
0.0
  0
LINE
  5
19F56
  8
0
  6
VERDECKT
 62
     1
 10
180.0862405037040048
 20
114.074993133544794
 30
0.0
 11
180.3821867267353127
 21
114.074993133544794
 31
0.0
210
0.0
220
1.0
230
0.0
  0
LINE
  5
19F57
  8
0
  6
VERDECKT
 62
     1
 10
180.0862405037040048
 20
122.074993133544794
 30
0.0
 11
180.0862405037040048
 21
114.074993133544794
 31
0.0
210
0.0
220
1.0
230
0.0
  0
LINE
  5
19F58
  8
0
  6
VERDECKT
 62
     1
 10
180.0862405037040048
 20
122.074993133544794
 30
0.0
 11
180.3821867267353127
 21
122.074993133544794
 31
0.0
210
0.0
220
1.0
230
0.0
  0
LINE
  5
19F59
  8
0
  6
VERDECKT
 62
     1
 10
180.0862405037040048
 20
138.0749931335448082
 30
0.0
 11
180.3821867267353127
 21
138.0749931335448082
 31
0.0
210
0.0
220
1.0
230
0.0
  0
LINE
  5
19F5A
  8
0
  6
VERDECKT
 62
     1
 10
180.0862405037040048
 20
146.0749931335448082
 30
0.0
 11
180.0862405037040048
 21
138.0749931335448082
 31
0.0
210
0.0
220
1.0
230
0.0
  0
LINE
  5
19F5B
  8
0
  6
VERDECKT
 62
     1
 10
180.0862405037040048
 20
146.0749931335448082
 30
0.0
 11
180.3821867267353127
 21
146.0749931335448082
 31
0.0
210
0.0
220
1.0
230
0.0
  0
LINE
  5
19F5C
  8
0
  6
VERDECKT
 62
     1
 10
180.0862405037040048
 20
162.0749931335448082
 30
0.0
 11
180.3821867267353127
 21
162.0749931335448082
 31
0.0
210
0.0
220
1.0
230
0.0
  0
LINE
  5
19F5D
  8
0
  6
VERDECKT
 62
     1
 10
180.0862405037040048
 20
170.0749931335448082
 30
0.0
 11
180.0862405037040048
 21
162.0749931335448082
 31
0.0
210
0.0
220
1.0
230
0.0
  0
LINE
  5
19F5E
  8
0
  6
VERDECKT
 62
     1
 10
180.0862405037040048
 20
170.0749931335448082
 30
0.0
 11
180.3821867267353127
 21
170.0749931335448082
 31
0.0
210
0.0
220
1.0
230
0.0
  0
LINE
  5
19F5F
  8
0
  6
VERDECKT
 62
     1
 10
180.0862405037040048
 20
186.0749931335448082
 30
0.0
 11
180.3821867267353127
 21
186.0749931335448082
 31
0.0
210
0.0
220
1.0
230
0.0
  0
LINE
  5
19F60
  8
0
  6
VERDECKT
 62
     1
 10
180.0862405037040048
 20
194.0749931335448082
 30
0.0
 11
180.0862405037040048
 21
186.0749931335448082
 31
0.0
210
0.0
220
1.0
230
0.0
  0
LINE
  5
19F61
  8
0
  6
VERDECKT
 62
     1
 10
180.0862405037040048
 20
194.0749931335448082
 30
0.0
 11
180.3821867267353127
 21
194.0749931335448082
 31
0.0
210
0.0
220
1.0
230
0.0
  0
LINE
  5
19F62
  8
0
  6
VERDECKT
 62
     1
 10
180.0862405037040048
 20
210.0749931335448082
 30
0.0
 11
180.3821867267353127
 21
210.0749931335448082
 31
0.0
210
0.0
220
1.0
230
0.0
  0
LINE
  5
19F63
  8
0
  6
VERDECKT
 62
     1
 10
180.0862405037040048
 20
218.0749931335448082
 30
0.0
 11
180.0862405037040048
 21
210.0749931335448082
 31
0.0
210
0.0
220
1.0
230
0.0
  0
LINE
  5
19F64
  8
0
  6
VERDECKT
 62
     1
 10
180.0862405037040048
 20
218.0749931335448082
 30
0.0
 11
180.3821867267353127
 21
218.0749931335448082
 31
0.0
210
0.0
220
1.0
230
0.0
  0
LINE
  5
19F65
  8
0
  6
VERDECKT
 62
     1
 10
147.8594070283000974
 20
102.074993133544794
 30
0.0
 11
148.7907355108702063
 21
102.074993133544794
 31
0.0
210
0.0
220
1.0
230
0.0
  0
LINE
  5
19F66
  8
0
  6
VERDECKT
 62
     1
 10
147.8594070283000974
 20
110.074993133544794
 30
0.0
 11
148.7907355108702063
 21
110.074993133544794
 31
0.0
210
0.0
220
1.0
230
0.0
  0
LINE
  5
19F67
  8
0
  6
VERDECKT
 62
     1
 10
148.7907355108702063
 20
102.074993133544794
 30
0.0
 11
148.7907355108702063
 21
110.074993133544794
 31
0.0
210
0.0
220
1.0
230
0.0
  0
LINE
  5
19F68
  8
0
  6
VERDECKT
 62
     1
 10
147.8594070283000974
 20
126.074993133544794
 30
0.0
 11
148.7907355108702063
 21
126.074993133544794
 31
0.0
210
0.0
220
1.0
230
0.0
  0
LINE
  5
19F69
  8
0
  6
VERDECKT
 62
     1
 10
147.8594070283000974
 20
134.0749931335448082
 30
0.0
 11
148.7907355108702063
 21
134.0749931335448082
 31
0.0
210
0.0
220
1.0
230
0.0
  0
LINE
  5
19F6A
  8
0
  6
VERDECKT
 62
     1
 10
148.7907355108702063
 20
126.074993133544794
 30
0.0
 11
148.7907355108702063
 21
134.0749931335448082
 31
0.0
210
0.0
220
1.0
230
0.0
  0
LINE
  5
19F6B
  8
0
  6
VERDECKT
 62
     1
 10
147.8594070283000974
 20
150.0749931335448082
 30
0.0
 11
148.7907355108702063
 21
150.0749931335448082
 31
0.0
210
0.0
220
1.0
230
0.0
  0
LINE
  5
19F6C
  8
0
  6
VERDECKT
 62
     1
 10
147.8594070283000974
 20
158.0749931335448082
 30
0.0
 11
148.7907355108702063
 21
158.0749931335448082
 31
0.0
210
0.0
220
1.0
230
0.0
  0
LINE
  5
19F6D
  8
0
  6
VERDECKT
 62
     1
 10
148.7907355108702063
 20
150.0749931335448082
 30
0.0
 11
148.7907355108702063
 21
158.0749931335448082
 31
0.0
210
0.0
220
1.0
230
0.0
  0
LINE
  5
19F6E
  8
0
  6
VERDECKT
 62
     1
 10
147.8594070283000974
 20
174.0749931335448082
 30
0.0
 11
148.7907355108702063
 21
174.0749931335448082
 31
0.0
210
0.0
220
1.0
230
0.0
  0
LINE
  5
19F6F
  8
0
  6
VERDECKT
 62
     1
 10
147.8594070283000974
 20
182.0749931335448082
 30
0.0
 11
148.7907355108702063
 21
182.0749931335448082
 31
0.0
210
0.0
220
1.0
230
0.0
  0
LINE
  5
19F70
  8
0
  6
VERDECKT
 62
     1
 10
148.7907355108702063
 20
174.0749931335448082
 30
0.0
 11
148.7907355108702063
 21
182.0749931335448082
 31
0.0
210
0.0
220
1.0
230
0.0
  0
LINE
  5
19F71
  8
0
  6
VERDECKT
 62
     1
 10
147.8594070283000974
 20
198.0749931335448082
 30
0.0
 11
148.7907355108702063
 21
198.0749931335448082
 31
0.0
210
0.0
220
1.0
230
0.0
  0
LINE
  5
19F72
  8
0
  6
VERDECKT
 62
     1
 10
147.8594070283000974
 20
206.0749931335448082
 30
0.0
 11
148.7907355108702063
 21
206.0749931335448082
 31
0.0
210
0.0
220
1.0
230
0.0
  0
LINE
  5
19F73
  8
0
  6
VERDECKT
 62
     1
 10
148.7907355108702063
 20
198.0749931335448082
 30
0.0
 11
148.7907355108702063
 21
206.0749931335448082
 31
0.0
210
0.0
220
1.0
230
0.0
  0
LINE
  5
19F74
  8
0
  6
VERDECKT
 62
     1
 10
147.8594070283000974
 20
210.0749931335448082
 30
0.0
 11
148.7907355108702063
 21
210.0749931335448082
 31
0.0
210
0.0
220
1.0
230
0.0
  0
LINE
  5
19F75
  8
0
  6
VERDECKT
 62
     1
 10
147.8594070283000974
 20
218.0749931335448082
 30
0.0
 11
148.7907355108702063
 21
218.0749931335448082
 31
0.0
210
0.0
220
1.0
230
0.0
  0
LINE
  5
19F76
  8
0
  6
VERDECKT
 62
     1
 10
148.7907355108702063
 20
210.0749931335448082
 30
0.0
 11
148.7907355108702063
 21
218.0749931335448082
 31
0.0
210
0.0
220
1.0
230
0.0
  0
LINE
  5
19F77
  8
0
  6
VERDECKT
 62
     1
 10
147.8594070283000974
 20
186.0749931335448082
 30
0.0
 11
148.7907355108702063
 21
186.0749931335448082
 31
0.0
210
0.0
220
1.0
230
0.0
  0
LINE
  5
19F78
  8
0
  6
VERDECKT
 62
     1
 10
147.8594070283000974
 20
194.0749931335448082
 30
0.0
 11
148.7907355108702063
 21
194.0749931335448082
 31
0.0
210
0.0
220
1.0
230
0.0
  0
LINE
  5
19F79
  8
0
  6
VERDECKT
 62
     1
 10
148.7907355108702063
 20
186.0749931335448082
 30
0.0
 11
148.7907355108702063
 21
194.0749931335448082
 31
0.0
210
0.0
220
1.0
230
0.0
  0
LINE
  5
19F7A
  8
0
  6
VERDECKT
 62
     1
 10
147.8594070283000974
 20
162.0749931335448082
 30
0.0
 11
148.7907355108702063
 21
162.0749931335448082
 31
0.0
210
0.0
220
1.0
230
0.0
  0
LINE
  5
19F7B
  8
0
  6
VERDECKT
 62
     1
 10
147.8594070283000974
 20
170.0749931335448082
 30
0.0
 11
148.7907355108702063
 21
170.0749931335448082
 31
0.0
210
0.0
220
1.0
230
0.0
  0
LINE
  5
19F7C
  8
0
  6
VERDECKT
 62
     1
 10
148.7907355108702063
 20
162.0749931335448082
 30
0.0
 11
148.7907355108702063
 21
170.0749931335448082
 31
0.0
210
0.0
220
1.0
230
0.0
  0
LINE
  5
19F7D
  8
0
  6
VERDECKT
 62
     1
 10
147.8594070283000974
 20
138.0749931335448082
 30
0.0
 11
148.7907355108702063
 21
138.0749931335448082
 31
0.0
210
0.0
220
1.0
230
0.0
  0
LINE
  5
19F7E
  8
0
  6
VERDECKT
 62
     1
 10
147.8594070283000974
 20
146.0749931335448082
 30
0.0
 11
148.7907355108702063
 21
146.0749931335448082
 31
0.0
210
0.0
220
1.0
230
0.0
  0
LINE
  5
19F7F
  8
0
  6
VERDECKT
 62
     1
 10
148.7907355108702063
 20
138.0749931335448082
 30
0.0
 11
148.7907355108702063
 21
146.0749931335448082
 31
0.0
210
0.0
220
1.0
230
0.0
  0
LINE
  5
19F80
  8
0
  6
VERDECKT
 62
     1
 10
147.8594070283000974
 20
114.074993133544794
 30
0.0
 11
148.7907355108702063
 21
114.074993133544794
 31
0.0
210
0.0
220
1.0
230
0.0
  0
LINE
  5
19F81
  8
0
  6
VERDECKT
 62
     1
 10
147.8594070283000974
 20
122.074993133544794
 30
0.0
 11
148.7907355108702063
 21
122.074993133544794
 31
0.0
210
0.0
220
1.0
230
0.0
  0
LINE
  5
19F82
  8
0
  6
VERDECKT
 62
     1
 10
148.7907355108702063
 20
114.074993133544794
 30
0.0
 11
148.7907355108702063
 21
122.074993133544794
 31
0.0
210
0.0
220
1.0
230
0.0
  0
LINE
  5
19F83
  8
0
  6
VERDECKT
 62
     1
 10
180.0862405037040048
 20
198.0749931335448082
 30
0.0
 11
180.3821867267353127
 21
198.0749931335448082
 31
0.0
210
0.0
220
1.0
230
0.0
  0
LINE
  5
19F84
  8
0
  6
VERDECKT
 62
     1
 10
180.0862405037040048
 20
206.0749931335448082
 30
0.0
 11
180.0862405037040048
 21
198.0749931335448082
 31
0.0
210
0.0
220
1.0
230
0.0
  0
LINE
  5
19F85
  8
0
  6
VERDECKT
 62
     1
 10
180.0862405037040048
 20
206.0749931335448082
 30
0.0
 11
180.3821867267353127
 21
206.0749931335448082
 31
0.0
210
0.0
220
1.0
230
0.0
  0
LINE
  5
19F86
  8
0
  6
VERDECKT
 62
     1
 10
180.0862405037040048
 20
174.0749931335448082
 30
0.0
 11
180.3821867267353127
 21
174.0749931335448082
 31
0.0
210
0.0
220
1.0
230
0.0
  0
LINE
  5
19F87
  8
0
  6
VERDECKT
 62
     1
 10
180.0862405037040048
 20
182.0749931335448082
 30
0.0
 11
180.0862405037040048
 21
174.0749931335448082
 31
0.0
210
0.0
220
1.0
230
0.0
  0
LINE
  5
19F88
  8
0
  6
VERDECKT
 62
     1
 10
180.0862405037040048
 20
182.0749931335448082
 30
0.0
 11
180.3821867267353127
 21
182.0749931335448082
 31
0.0
210
0.0
220
1.0
230
0.0
  0
LINE
  5
19F89
  8
0
  6
VERDECKT
 62
     1
 10
180.0862405037040048
 20
150.0749931335448082
 30
0.0
 11
180.3821867267353127
 21
150.0749931335448082
 31
0.0
210
0.0
220
1.0
230
0.0
  0
LINE
  5
19F8A
  8
0
  6
VERDECKT
 62
     1
 10
180.0862405037040048
 20
158.0749931335448082
 30
0.0
 11
180.0862405037040048
 21
150.0749931335448082
 31
0.0
210
0.0
220
1.0
230
0.0
  0
LINE
  5
19F8B
  8
0
  6
VERDECKT
 62
     1
 10
180.0862405037040048
 20
158.0749931335448082
 30
0.0
 11
180.3821867267353127
 21
158.0749931335448082
 31
0.0
210
0.0
220
1.0
230
0.0
  0
LINE
  5
19F8C
  8
0
  6
VERDECKT
 62
     1
 10
180.0862405037040048
 20
126.074993133544794
 30
0.0
 11
180.3821867267353127
 21
126.074993133544794
 31
0.0
210
0.0
220
1.0
230
0.0
  0
LINE
  5
19F8D
  8
0
  6
VERDECKT
 62
     1
 10
180.0862405037040048
 20
134.0749931335448082
 30
0.0
 11
180.0862405037040048
 21
126.074993133544794
 31
0.0
210
0.0
220
1.0
230
0.0
  0
LINE
  5
19F8E
  8
0
  6
VERDECKT
 62
     1
 10
180.0862405037040048
 20
134.0749931335448082
 30
0.0
 11
180.3821867267353127
 21
134.0749931335448082
 31
0.0
210
0.0
220
1.0
230
0.0
  0
LINE
  5
19F8F
  8
0
  6
VERDECKT
 62
     1
 10
180.0862405037040048
 20
102.074993133544794
 30
0.0
 11
180.3821867267353127
 21
102.074993133544794
 31
0.0
210
0.0
220
1.0
230
0.0
  0
LINE
  5
19F90
  8
0
  6
VERDECKT
 62
     1
 10
180.0862405037040048
 20
110.074993133544794
 30
0.0
 11
180.0862405037040048
 21
102.074993133544794
 31
0.0
210
0.0
220
1.0
230
0.0
  0
LINE
  5
19F91
  8
0
  6
VERDECKT
 62
     1
 10
180.0862405037040048
 20
110.074993133544794
 30
0.0
 11
180.3821867267353127
 21
110.074993133544794
 31
0.0
210
0.0
220
1.0
230
0.0
  0
LINE
  5
19F92
  8
0
  6
VERDECKT
 62
     1
 10
189.9073068099602892
 20
198.0749931335448082
 30
0.0
 11
190.5883928881389124
 21
198.0749931335448082
 31
0.0
210
0.0
220
1.0
230
0.0
  0
LINE
  5
19F93
  8
0
  6
VERDECKT
 62
     1
 10
189.9073068099602892
 20
206.0749931335448082
 30
0.0
 11
189.9073068099602892
 21
198.0749931335448082
 31
0.0
210
0.0
220
1.0
230
0.0
  0
LINE
  5
19F94
  8
0
  6
VERDECKT
 62
     1
 10
189.9073068099602892
 20
206.0749931335448082
 30
0.0
 11
190.5883928881389124
 21
206.0749931335448082
 31
0.0
210
0.0
220
1.0
230
0.0
  0
LINE
  5
19F95
  8
0
  6
VERDECKT
 62
     1
 10
189.9073068099602892
 20
174.0749931335448082
 30
0.0
 11
190.5883928881389124
 21
174.0749931335448082
 31
0.0
210
0.0
220
1.0
230
0.0
  0
LINE
  5
19F96
  8
0
  6
VERDECKT
 62
     1
 10
189.9073068099602892
 20
182.0749931335448082
 30
0.0
 11
189.9073068099602892
 21
174.0749931335448082
 31
0.0
210
0.0
220
1.0
230
0.0
  0
LINE
  5
19F97
  8
0
  6
VERDECKT
 62
     1
 10
189.9073068099602892
 20
182.0749931335448082
 30
0.0
 11
190.5883928881389124
 21
182.0749931335448082
 31
0.0
210
0.0
220
1.0
230
0.0
  0
LINE
  5
19F98
  8
0
  6
VERDECKT
 62
     1
 10
189.9073068099602892
 20
150.0749931335448082
 30
0.0
 11
190.5883928881389124
 21
150.0749931335448082
 31
0.0
210
0.0
220
1.0
230
0.0
  0
LINE
  5
19F99
  8
0
  6
VERDECKT
 62
     1
 10
189.9073068099602892
 20
158.0749931335448082
 30
0.0
 11
189.9073068099602892
 21
150.0749931335448082
 31
0.0
210
0.0
220
1.0
230
0.0
  0
LINE
  5
19F9A
  8
0
  6
VERDECKT
 62
     1
 10
189.9073068099602892
 20
158.0749931335448082
 30
0.0
 11
190.5883928881389124
 21
158.0749931335448082
 31
0.0
210
0.0
220
1.0
230
0.0
  0
LINE
  5
19F9B
  8
0
  6
VERDECKT
 62
     1
 10
189.9073068099602892
 20
126.074993133544794
 30
0.0
 11
190.5883928881389124
 21
126.074993133544794
 31
0.0
210
0.0
220
1.0
230
0.0
  0
LINE
  5
19F9C
  8
0
  6
VERDECKT
 62
     1
 10
189.9073068099602892
 20
134.0749931335448082
 30
0.0
 11
189.9073068099602892
 21
126.074993133544794
 31
0.0
210
0.0
220
1.0
230
0.0
  0
LINE
  5
19F9D
  8
0
  6
VERDECKT
 62
     1
 10
189.9073068099602892
 20
134.0749931335448082
 30
0.0
 11
190.5883928881389124
 21
134.0749931335448082
 31
0.0
210
0.0
220
1.0
230
0.0
  0
LINE
  5
19F9E
  8
0
  6
VERDECKT
 62
     1
 10
189.9073068099602892
 20
102.074993133544794
 30
0.0
 11
190.5883928881389124
 21
102.074993133544794
 31
0.0
210
0.0
220
1.0
230
0.0
  0
LINE
  5
19F9F
  8
0
  6
VERDECKT
 62
     1
 10
189.9073068099602892
 20
110.074993133544794
 30
0.0
 11
189.9073068099602892
 21
102.074993133544794
 31
0.0
210
0.0
220
1.0
230
0.0
  0
LINE
  5
19FA0
  8
0
  6
VERDECKT
 62
     1
 10
189.9073068099602892
 20
110.074993133544794
 30
0.0
 11
190.5883928881389124
 21
110.074993133544794
 31
0.0
210
0.0
220
1.0
230
0.0
  0
LINE
  5
19FA1
  8
0
  6
VERDECKT
 62
     1
 10
196.2884881219424074
 20
198.0749931335448082
 30
0.0
 11
197.2198166045124879
 21
198.0749931335448082
 31
0.0
210
0.0
220
1.0
230
0.0
  0
LINE
  5
19FA2
  8
0
  6
VERDECKT
 62
     1
 10
196.2884881219422937
 20
206.0749931335448082
 30
0.0
 11
196.2884881219422937
 21
198.0749931335448082
 31
0.0
210
0.0
220
1.0
230
0.0
  0
LINE
  5
19FA3
  8
0
  6
VERDECKT
 62
     1
 10
196.2884881219424074
 20
206.0749931335448082
 30
0.0
 11
197.2198166045124879
 21
206.0749931335448082
 31
0.0
210
0.0
220
1.0
230
0.0
  0
LINE
  5
19FA4
  8
0
  6
VERDECKT
 62
     1
 10
164.6970369060773862
 20
138.0749931335448082
 30
0.0
 11
164.9929831291086089
 21
138.0749931335448082
 31
0.0
210
0.0
220
1.0
230
0.0
  0
LINE
  5
19FA5
  8
0
  6
VERDECKT
 62
     1
 10
164.6970369060773862
 20
146.0749931335448082
 30
0.0
 11
164.9929831291086089
 21
146.0749931335448082
 31
0.0
210
0.0
220
1.0
230
0.0
  0
LINE
  5
19FA6
  8
0
  6
VERDECKT
 62
     1
 10
164.9929831291086089
 20
138.0749931335448082
 30
0.0
 11
164.9929831291086089
 21
146.0749931335448082
 31
0.0
210
0.0
220
1.0
230
0.0
  0
LINE
  5
19FA7
  8
0
  6
VERDECKT
 62
     1
 10
164.6970369060773862
 20
114.074993133544794
 30
0.0
 11
164.9929831291086089
 21
114.074993133544794
 31
0.0
210
0.0
220
1.0
230
0.0
  0
LINE
  5
19FA8
  8
0
  6
VERDECKT
 62
     1
 10
164.6970369060773862
 20
122.074993133544794
 30
0.0
 11
164.9929831291086089
 21
122.074993133544794
 31
0.0
210
0.0
220
1.0
230
0.0
  0
LINE
  5
19FA9
  8
0
  6
VERDECKT
 62
     1
 10
164.9929831291086089
 20
114.074993133544794
 30
0.0
 11
164.9929831291086089
 21
122.074993133544794
 31
0.0
210
0.0
220
1.0
230
0.0
  0
LINE
  5
19FAA
  8
0
  6
VERDECKT
 62
     1
 10
154.4908307446737865
 20
114.074993133544794
 30
0.0
 11
155.1719168228524097
 21
114.074993133544794
 31
0.0
210
0.0
220
1.0
230
0.0
  0
LINE
  5
19FAB
  8
0
  6
VERDECKT
 62
     1
 10
154.4908307446737865
 20
122.074993133544794
 30
0.0
 11
155.1719168228524097
 21
122.074993133544794
 31
0.0
210
0.0
220
1.0
230
0.0
  0
LINE
  5
19FAC
  8
0
  6
VERDECKT
 62
     1
 10
155.1719168228524097
 20
114.074993133544794
 30
0.0
 11
155.1719168228524097
 21
122.074993133544794
 31
0.0
210
0.0
220
1.0
230
0.0
  0
LINE
  5
19FAD
  8
0
  6
VERDECKT
 62
     1
 10
164.6970369060773862
 20
210.0749931335448082
 30
0.0
 11
164.9929831291086089
 21
210.0749931335448082
 31
0.0
210
0.0
220
1.0
230
0.0
  0
LINE
  5
19FAE
  8
0
  6
VERDECKT
 62
     1
 10
164.6970369060773862
 20
218.0749931335448082
 30
0.0
 11
164.9929831291086089
 21
218.0749931335448082
 31
0.0
210
0.0
220
1.0
230
0.0
  0
LINE
  5
19FAF
  8
0
  6
VERDECKT
 62
     1
 10
164.9929831291086089
 20
210.0749931335448082
 30
0.0
 11
164.9929831291086089
 21
218.0749931335448082
 31
0.0
210
0.0
220
1.0
230
0.0
  0
LINE
  5
19FB0
  8
0
  6
VERDECKT
 62
     1
 10
164.6970369060773862
 20
186.0749931335448082
 30
0.0
 11
164.9929831291086089
 21
186.0749931335448082
 31
0.0
210
0.0
220
1.0
230
0.0
  0
LINE
  5
19FB1
  8
0
  6
VERDECKT
 62
     1
 10
164.6970369060773862
 20
194.0749931335448082
 30
0.0
 11
164.9929831291086089
 21
194.0749931335448082
 31
0.0
210
0.0
220
1.0
230
0.0
  0
LINE
  5
19FB2
  8
0
  6
VERDECKT
 62
     1
 10
164.9929831291086089
 20
186.0749931335448082
 30
0.0
 11
164.9929831291086089
 21
194.0749931335448082
 31
0.0
210
0.0
220
1.0
230
0.0
  0
LINE
  5
19FB3
  8
0
  6
VERDECKT
 62
     1
 10
164.6970369060773862
 20
162.0749931335448082
 30
0.0
 11
164.9929831291086089
 21
162.0749931335448082
 31
0.0
210
0.0
220
1.0
230
0.0
  0
LINE
  5
19FB4
  8
0
  6
VERDECKT
 62
     1
 10
164.6970369060773862
 20
170.0749931335448082
 30
0.0
 11
164.9929831291086089
 21
170.0749931335448082
 31
0.0
210
0.0
220
1.0
230
0.0
  0
LINE
  5
19FB5
  8
0
  6
VERDECKT
 62
     1
 10
164.9929831291086089
 20
162.0749931335448082
 30
0.0
 11
164.9929831291086089
 21
170.0749931335448082
 31
0.0
210
0.0
220
1.0
230
0.0
  0
LINE
  5
19FB6
  8
0
  6
VERDECKT
 62
     1
 10
154.4908307446737865
 20
210.0749931335448082
 30
0.0
 11
155.1719168228524097
 21
210.0749931335448082
 31
0.0
210
0.0
220
1.0
230
0.0
  0
LINE
  5
19FB7
  8
0
  6
VERDECKT
 62
     1
 10
154.4908307446737865
 20
218.0749931335448082
 30
0.0
 11
155.1719168228524097
 21
218.0749931335448082
 31
0.0
210
0.0
220
1.0
230
0.0
  0
LINE
  5
19FB8
  8
0
  6
VERDECKT
 62
     1
 10
155.1719168228524097
 20
210.0749931335448082
 30
0.0
 11
155.1719168228524097
 21
218.0749931335448082
 31
0.0
210
0.0
220
1.0
230
0.0
  0
LINE
  5
19FB9
  8
0
  6
VERDECKT
 62
     1
 10
154.4908307446737865
 20
186.0749931335448082
 30
0.0
 11
155.1719168228524097
 21
186.0749931335448082
 31
0.0
210
0.0
220
1.0
230
0.0
  0
LINE
  5
19FBA
  8
0
  6
VERDECKT
 62
     1
 10
154.4908307446737865
 20
194.0749931335448082
 30
0.0
 11
155.1719168228524097
 21
194.0749931335448082
 31
0.0
210
0.0
220
1.0
230
0.0
  0
LINE
  5
19FBB
  8
0
  6
VERDECKT
 62
     1
 10
155.1719168228524097
 20
186.0749931335448082
 30
0.0
 11
155.1719168228524097
 21
194.0749931335448082
 31
0.0
210
0.0
220
1.0
230
0.0
  0
LINE
  5
19FBC
  8
0
  6
VERDECKT
 62
     1
 10
154.4908307446737865
 20
162.0749931335448082
 30
0.0
 11
155.1719168228524097
 21
162.0749931335448082
 31
0.0
210
0.0
220
1.0
230
0.0
  0
LINE
  5
19FBD
  8
0
  6
VERDECKT
 62
     1
 10
154.4908307446737865
 20
170.0749931335448082
 30
0.0
 11
155.1719168228524097
 21
170.0749931335448082
 31
0.0
210
0.0
220
1.0
230
0.0
  0
LINE
  5
19FBE
  8
0
  6
VERDECKT
 62
     1
 10
155.1719168228524097
 20
162.0749931335448082
 30
0.0
 11
155.1719168228524097
 21
170.0749931335448082
 31
0.0
210
0.0
220
1.0
230
0.0
  0
LINE
  5
19FBF
  8
0
  6
VERDECKT
 62
     1
 10
154.4908307446737865
 20
138.0749931335448082
 30
0.0
 11
155.1719168228524097
 21
138.0749931335448082
 31
0.0
210
0.0
220
1.0
230
0.0
  0
LINE
  5
19FC0
  8
0
  6
VERDECKT
 62
     1
 10
154.4908307446737865
 20
146.0749931335448082
 30
0.0
 11
155.1719168228524097
 21
146.0749931335448082
 31
0.0
210
0.0
220
1.0
230
0.0
  0
LINE
  5
19FC1
  8
0
  6
VERDECKT
 62
     1
 10
155.1719168228524097
 20
138.0749931335448082
 30
0.0
 11
155.1719168228524097
 21
146.0749931335448082
 31
0.0
210
0.0
220
1.0
230
0.0
  0
LINE
  5
19FC2
  8
0
  6
VERDECKT
 62
     1
 10
196.2884881219424074
 20
174.0749931335448082
 30
0.0
 11
197.2198166045124879
 21
174.0749931335448082
 31
0.0
210
0.0
220
1.0
230
0.0
  0
LINE
  5
19FC3
  8
0
  6
VERDECKT
 62
     1
 10
196.2884881219422937
 20
182.0749931335448082
 30
0.0
 11
196.2884881219422937
 21
174.0749931335448082
 31
0.0
210
0.0
220
1.0
230
0.0
  0
LINE
  5
19FC4
  8
0
  6
VERDECKT
 62
     1
 10
196.2884881219424074
 20
182.0749931335448082
 30
0.0
 11
197.2198166045124879
 21
182.0749931335448082
 31
0.0
210
0.0
220
1.0
230
0.0
  0
LINE
  5
19FC5
  8
0
  6
VERDECKT
 62
     1
 10
196.2884881219424074
 20
150.0749931335448082
 30
0.0
 11
197.2198166045124879
 21
150.0749931335448082
 31
0.0
210
0.0
220
1.0
230
0.0
  0
LINE
  5
19FC6
  8
0
  6
VERDECKT
 62
     1
 10
196.2884881219422937
 20
158.0749931335448082
 30
0.0
 11
196.2884881219422937
 21
150.0749931335448082
 31
0.0
210
0.0
220
1.0
230
0.0
  0
LINE
  5
19FC7
  8
0
  6
VERDECKT
 62
     1
 10
196.2884881219424074
 20
158.0749931335448082
 30
0.0
 11
197.2198166045124879
 21
158.0749931335448082
 31
0.0
210
0.0
220
1.0
230
0.0
  0
LINE
  5
19FC8
  8
0
  6
VERDECKT
 62
     1
 10
196.2884881219424074
 20
126.074993133544794
 30
0.0
 11
197.2198166045124879
 21
126.074993133544794
 31
0.0
210
0.0
220
1.0
230
0.0
  0
LINE
  5
19FC9
  8
0
  6
VERDECKT
 62
     1
 10
196.2884881219422937
 20
134.0749931335448082
 30
0.0
 11
196.2884881219422937
 21
126.074993133544794
 31
0.0
210
0.0
220
1.0
230
0.0
  0
LINE
  5
19FCA
  8
0
  6
VERDECKT
 62
     1
 10
196.2884881219424074
 20
134.0749931335448082
 30
0.0
 11
197.2198166045124879
 21
134.0749931335448082
 31
0.0
210
0.0
220
1.0
230
0.0
  0
LINE
  5
19FCB
  8
0
  6
VERDECKT
 62
     1
 10
196.2884881219424074
 20
102.074993133544794
 30
0.0
 11
197.2198166045124879
 21
102.074993133544794
 31
0.0
210
0.0
220
1.0
230
0.0
  0
LINE
  5
19FCC
  8
0
  6
VERDECKT
 62
     1
 10
196.2884881219422937
 20
110.074993133544794
 30
0.0
 11
196.2884881219422937
 21
102.074993133544794
 31
0.0
210
0.0
220
1.0
230
0.0
  0
LINE
  5
19FCD
  8
0
  6
VERDECKT
 62
     1
 10
196.2884881219424074
 20
110.074993133544794
 30
0.0
 11
197.2198166045124879
 21
110.074993133544794
 31
0.0
210
0.0
220
1.0
230
0.0
  0
LINE
  5
19FCE
  8
0
  6
VERDECKT
 62
     1
 10
147.3819703470159936
 20
97.1618172223783745
 30
0.0
 11
197.6972532857963927
 21
97.1618172223783745
 31
0.0
210
0.0
220
1.0
230
0.0
  0
LINE
  5
19FCF
  8
0
  6
VERDECKT
 62
     1
 10
147.0396118164061932
 20
101.0749931335448935
 30
0.0
 11
147.0396118164061932
 21
222.0749931335448082
 31
0.0
210
0.0
220
1.0
230
0.0
  0
LINE
  5
19FD0
  8
0
  6
VERDECKT
 62
     1
 10
198.0396118164061932
 20
101.0749931335448935
 30
0.0
 11
198.0396118164061932
 21
222.0749931335448082
 31
0.0
210
0.0
220
1.0
230
0.0
  0
LINE
  5
19FD1
  8
0
  6
VERDECKT
 62
     1
 10
197.6972532857963927
 20
97.1618172223783745
 30
0.0
 11
198.6896571623026091
 21
97.0749931335448935
 31
0.0
210
0.0
220
1.0
230
0.0
  0
LINE
  5
19FD2
  8
0
  6
VERDECKT
 62
     1
 10
147.3819703470159936
 20
97.1618172223783745
 30
0.0
 11
146.3895664705098056
 21
97.0749931335448935
 31
0.0
210
0.0
220
1.0
230
0.0
  0
LINE
  5
19FD3
  8
0
  6
VERDECKT
 62
     1
 10
147.3819703470159936
 20
97.1618172223783745
 30
0.0
 11
147.0396118164061932
 21
101.0749931335448935
 31
0.0
210
0.0
220
1.0
230
0.0
  0
LINE
  5
19FD4
  8
0
  6
VERDECKT
 62
     1
 10
197.6972532857963927
 20
97.1618172223783745
 30
0.0
 11
198.0396118164061932
 21
101.0749931335448935
 31
0.0
210
0.0
220
1.0
230
0.0
  0
ENDBLK
  5
19FD6
  8
0
  0
BLOCK
  8
0
  2
A$C5D8B0B9D
 70
     0
 10
0.0
 20
0.0
 30
0.0
  3
A$C5D8B0B9D
  1

  0
LINE
  5
19FDA
  8
0
  6
CONTINUOUS
 62
     3
 10
113.0170895974149943
 20
-322.5879381000410149
 30
0.0
 11
109.8600172435962037
 21
-322.5879381000410149
 31
0.0
  0
ARC
  5
19FDB
  8
0
  6
CONTINUOUS
 62
     3
 10
89.8600172435962179
 20
-326.5879381000410149
 30
0.0
 40
23.4999999999999396
 50
350.1998100548873936
 51
9.8001899451123293
  0
LINE
  5
19FDC
  8
0
  6
CONTINUOUS
 62
     3
 10
109.8600172435962037
 20
-330.5879381000409012
 30
0.0
 11
113.0170895974149943
 21
-330.5879381000409012
 31
0.0
  0
LINE
  5
19FDD
  8
0
  6
CONTINUOUS
 62
     3
 10
109.8600172435962037
 20
-322.5879381000410717
 30
0.0
 11
109.8600172435962037
 21
-330.5879381000410717
 31
0.0
  0
ARC
  5
19FDE
  8
0
  6
CONTINUOUS
 62
     3
 10
89.8600172435964168
 20
-326.5879381000409012
 30
0.0
 40
23.4999999999997513
 50
19.9028018866712806
 51
31.6724334264164185
  0
LINE
  5
19FDF
  8
0
  6
CONTINUOUS
 62
     3
 10
109.8600172435962037
 20
-318.5879381000410149
 30
0.0
 11
111.9563970375805013
 21
-318.5879381000410149
 31
0.0
  0
LINE
  5
19FE0
  8
0
  6
CONTINUOUS
 62
     3
 10
109.8600172435962037
 20
-314.2489754207879855
 30
0.0
 11
109.8600172435962037
 21
-318.5879381000411854
 31
0.0
  0
LINE
  5
19FE1
  8
0
  6
CONTINUOUS
 62
     3
 10
93.8600172435962037
 20
-346.5879381000410149
 30
0.0
 11
85.8600172435961753
 21
-346.5879381000410149
 31
0.0
  0
LINE
  5
19FE2
  8
0
  6
CONTINUOUS
 62
     3
 10
93.8600172435962037
 20
-349.7450104538598907
 30
0.0
 11
93.8600172435962037
 21
-346.5879381000410717
 31
0.0
  0
ARC
  5
19FE3
  8
0
  6
CONTINUOUS
 62
     3
 10
89.8600172435961895
 20
-326.5879381000409012
 30
0.0
 40
23.5000000000000817
 50
260.1998100548875072
 51
279.8001899451124928
  0
LINE
  5
19FE4
  8
0
  6
CONTINUOUS
 62
     3
 10
85.8600172435961753
 20
-346.5879381000410717
 30
0.0
 11
85.8600172435961753
 21
-349.7450104538600044
 31
0.0
  0
LINE
  5
19FE5
  8
0
  6
CONTINUOUS
 62
     3
 10
81.8600172435961753
 20
-346.5879381000410149
 30
0.0
 11
77.5210545643431317
 21
-346.5879381000410149
 31
0.0
  0
LINE
  5
19FE6
  8
0
  6
CONTINUOUS
 62
     3
 10
81.8600172435961753
 20
-348.684317894025412
 30
0.0
 11
81.8600172435961753
 21
-346.5879381000410717
 31
0.0
  0
ARC
  5
19FE7
  8
0
  6
CONTINUOUS
 62
     3
 10
89.8600172435960332
 20
-326.5879381000412991
 30
0.0
 40
23.4999999999996483
 50
238.3275665735835958
 51
250.0971981133286874
  0
LINE
  5
19FE8
  8
0
  6
CONTINUOUS
 62
     3
 10
105.8600172435962037
 20
-310.5879381000410149
 30
0.0
 11
97.8600172435962037
 21
-310.5879381000410149
 31
0.0
  0
LINE
  5
19FE9
  8
0
  6
CONTINUOUS
 62
     3
 10
105.8600172435963032
 20
-318.5879381000411854
 30
0.0
 11
105.8600172435962037
 21
-310.5879381000410717
 31
0.0
  0
LINE
  5
19FEA
  8
0
  6
CONTINUOUS
 62
     3
 10
97.8600172435962037
 20
-318.5879381000410149
 30
0.0
 11
105.8600172435963032
 21
-318.5879381000410149
 31
0.0
  0
LINE
  5
19FEB
  8
0
  6
CONTINUOUS
 62
     3
 10
97.8600172435962037
 20
-310.5879381000410717
 30
0.0
 11
97.8600172435962037
 21
-318.5879381000411854
 31
0.0
  0
LINE
  5
19FEC
  8
0
  6
CONTINUOUS
 62
     3
 10
85.8600172435961753
 20
-303.4308657462223096
 30
0.0
 11
85.8600172435961753
 21
-306.5879381000410717
 31
0.0
  0
ARC
  5
19FED
  8
0
  6
CONTINUOUS
 62
     3
 10
89.8600172435961895
 20
-326.5879381000410149
 30
0.0
 40
23.5000000000000284
 50
80.1998100548875357
 51
99.8001899451124643
  0
LINE
  5
19FEE
  8
0
  6
CONTINUOUS
 62
     3
 10
93.8600172435962037
 20
-306.5879381000410717
 30
0.0
 11
93.8600172435962037
 21
-303.4308657462223096
 31
0.0
  0
LINE
  5
19FEF
  8
0
  6
CONTINUOUS
 62
     3
 10
85.8600172435961753
 20
-306.5879381000410149
 30
0.0
 11
93.8600172435962037
 21
-306.5879381000410149
 31
0.0
  0
LINE
  5
19FF0
  8
0
  6
CONTINUOUS
 62
     3
 10
81.8600172435961753
 20
-334.5879381000409012
 30
0.0
 11
73.8600172435963316
 21
-334.5879381000409012
 31
0.0
  0
LINE
  5
19FF1
  8
0
  6
CONTINUOUS
 62
     3
 10
81.8600172435961753
 20
-342.5879381000410717
 30
0.0
 11
81.8600172435961753
 21
-334.5879381000410717
 31
0.0
  0
LINE
  5
19FF2
  8
0
  6
CONTINUOUS
 62
     3
 10
73.8600172435962179
 20
-342.5879381000410149
 30
0.0
 11
81.8600172435962179
 21
-342.5879381000410149
 31
0.0
  0
LINE
  5
19FF3
  8
0
  6
CONTINUOUS
 62
     3
 10
73.8600172435963032
 20
-334.5879381000410717
 30
0.0
 11
73.8600172435961895
 21
-342.5879381000410717
 31
0.0
  0
LINE
  5
19FF4
  8
0
  6
CONTINUOUS
 62
     3
 10
69.8600172435963316
 20
-334.5879381000409012
 30
0.0
 11
67.7636374496118492
 21
-334.5879381000409012
 31
0.0
  0
LINE
  5
19FF5
  8
0
  6
CONTINUOUS
 62
     3
 10
69.8600172435963032
 20
-338.9269007792942716
 30
0.0
 11
69.8600172435963032
 21
-334.5879381000410717
 31
0.0
  0
ARC
  5
19FF6
  8
0
  6
CONTINUOUS
 62
     3
 10
89.8600172435962037
 20
-326.5879381000410149
 30
0.0
 40
23.5000000000000391
 50
199.9028018866723073
 51
211.6724334264175127
  0
LINE
  5
19FF7
  8
0
  6
CONTINUOUS
 62
     3
 10
81.8600172435962179
 20
-322.5879381000410149
 30
0.0
 11
73.8600172435963316
 21
-322.5879381000410149
 31
0.0
  0
LINE
  5
19FF8
  8
0
  6
CONTINUOUS
 62
     3
 10
81.8600172435961753
 20
-330.5879381000410717
 30
0.0
 11
81.8600172435961753
 21
-322.5879381000410717
 31
0.0
  0
LINE
  5
19FF9
  8
0
  6
CONTINUOUS
 62
     3
 10
73.8600172435961895
 20
-330.5879381000409012
 30
0.0
 11
81.8600172435961753
 21
-330.5879381000409012
 31
0.0
  0
LINE
  5
19FFA
  8
0
  6
CONTINUOUS
 62
     3
 10
73.8600172435963032
 20
-322.5879381000410717
 30
0.0
 11
73.8600172435961895
 21
-330.5879381000410717
 31
0.0
  0
LINE
  5
19FFB
  8
0
  6
CONTINUOUS
 62
     3
 10
69.8600172435963032
 20
-322.5879381000410149
 30
0.0
 11
66.7029448897773705
 21
-322.5879381000410149
 31
0.0
  0
LINE
  5
19FFC
  8
0
  6
CONTINUOUS
 62
     3
 10
69.8600172435963032
 20
-330.5879381000410717
 30
0.0
 11
69.8600172435963032
 21
-322.5879381000410717
 31
0.0
  0
LINE
  5
19FFD
  8
0
  6
CONTINUOUS
 62
     3
 10
66.7029448897773705
 20
-330.5879381000409012
 30
0.0
 11
69.8600172435963316
 21
-330.5879381000409012
 31
0.0
  0
ARC
  5
19FFE
  8
0
  6
CONTINUOUS
 62
     3
 10
89.8600172435960758
 20
-326.5879381000410149
 30
0.0
 40
23.4999999999999183
 50
170.1998100548877062
 51
189.8001899451132033
  0
LINE
  5
19FFF
  8
0
  6
CONTINUOUS
 62
     3
 10
69.8600172435963032
 20
-318.5879381000411854
 30
0.0
 11
69.8600172435963032
 21
-314.248975420787815
 31
0.0
  0
LINE
  5
1A000
  8
0
  6
CONTINUOUS
 62
     3
 10
67.7636374496118492
 20
-318.5879381000410149
 30
0.0
 11
69.8600172435963316
 21
-318.5879381000410149
 31
0.0
  0
ARC
  5
1A001
  8
0
  6
CONTINUOUS
 62
     3
 10
89.8600172435963316
 20
-326.5879381000410717
 30
0.0
 40
23.5000000000001705
 50
148.3275665735835105
 51
160.0971981133286874
  0
LINE
  5
1A002
  8
0
  6
CONTINUOUS
 62
     3
 10
81.8600172435961753
 20
-310.5879381000410149
 30
0.0
 11
73.8600172435961895
 21
-310.5879381000410149
 31
0.0
  0
LINE
  5
1A003
  8
0
  6
CONTINUOUS
 62
     3
 10
81.8600172435961753
 20
-318.5879381000411854
 30
0.0
 11
81.8600172435961753
 21
-310.5879381000410717
 31
0.0
  0
LINE
  5
1A004
  8
0
  6
CONTINUOUS
 62
     3
 10
73.8600172435963316
 20
-318.5879381000410149
 30
0.0
 11
81.8600172435961753
 21
-318.5879381000410149
 31
0.0
  0
LINE
  5
1A005
  8
0
  6
CONTINUOUS
 62
     3
 10
73.8600172435961895
 20
-310.5879381000410717
 30
0.0
 11
73.8600172435963032
 21
-318.5879381000411854
 31
0.0
  0
ARC
  5
1A006
  8
0
  6
CONTINUOUS
 62
     3
 10
89.8600172435962037
 20
-326.5879381000410717
 30
0.0
 40
23.5000000000000888
 50
109.9028018866715968
 51
121.6724334264171006
  0
LINE
  5
1A007
  8
0
  6
CONTINUOUS
 62
     3
 10
81.8600172435961753
 20
-306.5879381000410717
 30
0.0
 11
81.8600172435961753
 21
-304.4915583060566746
 31
0.0
  0
LINE
  5
1A008
  8
0
  6
CONTINUOUS
 62
     3
 10
77.521054564343018
 20
-306.5879381000410149
 30
0.0
 11
81.8600172435961753
 21
-306.5879381000410149
 31
0.0
  0
LINE
  5
1A009
  8
0
  6
CONTINUOUS
 62
     3
 10
93.8600172435962037
 20
-310.5879381000410149
 30
0.0
 11
85.8600172435961753
 21
-310.5879381000410149
 31
0.0
  0
LINE
  5
1A00A
  8
0
  6
CONTINUOUS
 62
     3
 10
93.8600172435962037
 20
-318.5879381000411854
 30
0.0
 11
93.8600172435962037
 21
-310.5879381000410717
 31
0.0
  0
LINE
  5
1A00B
  8
0
  6
CONTINUOUS
 62
     3
 10
85.8600172435961753
 20
-318.5879381000410149
 30
0.0
 11
93.8600172435962037
 21
-318.5879381000410149
 31
0.0
  0
LINE
  5
1A00C
  8
0
  6
CONTINUOUS
 62
     3
 10
85.8600172435961753
 20
-310.5879381000410717
 30
0.0
 11
85.8600172435961753
 21
-318.5879381000411854
 31
0.0
  0
LINE
  5
1A00D
  8
0
  6
CONTINUOUS
 62
     3
 10
93.8600172435962037
 20
-322.5879381000410149
 30
0.0
 11
85.8600172435961753
 21
-322.5879381000410149
 31
0.0
  0
LINE
  5
1A00E
  8
0
  6
CONTINUOUS
 62
     3
 10
93.8600172435962037
 20
-330.5879381000410717
 30
0.0
 11
93.8600172435962037
 21
-322.5879381000410717
 31
0.0
  0
LINE
  5
1A00F
  8
0
  6
CONTINUOUS
 62
     3
 10
85.8600172435961753
 20
-330.5879381000409012
 30
0.0
 11
93.8600172435962037
 21
-330.5879381000409012
 31
0.0
  0
LINE
  5
1A010
  8
0
  6
CONTINUOUS
 62
     3
 10
85.8600172435961753
 20
-322.5879381000410717
 30
0.0
 11
85.8600172435961753
 21
-330.5879381000410717
 31
0.0
  0
LINE
  5
1A011
  8
0
  6
CONTINUOUS
 62
     3
 10
93.8600172435962037
 20
-334.5879381000409012
 30
0.0
 11
85.8600172435961753
 21
-334.5879381000409012
 31
0.0
  0
LINE
  5
1A012
  8
0
  6
CONTINUOUS
 62
     3
 10
93.8600172435962037
 20
-342.5879381000410717
 30
0.0
 11
93.8600172435962037
 21
-334.5879381000410717
 31
0.0
  0
LINE
  5
1A013
  8
0
  6
CONTINUOUS
 62
     3
 10
85.8600172435961753
 20
-342.5879381000410149
 30
0.0
 11
93.8600172435962037
 21
-342.5879381000410149
 31
0.0
  0
LINE
  5
1A014
  8
0
  6
CONTINUOUS
 62
     3
 10
85.8600172435961753
 20
-334.5879381000410717
 30
0.0
 11
85.8600172435961753
 21
-342.5879381000410717
 31
0.0
  0
LINE
  5
1A015
  8
0
  6
CONTINUOUS
 62
     3
 10
105.8600172435963032
 20
-322.5879381000410149
 30
0.0
 11
97.8600172435962037
 21
-322.5879381000410149
 31
0.0
  0
LINE
  5
1A016
  8
0
  6
CONTINUOUS
 62
     3
 10
105.8600172435962037
 20
-330.5879381000410717
 30
0.0
 11
105.8600172435963032
 21
-322.5879381000410149
 31
0.0
  0
LINE
  5
1A017
  8
0
  6
CONTINUOUS
 62
     3
 10
97.8600172435962037
 20
-330.5879381000409012
 30
0.0
 11
105.8600172435962037
 21
-330.5879381000409012
 31
0.0
  0
LINE
  5
1A018
  8
0
  6
CONTINUOUS
 62
     3
 10
97.8600172435962037
 20
-322.5879381000410717
 30
0.0
 11
97.8600172435962037
 21
-330.5879381000410717
 31
0.0
  0
LINE
  5
1A019
  8
0
  6
CONTINUOUS
 62
     3
 10
97.8600172435962037
 20
-304.4915583060566746
 30
0.0
 11
97.8600172435962037
 21
-306.5879381000410717
 31
0.0
  0
ARC
  5
1A01A
  8
0
  6
CONTINUOUS
 62
     3
 10
89.8600172435962889
 20
-326.5879381000407875
 30
0.0
 40
23.4999999999998188
 50
58.3275665735835673
 51
70.0971981133284316
  0
LINE
  5
1A01B
  8
0
  6
CONTINUOUS
 62
     3
 10
97.8600172435962037
 20
-306.5879381000410149
 30
0.0
 11
102.1989799228492046
 21
-306.5879381000410149
 31
0.0
  0
LINE
  5
1A01C
  8
0
  6
CONTINUOUS
 62
     3
 10
105.8600172435963032
 20
-334.5879381000409012
 30
0.0
 11
97.8600172435962037
 21
-334.5879381000409012
 31
0.0
  0
LINE
  5
1A01D
  8
0
  6
CONTINUOUS
 62
     3
 10
105.8600172435962037
 20
-342.5879381000410717
 30
0.0
 11
105.8600172435963032
 21
-334.5879381000410149
 31
0.0
  0
LINE
  5
1A01E
  8
0
  6
CONTINUOUS
 62
     3
 10
97.8600172435962037
 20
-342.5879381000410149
 30
0.0
 11
105.8600172435962037
 21
-342.5879381000410149
 31
0.0
  0
LINE
  5
1A01F
  8
0
  6
CONTINUOUS
 62
     3
 10
97.8600172435962037
 20
-334.5879381000410717
 30
0.0
 11
97.8600172435962037
 21
-342.5879381000410717
 31
0.0
  0
LINE
  5
1A020
  8
0
  6
CONTINUOUS
 62
     3
 10
102.1989799228492046
 20
-346.5879381000410149
 30
0.0
 11
97.8600172435962037
 21
-346.5879381000410149
 31
0.0
  0
ARC
  5
1A021
  8
0
  6
CONTINUOUS
 62
     3
 10
89.8600172435962889
 20
-326.5879381000410717
 30
0.0
 40
23.4999999999998295
 50
289.9028018866716252
 51
301.6724334264163758
  0
LINE
  5
1A022
  8
0
  6
CONTINUOUS
 62
     3
 10
97.8600172435962037
 20
-346.5879381000410717
 30
0.0
 11
97.8600172435962037
 21
-348.684317894025412
 31
0.0
  0
LINE
  5
1A023
  8
0
  6
CONTINUOUS
 62
     3
 10
111.9563970375805013
 20
-334.5879381000409012
 30
0.0
 11
109.8600172435962037
 21
-334.5879381000409012
 31
0.0
  0
ARC
  5
1A024
  8
0
  6
CONTINUOUS
 62
     3
 10
89.8600172435965732
 20
-326.5879381000411854
 30
0.0
 40
23.4999999999995595
 50
328.3275665735828852
 51
340.0971981133284885
  0
LINE
  5
1A025
  8
0
  6
CONTINUOUS
 62
     3
 10
109.8600172435962037
 20
-334.5879381000410717
 30
0.0
 11
109.8600172435962037
 21
-338.9269007792941011
 31
0.0
  0
CIRCLE
  5
1A026
  8
0
  6
CONTINUOUS
 62
     3
 10
89.8600172435961895
 20
-326.5879381000410149
 30
0.0
 40
26.5
  0
LINE
  5
1A027
  8
0
  6
VERDECKT
 62
     1
 10
82.3133885562984773
 20
-302.2302207304667832
 30
0.0
 11
82.0174423332672262
 21
-301.2750161277382972
 31
0.0
  0
LINE
  5
1A028
  8
0
  6
VERDECKT
 62
     1
 10
74.9593434092964799
 20
-304.6740174265555083
 30
0.0
 11
75.5216329879493173
 21
-305.5009578293285131
 31
0.0
  0
LINE
  5
1A029
  8
0
  6
VERDECKT
 62
     1
 10
72.4923222500420223
 20
-307.9167525294653274
 30
0.0
 11
71.8112361718634702
 21
-307.1845491737564089
 31
0.0
  0
LINE
  5
1A02A
  8
0
  6
VERDECKT
 62
     1
 10
66.9268801675864324
 20
-313.3093378781446177
 30
0.0
 11
67.7922815666811402
 21
-313.810417131800989
 31
0.0
  0
LINE
  5
1A02B
  8
0
  6
VERDECKT
 62
     1
 10
66.1111409380600321
 20
-317.3013416177798831
 30
0.0
 11
65.17981245548998
 21
-316.9371613635735798
 31
0.0
  0
LINE
  5
1A02C
  8
0
  6
VERDECKT
 62
     1
 10
63.4366059802490412
 20
-324.5746479550247159
 30
0.0
 11
64.4337158392432912
 21
-324.6506211680442107
 31
0.0
  0
LINE
  5
1A02D
  8
0
  6
VERDECKT
 62
     1
 10
115.286318647949102
 20
-324.6506211680439833
 30
0.0
 11
116.2834285069432951
 21
-324.5746479550244885
 31
0.0
  0
LINE
  5
1A02E
  8
0
  6
VERDECKT
 62
     1
 10
114.5402220317022994
 20
-316.937161363573523
 30
0.0
 11
113.6088935491323042
 21
-317.3013416177798263
 31
0.0
  0
LINE
  5
1A02F
  8
0
  6
VERDECKT
 62
     1
 10
113.6088935491324037
 20
-335.8745345823022035
 30
0.0
 11
114.5402220317023989
 21
-336.2387148365085068
 31
0.0
  0
LINE
  5
1A030
  8
0
  6
VERDECKT
 62
     1
 10
116.2834285069432951
 20
-328.6012282450574276
 30
0.0
 11
115.286318647949102
 21
-328.5252550320378759
 31
0.0
  0
LINE
  5
1A031
  8
0
  6
VERDECKT
 62
     1
 10
107.2277122371502998
 20
-345.2591236706167024
 30
0.0
 11
107.9087983153288945
 21
-345.9913270263256209
 31
0.0
  0
LINE
  5
1A032
  8
0
  6
VERDECKT
 62
     1
 10
112.7931543196060034
 20
-339.8665383219375258
 30
0.0
 11
111.9277529205112955
 21
-339.365459068280984
 31
0.0
  0
LINE
  5
1A033
  8
0
  6
VERDECKT
 62
     1
 10
97.4066459308939869
 20
-350.9456554696150761
 30
0.0
 11
97.7025921539252806
 21
-351.9008600723436189
 31
0.0
  0
LINE
  5
1A034
  8
0
  6
VERDECKT
 62
     1
 10
104.7606910778959985
 20
-348.5018587735265214
 30
0.0
 11
104.1984014992432037
 21
-347.6749183707535167
 31
0.0
  0
LINE
  5
1A035
  8
0
  6
VERDECKT
 62
     1
 10
86.0908772597912133
 20
-351.8078426157698004
 30
0.0
 11
85.9430678486615989
 21
-352.7968584791317994
 31
0.0
  0
LINE
  5
1A036
  8
0
  6
VERDECKT
 62
     1
 10
93.776966638530979
 20
-352.7968584791317994
 30
0.0
 11
93.6291572274013646
 21
-351.8078426157698004
 31
0.0
  0
LINE
  5
1A037
  8
0
  6
VERDECKT
 62
     1
 10
64.433715839243348
 20
-328.5252550320379896
 30
0.0
 11
63.4366059802491122
 21
-328.6012282450574276
 31
0.0
  0
LINE
  5
1A038
  8
0
  6
VERDECKT
 62
     1
 10
65.1798124554900937
 20
-336.2387148365086205
 30
0.0
 11
66.1111409380601458
 21
-335.8745345823022035
 31
0.0
  0
LINE
  5
1A039
  8
0
  6
VERDECKT
 62
     1
 10
75.5216329879494737
 20
-347.6749183707535735
 30
0.0
 11
74.9593434092966504
 21
-348.5018587735265783
 31
0.0
  0
LINE
  5
1A03A
  8
0
  6
VERDECKT
 62
     1
 10
82.0174423332673257
 20
-351.9008600723436757
 30
0.0
 11
82.3133885562986052
 21
-350.9456554696153034
 31
0.0
  0
LINE
  5
1A03B
  8
0
  6
VERDECKT
 62
     1
 10
67.7922815666813534
 20
-339.365459068281325
 30
0.0
 11
66.9268801675866456
 21
-339.8665383219376963
 31
0.0
  0
LINE
  5
1A03C
  8
0
  6
VERDECKT
 62
     1
 10
71.8112361718637686
 20
-345.9913270263259051
 30
0.0
 11
72.4923222500423208
 21
-345.2591236706168729
 31
0.0
  0
LINE
  5
1A03D
  8
0
  6
VERDECKT
 62
     1
 10
111.9277529205108976
 20
-313.8104171318008184
 30
0.0
 11
112.7931543196056055
 21
-313.3093378781442766
 31
0.0
  0
LINE
  5
1A03E
  8
0
  6
VERDECKT
 62
     1
 10
107.9087983153285961
 20
-307.1845491737561815
 30
0.0
 11
107.2277122371499019
 21
-307.9167525294652137
 31
0.0
  0
LINE
  5
1A03F
  8
0
  6
VERDECKT
 62
     1
 10
104.1984014992427063
 20
-305.5009578293283994
 30
0.0
 11
104.7606910778955012
 21
-304.6740174265553946
 31
0.0
  0
LINE
  5
1A040
  8
0
  6
VERDECKT
 62
     1
 10
97.7025921539249254
 20
-301.2750161277382972
 30
0.0
 11
97.4066459308936459
 21
-302.2302207304667832
 31
0.0
  0
LINE
  5
1A041
  8
0
  6
VERDECKT
 62
     1
 10
93.6291572274011656
 20
-301.3680335843121156
 30
0.0
 11
93.7769666385307659
 21
-300.3790177209502872
 31
0.0
  0
LINE
  5
1A042
  8
0
  6
VERDECKT
 62
     1
 10
85.9430678486613715
 20
-300.3790177209502872
 30
0.0
 11
86.0908772597909859
 21
-301.3680335843121156
 31
0.0
  0
CIRCLE
  5
1A043
  8
0
  6
VERDECKT
 62
     1
 10
89.8600172435961895
 20
-326.5879381000410149
 30
0.0
 40
25.5
  0
CIRCLE
  5
1A044
  8
0
  6
VERDECKT
 62
     1
 10
89.8600172435961895
 20
-326.5879381000410149
 30
0.0
 40
26.1500453458963911
  0
CIRCLE
  5
1A045
  8
0
  6
VERDECKT
 62
     1
 10
89.8600172435961895
 20
-326.5879381000410149
 30
0.0
 40
25.1576414693902315
  0
ENDBLK
  5
1A047
  8
0
  0
ENDSEC
  0
SECTION
  2
ENTITIES
  0
TEXT
  5
8F
  8
VOLL
 10
78.076754716981128
 20
31.025947764705851
 30
0.0
 40
1.8
  1

  7
GREEKS
  0
INSERT
  5
18CC0
  8
ADSK_ASSOC_ENTITY_BACKUPS
 62
     3
  2
*S20
 10
0.0
 20
0.0
 30
0.0
  0
INSERT
  5
1A0BA
  8
MITTEL
  2
A$C6C98571B
 10
-146.0396125368461924
 20
-18.3382302965198392
 30
0.0
  0
INSERT
  5
1A0BB
  8
MITTEL
  2
A$C5D8B0B9D
 10
-63.3600179640361603
 20
353.0879383190426779
 30
0.0
  0
VIEWPORT
  5
18C0A
 67
     1
  8
0
 62
     3
 10
211.5900867958008007
 20
69.8344742280831383
 30
0.0
 40
1228.5787473689269973
 41
480.2923849714259745
 68
     1
 69
     1
1001
ACAD
1000
MVIEW
1002
{
1070
    16
1010
0.0
1020
0.0
1030
0.0
1010
0.0
1020
0.0
1030
1.0
1040
0.0
1040
480.2923849714259745
1040
211.5900867958008007
1040
69.8344742280831383
1040
50.0
1040
0.0
1040
0.0
1070
     0
1070
  1500
1070
     1
1070
     1
1070
     0
1070
     0
1070
     0
1070
     0
1040
0.0
1040
0.0
1040
0.0
1040
10.0
1040
10.0
1040
10.0
1040
10.0
1070
     0
1002
{
1002
}
1002
}
  0
ENDSEC
  0
EOF
