  0
SECTION
  2
HEADER
  9
$ACADVER
  1
AC1009
  9
$INSBASE
 10
0.0
 20
0.0
 30
0.0
  9
$EXTMIN
 10
-0.0064082024693448
 20
-0.0090630292066862
 30
-0.0091559154560059
  9
$EXTMAX
 10
42.0025637699321166
 20
156.7479863680759138
 30
0.0028027580718231
  9
$LIMMIN
 10
0.0
 20
0.0
  9
$LIMMAX
 10
210.0
 20
297.0
  9
$ORTHOMODE
 70
     1
  9
$REGENMODE
 70
     1
  9
$FILLMODE
 70
     1
  9
$QTEXTMODE
 70
     0
  9
$MIRRTEXT
 70
     1
  9
$DRAGMODE
 70
     2
  9
$LTSCALE
 40
10.0
  9
$OSMODE
 70
    39
  9
$ATTMODE
 70
     1
  9
$TEXTSIZE
 40
3.5
  9
$TRACEWID
 40
0.5
  9
$TEXTSTYLE
  7
STANDARD
  9
$CLAYER
  8
0
  9
$CELTYPE
  6
BYLAYER
  9
$CECOLOR
 62
     6
  9
$DIMSCALE
 40
1.0
  9
$DIMASZ
 40
3.5
  9
$DIMEXO
 40
1.0
  9
$DIMDLI
 40
7.0
  9
$DIMRND
 40
0.0
  9
$DIMDLE
 40
0.0
  9
$DIMEXE
 40
1.0
  9
$DIMTP
 40
0.0
  9
$DIMTM
 40
0.0
  9
$DIMTXT
 40
3.5
  9
$DIMCEN
 40
1.5
  9
$DIMTSZ
 40
0.0
  9
$DIMTOL
 70
     0
  9
$DIMLIM
 70
     0
  9
$DIMTIH
 70
     0
  9
$DIMTOH
 70
     0
  9
$DIMSE1
 70
     0
  9
$DIMSE2
 70
     0
  9
$DIMTAD
 70
     1
  9
$DIMZIN
 70
     8
  9
$DIMBLK
  1

  9
$DIMASO
 70
     1
  9
$DIMSHO
 70
     0
  9
$DIMPOST
  1

  9
$DIMAPOST
  1

  9
$DIMALT
 70
     0
  9
$DIMALTD
 70
     2
  9
$DIMALTF
 40
25.3999999999999986
  9
$DIMLFAC
 40
1.0
  9
$DIMTOFL
 70
     1
  9
$DIMTVP
 40
0.0
  9
$DIMTIX
 70
     0
  9
$DIMSOXD
 70
     0
  9
$DIMSAH
 70
     0
  9
$DIMBLK1
  1

  9
$DIMBLK2
  1

  9
$DIMSTYLE
  2
STANDARD
  9
$DIMCLRD
 70
     0
  9
$DIMCLRE
 70
     0
  9
$DIMCLRT
 70
     1
  9
$DIMTFAC
 40
0.5
  9
$DIMGAP
 40
1.5
  9
$LUNITS
 70
     2
  9
$LUPREC
 70
     2
  9
$SKETCHINC
 40
1.0
  9
$FILLETRAD
 40
0.0
  9
$AUNITS
 70
     0
  9
$AUPREC
 70
     0
  9
$MENU
  1
ACAD
  9
$ELEVATION
 40
0.0
  9
$PELEVATION
 40
0.0
  9
$THICKNESS
 40
0.0
  9
$LIMCHECK
 70
     0
  9
$BLIPMODE
 70
     0
  9
$CHAMFERA
 40
0.0
  9
$CHAMFERB
 40
0.0
  9
$SKPOLY
 70
     0
  9
$TDCREATE
 40
2455397.8646990740671754
  9
$TDUPDATE
 40
2458418.2717476850375533
  9
$TDINDWG
 40
0.6744677199
  9
$TDUSRTIMER
 40
0.6744677199
  9
$USRTIMER
 70
     1
  9
$ANGBASE
 50
0.0
  9
$ANGDIR
 70
     0
  9
$PDMODE
 70
     0
  9
$PDSIZE
 40
0.0
  9
$PLINEWID
 40
0.0
  9
$COORDS
 70
     1
  9
$SPLFRAME
 70
     0
  9
$SPLINETYPE
 70
     6
  9
$SPLINESEGS
 70
     8
  9
$ATTDIA
 70
     1
  9
$ATTREQ
 70
     1
  9
$HANDLING
 70
     1
  9
$HANDSEED
  5
1A8F0
  9
$SURFTAB1
 70
     6
  9
$SURFTAB2
 70
     6
  9
$SURFTYPE
 70
     6
  9
$SURFU
 70
     6
  9
$SURFV
 70
     6
  9
$UCSNAME
  2

  9
$UCSORG
 10
0.0
 20
0.0
 30
0.0
  9
$UCSXDIR
 10
1.0
 20
0.0
 30
0.0
  9
$UCSYDIR
 10
0.0
 20
1.0
 30
0.0
  9
$PUCSNAME
  2

  9
$PUCSORG
 10
0.0
 20
0.0
 30
0.0
  9
$PUCSXDIR
 10
1.0
 20
0.0
 30
0.0
  9
$PUCSYDIR
 10
0.0
 20
1.0
 30
0.0
  9
$USERI1
 70
     0
  9
$USERI2
 70
     0
  9
$USERI3
 70
     0
  9
$USERI4
 70
     0
  9
$USERI5
 70
     0
  9
$USERR1
 40
0.0
  9
$USERR2
 40
0.0
  9
$USERR3
 40
0.0
  9
$USERR4
 40
0.0
  9
$USERR5
 40
0.0
  9
$WORLDVIEW
 70
     1
  9
$SHADEDGE
 70
     3
  9
$SHADEDIF
 70
    70
  9
$TILEMODE
 70
     1
  9
$MAXACTVP
 70
    16
  9
$PLIMCHECK
 70
     0
  9
$PEXTMIN
 10
-7.503202098643726
 20
-20.0045286800520898
 30
-0.0000000000112498
  9
$PEXTMAX
 10
202.5033497218425964
 20
277.0045856032762117
 30
0.0000000000002956
  9
$PLIMMIN
 10
-7.5
 20
-20.0
  9
$PLIMMAX
 10
202.5
 20
277.0
  9
$UNITMODE
 70
     0
  9
$VISRETAIN
 70
     0
  9
$PLINEGEN
 70
     0
  9
$PSLTSCALE
 70
     0
  0
ENDSEC
  0
SECTION
  2
TABLES
  0
TABLE
  2
VPORT
 70
     1
  0
VPORT
  2
*ACTIVE
 70
     0
 10
0.0
 20
0.0
 11
1.0
 21
1.0
 12
20.9980777837313894
 22
78.3694616694345996
 13
0.0
 23
0.0
 14
1.0
 24
1.0
 15
10.0
 25
10.0
 16
-0.0000000000000012
 26
0.0
 36
5.5852494427615742
 17
0.0
 27
0.0
 37
0.0
 40
158.0094359437321998
 41
2.0800000000000001
 42
50.0
 43
0.0
 44
0.0
 50
0.0
 51
0.0
 71
     0
 72
  1500
 73
     1
 74
     0
 75
     0
 76
     0
 77
     0
 78
     0
  0
ENDTAB
  0
TABLE
  2
LTYPE
 70
     4
  0
LTYPE
  2
CONTINUOUS
 70
     0
  3
Solid line
 72
    65
 73
     0
 40
0.0
  0
LTYPE
  2
AUSGEZOGEN
 70
     0
  3
Ausgezogene Linie
 72
    65
 73
     0
 40
0.0
  0
LTYPE
  2
PHANTOM2
 70
     0
  3
Phantom (.5x) ___ _ _ ___ _ _ ___ _ _ ___ _ _
 72
    65
 73
     6
 40
1.25
 49
0.625
 49
-0.125
 49
0.125
 49
-0.125
 49
0.125
 49
-0.125
  0
LTYPE
  2
VERDECKT
 70
     0
  3
Verdeckt __ __ __ __ __ __ __ __ __ __ __ __ __
 72
    65
 73
     2
 40
0.375
 49
0.25
 49
-0.125
  0
ENDTAB
  0
TABLE
  2
LAYER
 70
     4
  0
LAYER
  2
0
 70
     0
 62
     7
  6
CONTINUOUS
  0
LAYER
  2
VOLL
 70
     0
 62
     1
  6
CONTINUOUS
  0
LAYER
  2
DEFPOINTS
 70
     0
 62
     7
  6
AUSGEZOGEN
  0
LAYER
  2
ADSK_ASSOC_ENTITY_BACKUPS
 70
     1
 62
    -7
  6
CONTINUOUS
  0
ENDTAB
  0
TABLE
  2
STYLE
 70
     3
  0
STYLE
  2
STANDARD
 70
     0
 40
0.0
 41
0.8
 50
0.0
 71
     0
 42
3.5
  3
simplex.shx
  4

  0
STYLE
  2
ANNOTATIVE
 70
     0
 40
0.0
 41
1.0
 50
0.0
 71
     0
 42
0.2
  3
txt
  4

  0
STYLE
  2
GREEKS
 70
     0
 40
0.0
 41
0.8
 50
0.0
 71
     0
 42
2.5
  3
SIMPLEX.shx
  4

  0
ENDTAB
  0
TABLE
  2
VIEW
 70
     0
  0
ENDTAB
  0
TABLE
  2
UCS
 70
     0
  0
ENDTAB
  0
TABLE
  2
APPID
 70
    16
  0
APPID
  2
ACAD
 70
     0
  0
APPID
  2
ACADANNOTATIVE
 70
     0
  0
APPID
  2
ACAD_NAV_VCDISPLAY
 70
     0
  0
APPID
  2
ACAD_MLEADERVER
 70
     0
  0
APPID
  2
ACAD_EXEMPT_FROM_CAD_STANDARDS
 70
     0
  0
APPID
  2
ACAUTHENVIRON
 70
     0
  0
APPID
  2
ACDBDYNAMICBLOCKTRUENAME
 70
     0
  0
APPID
  2
ACDBDYNAMICBLOCKGUID
 70
     0
  0
APPID
  2
ACAECLAYERSTANDARD
 70
     0
  0
APPID
  2
ACCMTRANSPARENCY
 70
     0
  0
APPID
  2
ACAD_PSEXT
 70
     0
  0
APPID
  2
ACSYNERGY
 70
     0
  0
APPID
  2
SYNERGY_BODY_TBR_ID
 70
     0
  0
APPID
  2
ACAD_VIEW_EDGE_ID
 70
     0
  0
APPID
  2
ACADANNOMONITORALERTICONDI
 70
     0
  0
APPID
  2
ACAD_OBJECT_CHANGE_GUID
 70
     0
  0
ENDTAB
  0
TABLE
  2
DIMSTYLE
 70
     2
  0
DIMSTYLE
  2
STANDARD
 70
     0
  3

  4

  5

  6

  7

 40
1.0
 41
0.18
 42
0.0625
 43
0.38
 44
0.18
 45
0.0
 46
0.0
 47
0.0
 48
0.0
140
0.18
141
0.09
142
0.0
143
25.3999999999999986
144
1.0
145
0.0
146
1.0
147
0.09
 71
     0
 72
     0
 73
     1
 74
     1
 75
     0
 76
     0
 77
     0
 78
     0
170
     0
171
     2
172
     0
173
     0
174
     0
175
     0
176
     0
177
     0
178
     0
  0
DIMSTYLE
  2
ANNOTATIVE
 70
     0
  3

  4

  5

  6

  7

 40
1.0
 41
0.18
 42
0.0625
 43
0.38
 44
0.18
 45
0.0
 46
0.0
 47
0.0
 48
0.0
140
0.18
141
0.09
142
0.0
143
25.3999999999999986
144
1.0
145
0.0
146
1.0
147
0.09
 71
     0
 72
     0
 73
     1
 74
     1
 75
     0
 76
     0
 77
     0
 78
     0
170
     0
171
     2
172
     0
173
     0
174
     0
175
     0
176
     0
177
     0
178
     0
  0
ENDTAB
  0
ENDSEC
  0
SECTION
  2
BLOCKS
  0
BLOCK
  8
0
  2
$MODEL_SPACE
 70
     0
 10
0.0
 20
0.0
 30
0.0
  3
$MODEL_SPACE
  1

  0
ENDBLK
  5
1A85C
  8
0
  0
BLOCK
 67
     1
  8
0
  2
$PAPER_SPACE
 70
     0
 10
0.0
 20
0.0
 30
0.0
  3
$PAPER_SPACE
  1

  0
ENDBLK
  5
1A858
 67
     1
  8
0
  0
BLOCK
  8
0
 62
     3
  2
*U2
 70
     1
 10
0.0
 20
0.0
 30
0.0
  3
*U2
  1

  0
ENDBLK
  5
18CB3
  8
0
 62
     3
  0
BLOCK
  8
0
 62
     6
  2
A$C1CC81728
 70
     0
 10
0.0
 20
0.0
 30
0.0
  3
A$C1CC81728
  1

  0
LINE
  5
1A511
  8
0
  6
CONTINUOUS
 62
     3
 10
46.7676145448445482
 20
-25.8479507917437203
 30
0.0
 11
46.7676145448445482
 21
-31.8479507917437097
 31
0.0
210
0.0
220
1.0
230
0.0
  0
LINE
  5
1A512
  8
0
  6
CONTINUOUS
 62
     3
 10
46.6198051337149124
 20
-31.8479507917437097
 30
0.0
 11
46.6198051337149124
 21
-25.8479507917437203
 31
0.0
210
0.0
220
1.0
230
0.0
  0
LINE
  5
1A513
  8
0
  6
CONTINUOUS
 62
     3
 10
52.8278004011585196
 20
-25.8479507917437203
 30
0.0
 11
52.8278004011585196
 21
-31.8479507917437097
 31
0.0
210
0.0
220
1.0
230
0.0
  0
LINE
  5
1A514
  8
0
  6
CONTINUOUS
 62
     3
 10
52.679990990028891
 20
-31.8479507917437097
 30
0.0
 11
52.679990990028891
 21
-25.8479507917437203
 31
0.0
210
0.0
220
1.0
230
0.0
  0
LINE
  5
1A515
  8
0
  6
CONTINUOUS
 62
     3
 10
52.8278004011585196
 20
-25.8479507917437203
 30
0.0
 11
46.6198051337149124
 21
-25.8479507917437203
 31
0.0
210
0.0
220
1.0
230
0.0
  0
LINE
  5
1A516
  8
0
  6
CONTINUOUS
 62
     3
 10
46.6198051337149124
 20
-31.8479507917437097
 30
0.0
 11
52.8278004011585196
 21
-31.8479507917437097
 31
0.0
210
0.0
220
1.0
230
0.0
  0
LINE
  5
1A517
  8
0
  6
CONTINUOUS
 62
     3
 10
46.7676145448445482
 20
-44.2479507917436834
 30
0.0
 11
46.7676145448445482
 21
-50.2479507917436905
 31
0.0
210
0.0
220
1.0
230
0.0
  0
LINE
  5
1A518
  8
0
  6
CONTINUOUS
 62
     3
 10
46.6198051337149124
 20
-50.2479507917436905
 30
0.0
 11
46.6198051337149124
 21
-44.2479507917436834
 31
0.0
210
0.0
220
1.0
230
0.0
  0
LINE
  5
1A519
  8
0
  6
CONTINUOUS
 62
     3
 10
52.8278004011585196
 20
-44.2479507917436834
 30
0.0
 11
52.8278004011585196
 21
-50.2479507917436905
 31
0.0
210
0.0
220
1.0
230
0.0
  0
LINE
  5
1A51A
  8
0
  6
CONTINUOUS
 62
     3
 10
52.679990990028891
 20
-50.2479507917436905
 30
0.0
 11
52.679990990028891
 21
-44.2479507917436834
 31
0.0
210
0.0
220
1.0
230
0.0
  0
LINE
  5
1A51B
  8
0
  6
CONTINUOUS
 62
     3
 10
52.8278004011585196
 20
-44.2479507917436834
 30
0.0
 11
46.6198051337149124
 21
-44.2479507917436834
 31
0.0
210
0.0
220
1.0
230
0.0
  0
LINE
  5
1A51C
  8
0
  6
CONTINUOUS
 62
     3
 10
46.6198051337149124
 20
-50.2479507917436905
 30
0.0
 11
52.8278004011585196
 21
-50.2479507917436905
 31
0.0
210
0.0
220
1.0
230
0.0
  0
LINE
  5
1A51D
  8
0
  6
CONTINUOUS
 62
     3
 10
46.7676145448445482
 20
-62.6479507917436891
 30
0.0
 11
46.7676145448445482
 21
-68.6479507917437246
 31
0.0
210
0.0
220
1.0
230
0.0
  0
LINE
  5
1A51E
  8
0
  6
CONTINUOUS
 62
     3
 10
46.6198051337149124
 20
-68.6479507917437246
 30
0.0
 11
46.6198051337149124
 21
-62.6479507917436891
 31
0.0
210
0.0
220
1.0
230
0.0
  0
LINE
  5
1A51F
  8
0
  6
CONTINUOUS
 62
     3
 10
52.8278004011585196
 20
-62.6479507917436891
 30
0.0
 11
52.8278004011585196
 21
-68.6479507917437246
 31
0.0
210
0.0
220
1.0
230
0.0
  0
LINE
  5
1A520
  8
0
  6
CONTINUOUS
 62
     3
 10
52.679990990028891
 20
-68.6479507917437246
 30
0.0
 11
52.679990990028891
 21
-62.6479507917436891
 31
0.0
210
0.0
220
1.0
230
0.0
  0
LINE
  5
1A521
  8
0
  6
CONTINUOUS
 62
     3
 10
52.8278004011585196
 20
-62.6479507917436891
 30
0.0
 11
46.6198051337149124
 21
-62.6479507917436891
 31
0.0
210
0.0
220
1.0
230
0.0
  0
LINE
  5
1A522
  8
0
  6
CONTINUOUS
 62
     3
 10
46.6198051337149124
 20
-68.6479507917437246
 30
0.0
 11
52.8278004011585196
 21
-68.6479507917437246
 31
0.0
210
0.0
220
1.0
230
0.0
  0
LINE
  5
1A523
  8
0
  6
CONTINUOUS
 62
     3
 10
46.7676145448445482
 20
-81.0479507917437161
 30
0.0
 11
46.7676145448445482
 21
-87.0479507917436877
 31
0.0
210
0.0
220
1.0
230
0.0
  0
LINE
  5
1A524
  8
0
  6
CONTINUOUS
 62
     3
 10
46.6198051337149124
 20
-87.0479507917436877
 30
0.0
 11
46.6198051337149124
 21
-81.0479507917437161
 31
0.0
210
0.0
220
1.0
230
0.0
  0
LINE
  5
1A525
  8
0
  6
CONTINUOUS
 62
     3
 10
52.8278004011585196
 20
-81.0479507917437161
 30
0.0
 11
52.8278004011585196
 21
-87.0479507917436877
 31
0.0
210
0.0
220
1.0
230
0.0
  0
LINE
  5
1A526
  8
0
  6
CONTINUOUS
 62
     3
 10
52.679990990028891
 20
-87.0479507917436877
 30
0.0
 11
52.679990990028891
 21
-81.0479507917437161
 31
0.0
210
0.0
220
1.0
230
0.0
  0
LINE
  5
1A527
  8
0
  6
CONTINUOUS
 62
     3
 10
52.8278004011585196
 20
-81.0479507917437161
 30
0.0
 11
46.6198051337149124
 21
-81.0479507917437161
 31
0.0
210
0.0
220
1.0
230
0.0
  0
LINE
  5
1A528
  8
0
  6
CONTINUOUS
 62
     3
 10
46.6198051337149124
 20
-87.0479507917436877
 30
0.0
 11
52.8278004011585196
 21
-87.0479507917436877
 31
0.0
210
0.0
220
1.0
230
0.0
  0
LINE
  5
1A529
  8
0
  6
CONTINUOUS
 62
     3
 10
55.9386734510936208
 20
-22.6479507917437104
 30
0.0
 11
55.9386734510936208
 21
-16.6479507917437104
 31
0.0
210
0.0
220
1.0
230
0.0
  0
LINE
  5
1A52A
  8
0
  6
CONTINUOUS
 62
     3
 10
61.5318839191458622
 20
-16.6479507917437104
 30
0.0
 11
61.5318839191458622
 21
-22.6479507917437104
 31
0.0
210
0.0
220
1.0
230
0.0
  0
LINE
  5
1A52B
  8
0
  6
CONTINUOUS
 62
     3
 10
60.9695943404930176
 20
-22.6479507917437104
 30
0.0
 11
60.9695943404930176
 21
-16.6479507917437104
 31
0.0
210
0.0
220
1.0
230
0.0
  0
LINE
  5
1A52C
  8
0
  6
CONTINUOUS
 62
     3
 10
61.5318839191458622
 20
-16.6479507917437104
 30
0.0
 11
55.9386734510936208
 21
-16.6479507917437104
 31
0.0
210
0.0
220
1.0
230
0.0
  0
LINE
  5
1A52D
  8
0
  6
CONTINUOUS
 62
     3
 10
55.9386734510936208
 20
-22.6479507917437104
 30
0.0
 11
61.5318839191458622
 21
-22.6479507917437104
 31
0.0
210
0.0
220
1.0
230
0.0
  0
LINE
  5
1A52E
  8
0
  6
CONTINUOUS
 62
     3
 10
55.9386734510936208
 20
-41.0479507917437019
 30
0.0
 11
55.9386734510936208
 21
-35.0479507917437019
 31
0.0
210
0.0
220
1.0
230
0.0
  0
LINE
  5
1A52F
  8
0
  6
CONTINUOUS
 62
     3
 10
61.5318839191458622
 20
-35.0479507917437232
 30
0.0
 11
61.5318839191458622
 21
-41.0479507917437232
 31
0.0
210
0.0
220
1.0
230
0.0
  0
LINE
  5
1A530
  8
0
  6
CONTINUOUS
 62
     3
 10
60.9695943404930176
 20
-41.0479507917437232
 30
0.0
 11
60.9695943404930176
 21
-35.0479507917437232
 31
0.0
210
0.0
220
1.0
230
0.0
  0
LINE
  5
1A531
  8
0
  6
CONTINUOUS
 62
     3
 10
61.5318839191458622
 20
-35.0479507917437232
 30
0.0
 11
55.9386734510936208
 21
-35.0479507917437232
 31
0.0
210
0.0
220
1.0
230
0.0
  0
LINE
  5
1A532
  8
0
  6
CONTINUOUS
 62
     3
 10
55.9386734510936208
 20
-41.0479507917437232
 30
0.0
 11
61.5318839191458622
 21
-41.0479507917437232
 31
0.0
210
0.0
220
1.0
230
0.0
  0
LINE
  5
1A533
  8
0
  6
CONTINUOUS
 62
     3
 10
55.9386734510936208
 20
-59.4479507917436933
 30
0.0
 11
55.9386734510936208
 21
-53.4479507917436933
 31
0.0
210
0.0
220
1.0
230
0.0
  0
LINE
  5
1A534
  8
0
  6
CONTINUOUS
 62
     3
 10
61.5318839191458622
 20
-53.4479507917437076
 30
0.0
 11
61.5318839191458622
 21
-59.4479507917437076
 31
0.0
210
0.0
220
1.0
230
0.0
  0
LINE
  5
1A535
  8
0
  6
CONTINUOUS
 62
     3
 10
60.9695943404930176
 20
-59.4479507917437076
 30
0.0
 11
60.9695943404930176
 21
-53.4479507917437076
 31
0.0
210
0.0
220
1.0
230
0.0
  0
LINE
  5
1A536
  8
0
  6
CONTINUOUS
 62
     3
 10
61.5318839191458622
 20
-53.4479507917437076
 30
0.0
 11
55.9386734510936208
 21
-53.4479507917436933
 31
0.0
210
0.0
220
1.0
230
0.0
  0
LINE
  5
1A537
  8
0
  6
CONTINUOUS
 62
     3
 10
55.9386734510936208
 20
-59.4479507917437076
 30
0.0
 11
61.5318839191458622
 21
-59.4479507917437076
 31
0.0
210
0.0
220
1.0
230
0.0
  0
LINE
  5
1A538
  8
0
  6
CONTINUOUS
 62
     3
 10
55.9386734510936208
 20
-77.8479507917437132
 30
0.0
 11
55.9386734510936208
 21
-71.8479507917437132
 31
0.0
210
0.0
220
1.0
230
0.0
  0
LINE
  5
1A539
  8
0
  6
CONTINUOUS
 62
     3
 10
61.5318839191458622
 20
-71.8479507917437132
 30
0.0
 11
61.5318839191458622
 21
-77.8479507917437132
 31
0.0
210
0.0
220
1.0
230
0.0
  0
LINE
  5
1A53A
  8
0
  6
CONTINUOUS
 62
     3
 10
60.9695943404930176
 20
-77.8479507917437132
 30
0.0
 11
60.9695943404930176
 21
-71.8479507917437132
 31
0.0
210
0.0
220
1.0
230
0.0
  0
LINE
  5
1A53B
  8
0
  6
CONTINUOUS
 62
     3
 10
61.5318839191458622
 20
-71.8479507917437132
 30
0.0
 11
55.9386734510936208
 21
-71.8479507917437132
 31
0.0
210
0.0
220
1.0
230
0.0
  0
LINE
  5
1A53C
  8
0
  6
CONTINUOUS
 62
     3
 10
55.9386734510936208
 20
-77.8479507917437132
 30
0.0
 11
61.5318839191458622
 21
-77.8479507917437132
 31
0.0
210
0.0
220
1.0
230
0.0
  0
LINE
  5
1A53D
  8
0
  6
CONTINUOUS
 62
     3
 10
55.9386734510936208
 20
-96.2479507917436905
 30
0.0
 11
55.9386734510936208
 21
-90.2479507917436905
 31
0.0
210
0.0
220
1.0
230
0.0
  0
LINE
  5
1A53E
  8
0
  6
CONTINUOUS
 62
     3
 10
61.5318839191458622
 20
-90.2479507917436905
 30
0.0
 11
61.5318839191458622
 21
-96.2479507917436905
 31
0.0
210
0.0
220
1.0
230
0.0
  0
LINE
  5
1A53F
  8
0
  6
CONTINUOUS
 62
     3
 10
60.9695943404930176
 20
-96.2479507917436905
 30
0.0
 11
60.9695943404930176
 21
-90.2479507917436905
 31
0.0
210
0.0
220
1.0
230
0.0
  0
LINE
  5
1A540
  8
0
  6
CONTINUOUS
 62
     3
 10
61.5318839191458622
 20
-90.2479507917436905
 30
0.0
 11
55.9386734510936208
 21
-90.2479507917436905
 31
0.0
210
0.0
220
1.0
230
0.0
  0
LINE
  5
1A541
  8
0
  6
CONTINUOUS
 62
     3
 10
55.9386734510936208
 20
-96.2479507917436905
 30
0.0
 11
61.5318839191458622
 21
-96.2479507917436905
 31
0.0
210
0.0
220
1.0
230
0.0
  0
LINE
  5
1A542
  8
0
  6
CONTINUOUS
 62
     3
 10
64.0266104091871284
 20
-31.8479507917437097
 30
0.0
 11
64.0266104091871284
 21
-25.8479507917437203
 31
0.0
210
0.0
220
1.0
230
0.0
  0
LINE
  5
1A543
  8
0
  6
CONTINUOUS
 62
     3
 10
67.8972321484254735
 20
-25.8479507917437203
 30
0.0
 11
67.8972321484254735
 21
-31.8479507917437097
 31
0.0
210
0.0
220
1.0
230
0.0
  0
LINE
  5
1A544
  8
0
  6
CONTINUOUS
 62
     3
 10
67.0318307493307657
 20
-31.8479507917437097
 30
0.0
 11
67.0318307493307657
 21
-25.8479507917437203
 31
0.0
210
0.0
220
1.0
230
0.0
  0
LINE
  5
1A545
  8
0
  6
CONTINUOUS
 62
     3
 10
67.8972321484254735
 20
-25.8479507917437203
 30
0.0
 11
64.0266104091870716
 21
-25.8479507917437203
 31
0.0
210
0.0
220
1.0
230
0.0
  0
LINE
  5
1A546
  8
0
  6
CONTINUOUS
 62
     3
 10
64.0266104091870716
 20
-31.8479507917437097
 30
0.0
 11
67.8972321484254735
 21
-31.8479507917437097
 31
0.0
210
0.0
220
1.0
230
0.0
  0
LINE
  5
1A547
  8
0
  6
CONTINUOUS
 62
     3
 10
64.0266104091871284
 20
-50.2479507917437118
 30
0.0
 11
64.0266104091871284
 21
-44.2479507917436834
 31
0.0
210
0.0
220
1.0
230
0.0
  0
LINE
  5
1A548
  8
0
  6
CONTINUOUS
 62
     3
 10
67.8972321484254735
 20
-44.2479507917436834
 30
0.0
 11
67.8972321484254735
 21
-50.2479507917437118
 31
0.0
210
0.0
220
1.0
230
0.0
  0
LINE
  5
1A549
  8
0
  6
CONTINUOUS
 62
     3
 10
67.0318307493307657
 20
-50.2479507917437118
 30
0.0
 11
67.0318307493307657
 21
-44.2479507917436834
 31
0.0
210
0.0
220
1.0
230
0.0
  0
LINE
  5
1A54A
  8
0
  6
CONTINUOUS
 62
     3
 10
67.8972321484254735
 20
-44.2479507917436834
 30
0.0
 11
64.0266104091870716
 21
-44.2479507917436834
 31
0.0
210
0.0
220
1.0
230
0.0
  0
LINE
  5
1A54B
  8
0
  6
CONTINUOUS
 62
     3
 10
64.0266104091870716
 20
-50.2479507917437118
 30
0.0
 11
67.8972321484254735
 21
-50.2479507917437118
 31
0.0
210
0.0
220
1.0
230
0.0
  0
LINE
  5
1A54C
  8
0
  6
CONTINUOUS
 62
     3
 10
64.0266104091871284
 20
-68.6479507917437246
 30
0.0
 11
64.0266104091871284
 21
-62.6479507917437175
 31
0.0
210
0.0
220
1.0
230
0.0
  0
LINE
  5
1A54D
  8
0
  6
CONTINUOUS
 62
     3
 10
67.8972321484254735
 20
-62.6479507917437175
 30
0.0
 11
67.8972321484254735
 21
-68.6479507917437246
 31
0.0
210
0.0
220
1.0
230
0.0
  0
LINE
  5
1A54E
  8
0
  6
CONTINUOUS
 62
     3
 10
67.0318307493307657
 20
-68.6479507917437246
 30
0.0
 11
67.0318307493307657
 21
-62.6479507917437175
 31
0.0
210
0.0
220
1.0
230
0.0
  0
LINE
  5
1A54F
  8
0
  6
CONTINUOUS
 62
     3
 10
67.8972321484254735
 20
-62.6479507917437175
 30
0.0
 11
64.0266104091870716
 21
-62.6479507917437175
 31
0.0
210
0.0
220
1.0
230
0.0
  0
LINE
  5
1A550
  8
0
  6
CONTINUOUS
 62
     3
 10
64.0266104091870716
 20
-68.6479507917437246
 30
0.0
 11
67.8972321484254735
 21
-68.6479507917437246
 31
0.0
210
0.0
220
1.0
230
0.0
  0
LINE
  5
1A551
  8
0
  6
CONTINUOUS
 62
     3
 10
64.0266104091871284
 20
-87.0479507917436877
 30
0.0
 11
64.0266104091871284
 21
-81.0479507917437161
 31
0.0
210
0.0
220
1.0
230
0.0
  0
LINE
  5
1A552
  8
0
  6
CONTINUOUS
 62
     3
 10
67.8972321484254735
 20
-81.0479507917437161
 30
0.0
 11
67.8972321484254735
 21
-87.0479507917436877
 31
0.0
210
0.0
220
1.0
230
0.0
  0
LINE
  5
1A553
  8
0
  6
CONTINUOUS
 62
     3
 10
67.0318307493307657
 20
-87.0479507917436877
 30
0.0
 11
67.0318307493307657
 21
-81.0479507917437161
 31
0.0
210
0.0
220
1.0
230
0.0
  0
LINE
  5
1A554
  8
0
  6
CONTINUOUS
 62
     3
 10
67.8972321484254735
 20
-81.0479507917437161
 30
0.0
 11
64.0266104091870716
 21
-81.0479507917437161
 31
0.0
210
0.0
220
1.0
230
0.0
  0
LINE
  5
1A555
  8
0
  6
CONTINUOUS
 62
     3
 10
64.0266104091870716
 20
-87.0479507917436877
 30
0.0
 11
67.8972321484254735
 21
-87.0479507917436877
 31
0.0
210
0.0
220
1.0
230
0.0
  0
LINE
  5
1A556
  8
0
  6
CONTINUOUS
 62
     3
 10
69.2817009014075893
 20
-22.6479507917437104
 30
0.0
 11
69.2817009014075893
 21
-16.6479507917437104
 31
0.0
210
0.0
220
1.0
230
0.0
  0
LINE
  5
1A557
  8
0
  6
CONTINUOUS
 62
     3
 10
70.6631098063155605
 20
-16.6479507917437104
 30
0.0
 11
70.6631098063155605
 21
-22.6479507917437104
 31
0.0
210
0.0
220
1.0
230
0.0
  0
LINE
  5
1A558
  8
0
  6
CONTINUOUS
 62
     3
 10
69.6659999473213247
 20
-22.6479507917437104
 30
0.0
 11
69.6659999473213247
 21
-16.6479507917437104
 31
0.0
210
0.0
220
1.0
230
0.0
  0
LINE
  5
1A559
  8
0
  6
CONTINUOUS
 62
     3
 10
70.6631098063155605
 20
-16.6479507917437104
 30
0.0
 11
69.2817009014075893
 21
-16.6479507917437104
 31
0.0
210
0.0
220
1.0
230
0.0
  0
LINE
  5
1A55A
  8
0
  6
CONTINUOUS
 62
     3
 10
69.2817009014075893
 20
-22.6479507917437104
 30
0.0
 11
70.6631098063155605
 21
-22.6479507917437104
 31
0.0
210
0.0
220
1.0
230
0.0
  0
LINE
  5
1A55B
  8
0
  6
CONTINUOUS
 62
     3
 10
69.2817009014075893
 20
-41.0479507917437232
 30
0.0
 11
69.2817009014075893
 21
-35.0479507917437232
 31
0.0
210
0.0
220
1.0
230
0.0
  0
LINE
  5
1A55C
  8
0
  6
CONTINUOUS
 62
     3
 10
70.6631098063155605
 20
-35.0479507917437232
 30
0.0
 11
70.6631098063155605
 21
-41.0479507917437232
 31
0.0
210
0.0
220
1.0
230
0.0
  0
LINE
  5
1A55D
  8
0
  6
CONTINUOUS
 62
     3
 10
69.6659999473213247
 20
-41.0479507917437232
 30
0.0
 11
69.6659999473213247
 21
-35.0479507917437232
 31
0.0
210
0.0
220
1.0
230
0.0
  0
LINE
  5
1A55E
  8
0
  6
CONTINUOUS
 62
     3
 10
70.6631098063155605
 20
-35.0479507917437232
 30
0.0
 11
69.2817009014075893
 21
-35.0479507917437232
 31
0.0
210
0.0
220
1.0
230
0.0
  0
LINE
  5
1A55F
  8
0
  6
CONTINUOUS
 62
     3
 10
69.2817009014075893
 20
-41.0479507917437232
 30
0.0
 11
70.6631098063155605
 21
-41.0479507917437232
 31
0.0
210
0.0
220
1.0
230
0.0
  0
LINE
  5
1A560
  8
0
  6
CONTINUOUS
 62
     3
 10
69.2817009014075893
 20
-59.4479507917437076
 30
0.0
 11
69.2817009014075893
 21
-53.4479507917437076
 31
0.0
210
0.0
220
1.0
230
0.0
  0
LINE
  5
1A561
  8
0
  6
CONTINUOUS
 62
     3
 10
70.6631098063155605
 20
-53.4479507917437076
 30
0.0
 11
70.6631098063155605
 21
-59.4479507917437076
 31
0.0
210
0.0
220
1.0
230
0.0
  0
LINE
  5
1A562
  8
0
  6
CONTINUOUS
 62
     3
 10
69.6659999473213247
 20
-59.4479507917437076
 30
0.0
 11
69.6659999473213247
 21
-53.4479507917437076
 31
0.0
210
0.0
220
1.0
230
0.0
  0
LINE
  5
1A563
  8
0
  6
CONTINUOUS
 62
     3
 10
70.6631098063155605
 20
-53.4479507917437076
 30
0.0
 11
69.2817009014075893
 21
-53.4479507917437076
 31
0.0
210
0.0
220
1.0
230
0.0
  0
LINE
  5
1A564
  8
0
  6
CONTINUOUS
 62
     3
 10
69.2817009014075893
 20
-59.4479507917437076
 30
0.0
 11
70.6631098063155605
 21
-59.4479507917437076
 31
0.0
210
0.0
220
1.0
230
0.0
  0
LINE
  5
1A565
  8
0
  6
CONTINUOUS
 62
     3
 10
69.2817009014075893
 20
-77.8479507917437132
 30
0.0
 11
69.2817009014075893
 21
-71.8479507917437132
 31
0.0
210
0.0
220
1.0
230
0.0
  0
LINE
  5
1A566
  8
0
  6
CONTINUOUS
 62
     3
 10
70.6631098063155605
 20
-71.8479507917437132
 30
0.0
 11
70.6631098063155605
 21
-77.8479507917437132
 31
0.0
210
0.0
220
1.0
230
0.0
  0
LINE
  5
1A567
  8
0
  6
CONTINUOUS
 62
     3
 10
69.6659999473213247
 20
-77.8479507917437132
 30
0.0
 11
69.6659999473213247
 21
-71.8479507917437132
 31
0.0
210
0.0
220
1.0
230
0.0
  0
LINE
  5
1A568
  8
0
  6
CONTINUOUS
 62
     3
 10
70.6631098063155605
 20
-71.8479507917437132
 30
0.0
 11
69.2817009014075893
 21
-71.8479507917437132
 31
0.0
210
0.0
220
1.0
230
0.0
  0
LINE
  5
1A569
  8
0
  6
CONTINUOUS
 62
     3
 10
69.2817009014075893
 20
-77.8479507917437132
 30
0.0
 11
70.6631098063155605
 21
-77.8479507917437132
 31
0.0
210
0.0
220
1.0
230
0.0
  0
LINE
  5
1A56A
  8
0
  6
CONTINUOUS
 62
     3
 10
69.2817009014075893
 20
-96.2479507917436905
 30
0.0
 11
69.2817009014075893
 21
-90.2479507917436905
 31
0.0
210
0.0
220
1.0
230
0.0
  0
LINE
  5
1A56B
  8
0
  6
CONTINUOUS
 62
     3
 10
70.6631098063155605
 20
-90.2479507917436905
 30
0.0
 11
70.6631098063155605
 21
-96.2479507917436905
 31
0.0
210
0.0
220
1.0
230
0.0
  0
LINE
  5
1A56C
  8
0
  6
CONTINUOUS
 62
     3
 10
69.6659999473213247
 20
-96.2479507917436905
 30
0.0
 11
69.6659999473213247
 21
-90.2479507917436905
 31
0.0
210
0.0
220
1.0
230
0.0
  0
LINE
  5
1A56D
  8
0
  6
CONTINUOUS
 62
     3
 10
70.6631098063155605
 20
-90.2479507917436905
 30
0.0
 11
69.2817009014075893
 21
-90.2479507917436905
 31
0.0
210
0.0
220
1.0
230
0.0
  0
LINE
  5
1A56E
  8
0
  6
CONTINUOUS
 62
     3
 10
69.2817009014075893
 20
-96.2479507917436905
 30
0.0
 11
70.6631098063155605
 21
-96.2479507917436905
 31
0.0
210
0.0
220
1.0
230
0.0
  0
LINE
  5
1A56F
  8
0
  6
CONTINUOUS
 62
     3
 10
29.7816055875521215
 20
-16.6479507917437104
 30
0.0
 11
29.7816055875521215
 21
-22.6479507917437104
 31
0.0
210
0.0
220
1.0
230
0.0
  0
LINE
  5
1A570
  8
0
  6
CONTINUOUS
 62
     3
 10
28.7844957285578893
 20
-22.6479507917437104
 30
0.0
 11
28.7844957285578893
 21
-16.6479507917437104
 31
0.0
210
0.0
220
1.0
230
0.0
  0
LINE
  5
1A571
  8
0
  6
CONTINUOUS
 62
     3
 10
30.1659046334658001
 20
-16.6479507917437104
 30
0.0
 11
30.1659046334658001
 21
-22.6479507917437104
 31
0.0
210
0.0
220
1.0
230
0.0
  0
LINE
  5
1A572
  8
0
  6
CONTINUOUS
 62
     3
 10
30.1659046334658001
 20
-16.6479507917437104
 30
0.0
 11
28.7844957285578893
 21
-16.6479507917437104
 31
0.0
210
0.0
220
1.0
230
0.0
  0
LINE
  5
1A573
  8
0
  6
CONTINUOUS
 62
     3
 10
28.7844957285578893
 20
-22.6479507917437104
 30
0.0
 11
30.1659046334658001
 21
-22.6479507917437104
 31
0.0
210
0.0
220
1.0
230
0.0
  0
LINE
  5
1A574
  8
0
  6
CONTINUOUS
 62
     3
 10
29.7816055875521215
 20
-35.0479507917437232
 30
0.0
 11
29.7816055875521215
 21
-41.0479507917437232
 31
0.0
210
0.0
220
1.0
230
0.0
  0
LINE
  5
1A575
  8
0
  6
CONTINUOUS
 62
     3
 10
28.7844957285578893
 20
-41.0479507917437232
 30
0.0
 11
28.7844957285578893
 21
-35.0479507917437232
 31
0.0
210
0.0
220
1.0
230
0.0
  0
LINE
  5
1A576
  8
0
  6
CONTINUOUS
 62
     3
 10
30.1659046334658001
 20
-35.0479507917437232
 30
0.0
 11
30.1659046334658001
 21
-41.0479507917437232
 31
0.0
210
0.0
220
1.0
230
0.0
  0
LINE
  5
1A577
  8
0
  6
CONTINUOUS
 62
     3
 10
30.1659046334658001
 20
-35.0479507917437232
 30
0.0
 11
28.7844957285578893
 21
-35.0479507917437232
 31
0.0
210
0.0
220
1.0
230
0.0
  0
LINE
  5
1A578
  8
0
  6
CONTINUOUS
 62
     3
 10
28.7844957285578893
 20
-41.0479507917437232
 30
0.0
 11
30.1659046334658001
 21
-41.0479507917437232
 31
0.0
210
0.0
220
1.0
230
0.0
  0
LINE
  5
1A579
  8
0
  6
CONTINUOUS
 62
     3
 10
29.7816055875521215
 20
-53.4479507917437076
 30
0.0
 11
29.7816055875521215
 21
-59.4479507917437076
 31
0.0
210
0.0
220
1.0
230
0.0
  0
LINE
  5
1A57A
  8
0
  6
CONTINUOUS
 62
     3
 10
28.7844957285578893
 20
-59.4479507917437076
 30
0.0
 11
28.7844957285578893
 21
-53.4479507917437076
 31
0.0
210
0.0
220
1.0
230
0.0
  0
LINE
  5
1A57B
  8
0
  6
CONTINUOUS
 62
     3
 10
30.1659046334658001
 20
-53.4479507917437076
 30
0.0
 11
30.1659046334658001
 21
-59.4479507917437076
 31
0.0
210
0.0
220
1.0
230
0.0
  0
LINE
  5
1A57C
  8
0
  6
CONTINUOUS
 62
     3
 10
30.1659046334658001
 20
-53.4479507917437076
 30
0.0
 11
28.7844957285578893
 21
-53.4479507917437076
 31
0.0
210
0.0
220
1.0
230
0.0
  0
LINE
  5
1A57D
  8
0
  6
CONTINUOUS
 62
     3
 10
28.7844957285578893
 20
-59.4479507917437076
 30
0.0
 11
30.1659046334658001
 21
-59.4479507917437076
 31
0.0
210
0.0
220
1.0
230
0.0
  0
LINE
  5
1A57E
  8
0
  6
CONTINUOUS
 62
     3
 10
29.7816055875521215
 20
-71.8479507917437132
 30
0.0
 11
29.7816055875521215
 21
-77.8479507917437132
 31
0.0
210
0.0
220
1.0
230
0.0
  0
LINE
  5
1A57F
  8
0
  6
CONTINUOUS
 62
     3
 10
28.7844957285578893
 20
-77.8479507917437132
 30
0.0
 11
28.7844957285578893
 21
-71.8479507917437132
 31
0.0
210
0.0
220
1.0
230
0.0
  0
LINE
  5
1A580
  8
0
  6
CONTINUOUS
 62
     3
 10
30.1659046334658001
 20
-71.8479507917437132
 30
0.0
 11
30.1659046334658001
 21
-77.8479507917437132
 31
0.0
210
0.0
220
1.0
230
0.0
  0
LINE
  5
1A581
  8
0
  6
CONTINUOUS
 62
     3
 10
30.1659046334658001
 20
-71.8479507917437132
 30
0.0
 11
28.7844957285578893
 21
-71.8479507917437132
 31
0.0
210
0.0
220
1.0
230
0.0
  0
LINE
  5
1A582
  8
0
  6
CONTINUOUS
 62
     3
 10
28.7844957285578893
 20
-77.8479507917437132
 30
0.0
 11
30.1659046334658001
 21
-77.8479507917437132
 31
0.0
210
0.0
220
1.0
230
0.0
  0
LINE
  5
1A583
  8
0
  6
CONTINUOUS
 62
     3
 10
29.7816055875521215
 20
-90.2479507917436905
 30
0.0
 11
29.7816055875521215
 21
-96.2479507917436905
 31
0.0
210
0.0
220
1.0
230
0.0
  0
LINE
  5
1A584
  8
0
  6
CONTINUOUS
 62
     3
 10
28.7844957285578893
 20
-96.2479507917436905
 30
0.0
 11
28.7844957285578893
 21
-90.2479507917436905
 31
0.0
210
0.0
220
1.0
230
0.0
  0
LINE
  5
1A585
  8
0
  6
CONTINUOUS
 62
     3
 10
30.1659046334658001
 20
-90.2479507917436905
 30
0.0
 11
30.1659046334658001
 21
-96.2479507917436905
 31
0.0
210
0.0
220
1.0
230
0.0
  0
LINE
  5
1A586
  8
0
  6
CONTINUOUS
 62
     3
 10
30.1659046334658001
 20
-90.2479507917436905
 30
0.0
 11
28.7844957285578893
 21
-90.2479507917436905
 31
0.0
210
0.0
220
1.0
230
0.0
  0
LINE
  5
1A587
  8
0
  6
CONTINUOUS
 62
     3
 10
28.7844957285578893
 20
-96.2479507917436905
 30
0.0
 11
30.1659046334658001
 21
-96.2479507917436905
 31
0.0
210
0.0
220
1.0
230
0.0
  0
LINE
  5
1A588
  8
0
  6
CONTINUOUS
 62
     3
 10
32.4157747855426805
 20
-25.8479507917437203
 30
0.0
 11
32.4157747855426805
 21
-31.8479507917437097
 31
0.0
210
0.0
220
1.0
230
0.0
  0
LINE
  5
1A589
  8
0
  6
CONTINUOUS
 62
     3
 10
31.5503733864479798
 20
-31.8479507917437097
 30
0.0
 11
31.5503733864479798
 21
-25.8479507917437203
 31
0.0
210
0.0
220
1.0
230
0.0
  0
LINE
  5
1A58A
  8
0
  6
CONTINUOUS
 62
     3
 10
35.420995125686332
 20
-25.8479507917437203
 30
0.0
 11
35.420995125686332
 21
-31.8479507917437097
 31
0.0
210
0.0
220
1.0
230
0.0
  0
LINE
  5
1A58B
  8
0
  6
CONTINUOUS
 62
     3
 10
35.420995125686332
 20
-25.8479507917437203
 30
0.0
 11
31.5503733864479798
 21
-25.8479507917437203
 31
0.0
210
0.0
220
1.0
230
0.0
  0
LINE
  5
1A58C
  8
0
  6
CONTINUOUS
 62
     3
 10
31.5503733864479798
 20
-31.8479507917437097
 30
0.0
 11
35.420995125686332
 21
-31.8479507917437097
 31
0.0
210
0.0
220
1.0
230
0.0
  0
LINE
  5
1A58D
  8
0
  6
CONTINUOUS
 62
     3
 10
32.4157747855426805
 20
-44.2479507917436834
 30
0.0
 11
32.4157747855426805
 21
-50.2479507917437118
 31
0.0
210
0.0
220
1.0
230
0.0
  0
LINE
  5
1A58E
  8
0
  6
CONTINUOUS
 62
     3
 10
31.5503733864479798
 20
-50.2479507917437118
 30
0.0
 11
31.5503733864479798
 21
-44.2479507917436834
 31
0.0
210
0.0
220
1.0
230
0.0
  0
LINE
  5
1A58F
  8
0
  6
CONTINUOUS
 62
     3
 10
35.420995125686332
 20
-44.2479507917436834
 30
0.0
 11
35.420995125686332
 21
-50.2479507917437118
 31
0.0
210
0.0
220
1.0
230
0.0
  0
LINE
  5
1A590
  8
0
  6
CONTINUOUS
 62
     3
 10
35.420995125686332
 20
-44.2479507917436834
 30
0.0
 11
31.5503733864479798
 21
-44.2479507917436834
 31
0.0
210
0.0
220
1.0
230
0.0
  0
LINE
  5
1A591
  8
0
  6
CONTINUOUS
 62
     3
 10
31.5503733864479798
 20
-50.2479507917437118
 30
0.0
 11
35.420995125686332
 21
-50.2479507917437118
 31
0.0
210
0.0
220
1.0
230
0.0
  0
LINE
  5
1A592
  8
0
  6
CONTINUOUS
 62
     3
 10
32.4157747855426805
 20
-62.6479507917437175
 30
0.0
 11
32.4157747855426805
 21
-68.6479507917437246
 31
0.0
210
0.0
220
1.0
230
0.0
  0
LINE
  5
1A593
  8
0
  6
CONTINUOUS
 62
     3
 10
31.5503733864479798
 20
-68.6479507917437246
 30
0.0
 11
31.5503733864479798
 21
-62.6479507917437175
 31
0.0
210
0.0
220
1.0
230
0.0
  0
LINE
  5
1A594
  8
0
  6
CONTINUOUS
 62
     3
 10
35.420995125686332
 20
-62.6479507917437175
 30
0.0
 11
35.420995125686332
 21
-68.6479507917437246
 31
0.0
210
0.0
220
1.0
230
0.0
  0
LINE
  5
1A595
  8
0
  6
CONTINUOUS
 62
     3
 10
35.420995125686332
 20
-62.6479507917437175
 30
0.0
 11
31.5503733864479798
 21
-62.6479507917437175
 31
0.0
210
0.0
220
1.0
230
0.0
  0
LINE
  5
1A596
  8
0
  6
CONTINUOUS
 62
     3
 10
31.5503733864479798
 20
-68.6479507917437246
 30
0.0
 11
35.420995125686332
 21
-68.6479507917437246
 31
0.0
210
0.0
220
1.0
230
0.0
  0
LINE
  5
1A597
  8
0
  6
CONTINUOUS
 62
     3
 10
32.4157747855426805
 20
-81.0479507917437161
 30
0.0
 11
32.4157747855426805
 21
-87.0479507917436877
 31
0.0
210
0.0
220
1.0
230
0.0
  0
LINE
  5
1A598
  8
0
  6
CONTINUOUS
 62
     3
 10
31.5503733864479798
 20
-87.0479507917436877
 30
0.0
 11
31.5503733864479798
 21
-81.0479507917437161
 31
0.0
210
0.0
220
1.0
230
0.0
  0
LINE
  5
1A599
  8
0
  6
CONTINUOUS
 62
     3
 10
35.420995125686332
 20
-81.0479507917437161
 30
0.0
 11
35.420995125686332
 21
-87.0479507917436877
 31
0.0
210
0.0
220
1.0
230
0.0
  0
LINE
  5
1A59A
  8
0
  6
CONTINUOUS
 62
     3
 10
35.420995125686332
 20
-81.0479507917437161
 30
0.0
 11
31.5503733864479798
 21
-81.0479507917437161
 31
0.0
210
0.0
220
1.0
230
0.0
  0
LINE
  5
1A59B
  8
0
  6
CONTINUOUS
 62
     3
 10
31.5503733864479798
 20
-87.0479507917436877
 30
0.0
 11
35.420995125686332
 21
-87.0479507917436877
 31
0.0
210
0.0
220
1.0
230
0.0
  0
LINE
  5
1A59C
  8
0
  6
CONTINUOUS
 62
     3
 10
38.4780111943803718
 20
-16.6479507917437104
 30
0.0
 11
38.4780111943803718
 21
-22.6479507917437104
 31
0.0
210
0.0
220
1.0
230
0.0
  0
LINE
  5
1A59D
  8
0
  6
CONTINUOUS
 62
     3
 10
37.9157216157275414
 20
-22.6479507917437104
 30
0.0
 11
37.9157216157275414
 21
-16.6479507917437104
 31
0.0
210
0.0
220
1.0
230
0.0
  0
LINE
  5
1A59E
  8
0
  6
CONTINUOUS
 62
     3
 10
43.5089320837798113
 20
-16.6479507917437104
 30
0.0
 11
43.5089320837798113
 21
-22.6479507917437104
 31
0.0
210
0.0
220
1.0
230
0.0
  0
LINE
  5
1A59F
  8
0
  6
CONTINUOUS
 62
     3
 10
43.5089320837798113
 20
-16.6479507917437104
 30
0.0
 11
37.9157216157275911
 21
-16.6479507917437104
 31
0.0
210
0.0
220
1.0
230
0.0
  0
LINE
  5
1A5A0
  8
0
  6
CONTINUOUS
 62
     3
 10
37.9157216157275911
 20
-22.6479507917437104
 30
0.0
 11
43.5089320837798113
 21
-22.6479507917437104
 31
0.0
210
0.0
220
1.0
230
0.0
  0
LINE
  5
1A5A1
  8
0
  6
CONTINUOUS
 62
     3
 10
38.4780111943803718
 20
-35.0479507917437232
 30
0.0
 11
38.4780111943803718
 21
-41.0479507917437232
 31
0.0
210
0.0
220
1.0
230
0.0
  0
LINE
  5
1A5A2
  8
0
  6
CONTINUOUS
 62
     3
 10
37.9157216157275414
 20
-41.0479507917437232
 30
0.0
 11
37.9157216157275414
 21
-35.0479507917437232
 31
0.0
210
0.0
220
1.0
230
0.0
  0
LINE
  5
1A5A3
  8
0
  6
CONTINUOUS
 62
     3
 10
43.5089320837798113
 20
-35.0479507917437232
 30
0.0
 11
43.5089320837798113
 21
-41.0479507917437232
 31
0.0
210
0.0
220
1.0
230
0.0
  0
LINE
  5
1A5A4
  8
0
  6
CONTINUOUS
 62
     3
 10
43.5089320837798113
 20
-35.0479507917437232
 30
0.0
 11
37.9157216157275911
 21
-35.0479507917437232
 31
0.0
210
0.0
220
1.0
230
0.0
  0
LINE
  5
1A5A5
  8
0
  6
CONTINUOUS
 62
     3
 10
37.9157216157275911
 20
-41.0479507917437232
 30
0.0
 11
43.5089320837798113
 21
-41.0479507917437019
 31
0.0
210
0.0
220
1.0
230
0.0
  0
LINE
  5
1A5A6
  8
0
  6
CONTINUOUS
 62
     3
 10
38.4780111943803718
 20
-53.4479507917437076
 30
0.0
 11
38.4780111943803718
 21
-59.4479507917437076
 31
0.0
210
0.0
220
1.0
230
0.0
  0
LINE
  5
1A5A7
  8
0
  6
CONTINUOUS
 62
     3
 10
37.9157216157275414
 20
-59.4479507917437076
 30
0.0
 11
37.9157216157275414
 21
-53.4479507917437076
 31
0.0
210
0.0
220
1.0
230
0.0
  0
LINE
  5
1A5A8
  8
0
  6
CONTINUOUS
 62
     3
 10
43.5089320837798113
 20
-53.4479507917437076
 30
0.0
 11
43.5089320837798113
 21
-59.4479507917437076
 31
0.0
210
0.0
220
1.0
230
0.0
  0
LINE
  5
1A5A9
  8
0
  6
CONTINUOUS
 62
     3
 10
43.5089320837798113
 20
-53.4479507917437076
 30
0.0
 11
37.9157216157275911
 21
-53.4479507917437076
 31
0.0
210
0.0
220
1.0
230
0.0
  0
LINE
  5
1A5AA
  8
0
  6
CONTINUOUS
 62
     3
 10
37.9157216157275911
 20
-59.4479507917437076
 30
0.0
 11
43.5089320837798113
 21
-59.4479507917437076
 31
0.0
210
0.0
220
1.0
230
0.0
  0
LINE
  5
1A5AB
  8
0
  6
CONTINUOUS
 62
     3
 10
38.4780111943803718
 20
-71.8479507917437132
 30
0.0
 11
38.4780111943803718
 21
-77.8479507917437132
 31
0.0
210
0.0
220
1.0
230
0.0
  0
LINE
  5
1A5AC
  8
0
  6
CONTINUOUS
 62
     3
 10
37.9157216157275414
 20
-77.8479507917437132
 30
0.0
 11
37.9157216157275414
 21
-71.8479507917437132
 31
0.0
210
0.0
220
1.0
230
0.0
  0
LINE
  5
1A5AD
  8
0
  6
CONTINUOUS
 62
     3
 10
43.5089320837798113
 20
-71.8479507917437132
 30
0.0
 11
43.5089320837798113
 21
-77.8479507917437132
 31
0.0
210
0.0
220
1.0
230
0.0
  0
LINE
  5
1A5AE
  8
0
  6
CONTINUOUS
 62
     3
 10
43.5089320837798113
 20
-71.8479507917437132
 30
0.0
 11
37.9157216157275911
 21
-71.8479507917437132
 31
0.0
210
0.0
220
1.0
230
0.0
  0
LINE
  5
1A5AF
  8
0
  6
CONTINUOUS
 62
     3
 10
37.9157216157275911
 20
-77.8479507917437132
 30
0.0
 11
43.5089320837798113
 21
-77.8479507917437132
 31
0.0
210
0.0
220
1.0
230
0.0
  0
LINE
  5
1A5B0
  8
0
  6
CONTINUOUS
 62
     3
 10
38.4780111943803718
 20
-90.2479507917437189
 30
0.0
 11
38.4780111943803718
 21
-96.2479507917437189
 31
0.0
210
0.0
220
1.0
230
0.0
  0
LINE
  5
1A5B1
  8
0
  6
CONTINUOUS
 62
     3
 10
37.9157216157275414
 20
-96.2479507917437189
 30
0.0
 11
37.9157216157275414
 21
-90.2479507917437189
 31
0.0
210
0.0
220
1.0
230
0.0
  0
LINE
  5
1A5B2
  8
0
  6
CONTINUOUS
 62
     3
 10
43.5089320837798113
 20
-90.2479507917437189
 30
0.0
 11
43.5089320837798113
 21
-96.2479507917437189
 31
0.0
210
0.0
220
1.0
230
0.0
  0
LINE
  5
1A5B3
  8
0
  6
CONTINUOUS
 62
     3
 10
43.5089320837798113
 20
-90.2479507917437189
 30
0.0
 11
37.9157216157275911
 21
-90.2479507917437189
 31
0.0
210
0.0
220
1.0
230
0.0
  0
LINE
  5
1A5B4
  8
0
  6
CONTINUOUS
 62
     3
 10
37.9157216157275911
 20
-96.2479507917437189
 30
0.0
 11
43.5089320837798113
 21
-96.2479507917437189
 31
0.0
210
0.0
220
1.0
230
0.0
  0
LINE
  5
1A5B5
  8
0
  6
CONTINUOUS
 62
     3
 10
38.4780111943803718
 20
-81.0479507917437161
 30
0.0
 11
38.4780111943803718
 21
-87.0479507917437161
 31
0.0
210
0.0
220
1.0
230
0.0
  0
LINE
  5
1A5B6
  8
0
  6
CONTINUOUS
 62
     3
 10
37.9157216157275414
 20
-87.0479507917437161
 30
0.0
 11
37.9157216157275414
 21
-81.0479507917437161
 31
0.0
210
0.0
220
1.0
230
0.0
  0
LINE
  5
1A5B7
  8
0
  6
CONTINUOUS
 62
     3
 10
43.5089320837798113
 20
-81.0479507917437161
 30
0.0
 11
43.5089320837798113
 21
-87.0479507917437161
 31
0.0
210
0.0
220
1.0
230
0.0
  0
LINE
  5
1A5B8
  8
0
  6
CONTINUOUS
 62
     3
 10
43.5089320837798113
 20
-81.0479507917437161
 30
0.0
 11
37.9157216157275911
 21
-81.0479507917437161
 31
0.0
210
0.0
220
1.0
230
0.0
  0
LINE
  5
1A5B9
  8
0
  6
CONTINUOUS
 62
     3
 10
37.9157216157275911
 20
-87.0479507917437161
 30
0.0
 11
43.5089320837798113
 21
-87.0479507917437161
 31
0.0
210
0.0
220
1.0
230
0.0
  0
LINE
  5
1A5BA
  8
0
  6
CONTINUOUS
 62
     3
 10
38.4780111943803718
 20
-62.6479507917437175
 30
0.0
 11
38.4780111943803718
 21
-68.6479507917437246
 31
0.0
210
0.0
220
1.0
230
0.0
  0
LINE
  5
1A5BB
  8
0
  6
CONTINUOUS
 62
     3
 10
37.9157216157275414
 20
-68.6479507917437246
 30
0.0
 11
37.9157216157275414
 21
-62.6479507917437175
 31
0.0
210
0.0
220
1.0
230
0.0
  0
LINE
  5
1A5BC
  8
0
  6
CONTINUOUS
 62
     3
 10
43.5089320837798113
 20
-62.6479507917437175
 30
0.0
 11
43.5089320837798113
 21
-68.6479507917437246
 31
0.0
210
0.0
220
1.0
230
0.0
  0
LINE
  5
1A5BD
  8
0
  6
CONTINUOUS
 62
     3
 10
43.5089320837798113
 20
-62.6479507917437175
 30
0.0
 11
37.9157216157275911
 21
-62.6479507917437175
 31
0.0
210
0.0
220
1.0
230
0.0
  0
LINE
  5
1A5BE
  8
0
  6
CONTINUOUS
 62
     3
 10
37.9157216157275911
 20
-68.6479507917437246
 30
0.0
 11
43.5089320837798113
 21
-68.6479507917437246
 31
0.0
210
0.0
220
1.0
230
0.0
  0
LINE
  5
1A5BF
  8
0
  6
CONTINUOUS
 62
     3
 10
38.4780111943803718
 20
-44.2479507917437189
 30
0.0
 11
38.4780111943803718
 21
-50.2479507917437189
 31
0.0
210
0.0
220
1.0
230
0.0
  0
LINE
  5
1A5C0
  8
0
  6
CONTINUOUS
 62
     3
 10
37.9157216157275414
 20
-50.2479507917437189
 30
0.0
 11
37.9157216157275414
 21
-44.2479507917437189
 31
0.0
210
0.0
220
1.0
230
0.0
  0
LINE
  5
1A5C1
  8
0
  6
CONTINUOUS
 62
     3
 10
43.5089320837798113
 20
-44.2479507917437118
 30
0.0
 11
43.5089320837798113
 21
-50.2479507917437118
 31
0.0
210
0.0
220
1.0
230
0.0
  0
LINE
  5
1A5C2
  8
0
  6
CONTINUOUS
 62
     3
 10
43.5089320837798113
 20
-44.2479507917437189
 30
0.0
 11
37.9157216157275911
 21
-44.2479507917437189
 31
0.0
210
0.0
220
1.0
230
0.0
  0
LINE
  5
1A5C3
  8
0
  6
CONTINUOUS
 62
     3
 10
37.9157216157275911
 20
-50.2479507917437189
 30
0.0
 11
43.5089320837798113
 21
-50.2479507917437118
 31
0.0
210
0.0
220
1.0
230
0.0
  0
LINE
  5
1A5C4
  8
0
  6
CONTINUOUS
 62
     3
 10
38.4780111943803718
 20
-25.8479507917437203
 30
0.0
 11
38.4780111943803718
 21
-31.8479507917437097
 31
0.0
210
0.0
220
1.0
230
0.0
  0
LINE
  5
1A5C5
  8
0
  6
CONTINUOUS
 62
     3
 10
37.9157216157275414
 20
-31.8479507917437097
 30
0.0
 11
37.9157216157275414
 21
-25.8479507917437203
 31
0.0
210
0.0
220
1.0
230
0.0
  0
LINE
  5
1A5C6
  8
0
  6
CONTINUOUS
 62
     3
 10
43.5089320837798113
 20
-25.8479507917437203
 30
0.0
 11
43.5089320837798113
 21
-31.8479507917437097
 31
0.0
210
0.0
220
1.0
230
0.0
  0
LINE
  5
1A5C7
  8
0
  6
CONTINUOUS
 62
     3
 10
43.5089320837798113
 20
-25.8479507917437203
 30
0.0
 11
37.9157216157275911
 21
-25.8479507917437203
 31
0.0
210
0.0
220
1.0
230
0.0
  0
LINE
  5
1A5C8
  8
0
  6
CONTINUOUS
 62
     3
 10
37.9157216157275911
 20
-31.8479507917437097
 30
0.0
 11
43.5089320837798113
 21
-31.8479507917437097
 31
0.0
210
0.0
220
1.0
230
0.0
  0
LINE
  5
1A5C9
  8
0
  6
CONTINUOUS
 62
     3
 10
32.4157747855426805
 20
-90.2479507917436905
 30
0.0
 11
32.4157747855426805
 21
-96.2479507917436905
 31
0.0
210
0.0
220
1.0
230
0.0
  0
LINE
  5
1A5CA
  8
0
  6
CONTINUOUS
 62
     3
 10
31.5503733864479798
 20
-96.2479507917436905
 30
0.0
 11
31.5503733864479798
 21
-90.2479507917436905
 31
0.0
210
0.0
220
1.0
230
0.0
  0
LINE
  5
1A5CB
  8
0
  6
CONTINUOUS
 62
     3
 10
35.420995125686332
 20
-90.2479507917436905
 30
0.0
 11
35.420995125686332
 21
-96.2479507917436905
 31
0.0
210
0.0
220
1.0
230
0.0
  0
LINE
  5
1A5CC
  8
0
  6
CONTINUOUS
 62
     3
 10
35.420995125686332
 20
-90.2479507917436905
 30
0.0
 11
31.5503733864479798
 21
-90.2479507917436905
 31
0.0
210
0.0
220
1.0
230
0.0
  0
LINE
  5
1A5CD
  8
0
  6
CONTINUOUS
 62
     3
 10
31.5503733864479798
 20
-96.2479507917436905
 30
0.0
 11
35.420995125686332
 21
-96.2479507917436905
 31
0.0
210
0.0
220
1.0
230
0.0
  0
LINE
  5
1A5CE
  8
0
  6
CONTINUOUS
 62
     3
 10
32.4157747855426805
 20
-71.8479507917437132
 30
0.0
 11
32.4157747855426805
 21
-77.8479507917437132
 31
0.0
210
0.0
220
1.0
230
0.0
  0
LINE
  5
1A5CF
  8
0
  6
CONTINUOUS
 62
     3
 10
31.5503733864479798
 20
-77.8479507917437132
 30
0.0
 11
31.5503733864479798
 21
-71.8479507917437132
 31
0.0
210
0.0
220
1.0
230
0.0
  0
LINE
  5
1A5D0
  8
0
  6
CONTINUOUS
 62
     3
 10
35.420995125686332
 20
-71.8479507917437132
 30
0.0
 11
35.420995125686332
 21
-77.8479507917437132
 31
0.0
210
0.0
220
1.0
230
0.0
  0
LINE
  5
1A5D1
  8
0
  6
CONTINUOUS
 62
     3
 10
35.420995125686332
 20
-71.8479507917437132
 30
0.0
 11
31.5503733864479798
 21
-71.8479507917437132
 31
0.0
210
0.0
220
1.0
230
0.0
  0
LINE
  5
1A5D2
  8
0
  6
CONTINUOUS
 62
     3
 10
31.5503733864479798
 20
-77.8479507917437132
 30
0.0
 11
35.420995125686332
 21
-77.8479507917437132
 31
0.0
210
0.0
220
1.0
230
0.0
  0
LINE
  5
1A5D3
  8
0
  6
CONTINUOUS
 62
     3
 10
32.4157747855426805
 20
-53.4479507917437076
 30
0.0
 11
32.4157747855426805
 21
-59.4479507917437076
 31
0.0
210
0.0
220
1.0
230
0.0
  0
LINE
  5
1A5D4
  8
0
  6
CONTINUOUS
 62
     3
 10
31.5503733864479798
 20
-59.4479507917437076
 30
0.0
 11
31.5503733864479798
 21
-53.4479507917437076
 31
0.0
210
0.0
220
1.0
230
0.0
  0
LINE
  5
1A5D5
  8
0
  6
CONTINUOUS
 62
     3
 10
35.420995125686332
 20
-53.4479507917437076
 30
0.0
 11
35.420995125686332
 21
-59.4479507917437076
 31
0.0
210
0.0
220
1.0
230
0.0
  0
LINE
  5
1A5D6
  8
0
  6
CONTINUOUS
 62
     3
 10
35.420995125686332
 20
-53.4479507917437076
 30
0.0
 11
31.5503733864479798
 21
-53.4479507917437076
 31
0.0
210
0.0
220
1.0
230
0.0
  0
LINE
  5
1A5D7
  8
0
  6
CONTINUOUS
 62
     3
 10
31.5503733864479798
 20
-59.4479507917437076
 30
0.0
 11
35.420995125686332
 21
-59.4479507917437076
 31
0.0
210
0.0
220
1.0
230
0.0
  0
LINE
  5
1A5D8
  8
0
  6
CONTINUOUS
 62
     3
 10
32.4157747855426805
 20
-35.0479507917437232
 30
0.0
 11
32.4157747855426805
 21
-41.0479507917437232
 31
0.0
210
0.0
220
1.0
230
0.0
  0
LINE
  5
1A5D9
  8
0
  6
CONTINUOUS
 62
     3
 10
31.5503733864479798
 20
-41.0479507917437232
 30
0.0
 11
31.5503733864479798
 21
-35.0479507917437232
 31
0.0
210
0.0
220
1.0
230
0.0
  0
LINE
  5
1A5DA
  8
0
  6
CONTINUOUS
 62
     3
 10
35.420995125686332
 20
-35.0479507917437232
 30
0.0
 11
35.420995125686332
 21
-41.0479507917437232
 31
0.0
210
0.0
220
1.0
230
0.0
  0
LINE
  5
1A5DB
  8
0
  6
CONTINUOUS
 62
     3
 10
35.420995125686332
 20
-35.0479507917437232
 30
0.0
 11
31.5503733864479798
 21
-35.0479507917437232
 31
0.0
210
0.0
220
1.0
230
0.0
  0
LINE
  5
1A5DC
  8
0
  6
CONTINUOUS
 62
     3
 10
31.5503733864479798
 20
-41.0479507917437232
 30
0.0
 11
35.420995125686332
 21
-41.0479507917437232
 31
0.0
210
0.0
220
1.0
230
0.0
  0
LINE
  5
1A5DD
  8
0
  6
CONTINUOUS
 62
     3
 10
32.4157747855426805
 20
-16.6479507917437104
 30
0.0
 11
32.4157747855426805
 21
-22.6479507917437104
 31
0.0
210
0.0
220
1.0
230
0.0
  0
LINE
  5
1A5DE
  8
0
  6
CONTINUOUS
 62
     3
 10
31.5503733864479798
 20
-22.6479507917437104
 30
0.0
 11
31.5503733864479798
 21
-16.6479507917437104
 31
0.0
210
0.0
220
1.0
230
0.0
  0
LINE
  5
1A5DF
  8
0
  6
CONTINUOUS
 62
     3
 10
35.420995125686332
 20
-16.6479507917437104
 30
0.0
 11
35.420995125686332
 21
-22.6479507917437104
 31
0.0
210
0.0
220
1.0
230
0.0
  0
LINE
  5
1A5E0
  8
0
  6
CONTINUOUS
 62
     3
 10
35.420995125686332
 20
-16.6479507917437104
 30
0.0
 11
31.5503733864479798
 21
-16.6479507917437104
 31
0.0
210
0.0
220
1.0
230
0.0
  0
LINE
  5
1A5E1
  8
0
  6
CONTINUOUS
 62
     3
 10
31.5503733864479798
 20
-22.6479507917437104
 30
0.0
 11
35.420995125686332
 21
-22.6479507917437104
 31
0.0
210
0.0
220
1.0
230
0.0
  0
LINE
  5
1A5E2
  8
0
  6
CONTINUOUS
 62
     3
 10
29.7816055875521215
 20
-81.0479507917437161
 30
0.0
 11
29.7816055875521215
 21
-87.0479507917436877
 31
0.0
210
0.0
220
1.0
230
0.0
  0
LINE
  5
1A5E3
  8
0
  6
CONTINUOUS
 62
     3
 10
28.7844957285578893
 20
-87.0479507917436877
 30
0.0
 11
28.7844957285578893
 21
-81.0479507917437161
 31
0.0
210
0.0
220
1.0
230
0.0
  0
LINE
  5
1A5E4
  8
0
  6
CONTINUOUS
 62
     3
 10
30.1659046334658001
 20
-81.0479507917437161
 30
0.0
 11
30.1659046334658001
 21
-87.0479507917436877
 31
0.0
210
0.0
220
1.0
230
0.0
  0
LINE
  5
1A5E5
  8
0
  6
CONTINUOUS
 62
     3
 10
30.1659046334658001
 20
-81.0479507917437161
 30
0.0
 11
28.7844957285578893
 21
-81.0479507917437161
 31
0.0
210
0.0
220
1.0
230
0.0
  0
LINE
  5
1A5E6
  8
0
  6
CONTINUOUS
 62
     3
 10
28.7844957285578893
 20
-87.0479507917436877
 30
0.0
 11
30.1659046334658001
 21
-87.0479507917436877
 31
0.0
210
0.0
220
1.0
230
0.0
  0
LINE
  5
1A5E7
  8
0
  6
CONTINUOUS
 62
     3
 10
29.7816055875521215
 20
-62.6479507917437175
 30
0.0
 11
29.7816055875521215
 21
-68.6479507917437246
 31
0.0
210
0.0
220
1.0
230
0.0
  0
LINE
  5
1A5E8
  8
0
  6
CONTINUOUS
 62
     3
 10
28.7844957285578893
 20
-68.6479507917437246
 30
0.0
 11
28.7844957285578893
 21
-62.6479507917437175
 31
0.0
210
0.0
220
1.0
230
0.0
  0
LINE
  5
1A5E9
  8
0
  6
CONTINUOUS
 62
     3
 10
30.1659046334658001
 20
-62.6479507917437175
 30
0.0
 11
30.1659046334658001
 21
-68.6479507917437246
 31
0.0
210
0.0
220
1.0
230
0.0
  0
LINE
  5
1A5EA
  8
0
  6
CONTINUOUS
 62
     3
 10
30.1659046334658001
 20
-62.6479507917437175
 30
0.0
 11
28.7844957285578893
 21
-62.6479507917437175
 31
0.0
210
0.0
220
1.0
230
0.0
  0
LINE
  5
1A5EB
  8
0
  6
CONTINUOUS
 62
     3
 10
28.7844957285578893
 20
-68.6479507917437246
 30
0.0
 11
30.1659046334658001
 21
-68.6479507917437246
 31
0.0
210
0.0
220
1.0
230
0.0
  0
LINE
  5
1A5EC
  8
0
  6
CONTINUOUS
 62
     3
 10
29.7816055875521215
 20
-44.2479507917436834
 30
0.0
 11
29.7816055875521215
 21
-50.2479507917437118
 31
0.0
210
0.0
220
1.0
230
0.0
  0
LINE
  5
1A5ED
  8
0
  6
CONTINUOUS
 62
     3
 10
28.7844957285578893
 20
-50.2479507917437118
 30
0.0
 11
28.7844957285578893
 21
-44.2479507917436834
 31
0.0
210
0.0
220
1.0
230
0.0
  0
LINE
  5
1A5EE
  8
0
  6
CONTINUOUS
 62
     3
 10
30.1659046334658001
 20
-44.2479507917436834
 30
0.0
 11
30.1659046334658001
 21
-50.2479507917437118
 31
0.0
210
0.0
220
1.0
230
0.0
  0
LINE
  5
1A5EF
  8
0
  6
CONTINUOUS
 62
     3
 10
30.1659046334658001
 20
-44.2479507917436834
 30
0.0
 11
28.7844957285578893
 21
-44.2479507917436834
 31
0.0
210
0.0
220
1.0
230
0.0
  0
LINE
  5
1A5F0
  8
0
  6
CONTINUOUS
 62
     3
 10
28.7844957285578893
 20
-50.2479507917437118
 30
0.0
 11
30.1659046334658001
 21
-50.2479507917437118
 31
0.0
210
0.0
220
1.0
230
0.0
  0
LINE
  5
1A5F1
  8
0
  6
CONTINUOUS
 62
     3
 10
29.7816055875521215
 20
-25.8479507917437203
 30
0.0
 11
29.7816055875521215
 21
-31.8479507917437097
 31
0.0
210
0.0
220
1.0
230
0.0
  0
LINE
  5
1A5F2
  8
0
  6
CONTINUOUS
 62
     3
 10
28.7844957285578893
 20
-31.8479507917437097
 30
0.0
 11
28.7844957285578893
 21
-25.8479507917437203
 31
0.0
210
0.0
220
1.0
230
0.0
  0
LINE
  5
1A5F3
  8
0
  6
CONTINUOUS
 62
     3
 10
30.1659046334658001
 20
-25.8479507917437203
 30
0.0
 11
30.1659046334658001
 21
-31.8479507917437097
 31
0.0
210
0.0
220
1.0
230
0.0
  0
LINE
  5
1A5F4
  8
0
  6
CONTINUOUS
 62
     3
 10
30.1659046334658001
 20
-25.8479507917437203
 30
0.0
 11
28.7844957285578893
 21
-25.8479507917437203
 31
0.0
210
0.0
220
1.0
230
0.0
  0
LINE
  5
1A5F5
  8
0
  6
CONTINUOUS
 62
     3
 10
28.7844957285578893
 20
-31.8479507917437097
 30
0.0
 11
30.1659046334658001
 21
-31.8479507917437097
 31
0.0
210
0.0
220
1.0
230
0.0
  0
LINE
  5
1A5F6
  8
0
  6
CONTINUOUS
 62
     3
 10
69.2817009014075893
 20
-87.0479507917436877
 30
0.0
 11
69.2817009014075893
 21
-81.0479507917437161
 31
0.0
210
0.0
220
1.0
230
0.0
  0
LINE
  5
1A5F7
  8
0
  6
CONTINUOUS
 62
     3
 10
70.6631098063155605
 20
-81.0479507917437161
 30
0.0
 11
70.6631098063155605
 21
-87.0479507917436877
 31
0.0
210
0.0
220
1.0
230
0.0
  0
LINE
  5
1A5F8
  8
0
  6
CONTINUOUS
 62
     3
 10
69.6659999473213247
 20
-87.0479507917436877
 30
0.0
 11
69.6659999473213247
 21
-81.0479507917437161
 31
0.0
210
0.0
220
1.0
230
0.0
  0
LINE
  5
1A5F9
  8
0
  6
CONTINUOUS
 62
     3
 10
70.6631098063155605
 20
-81.0479507917437161
 30
0.0
 11
69.2817009014075893
 21
-81.0479507917437161
 31
0.0
210
0.0
220
1.0
230
0.0
  0
LINE
  5
1A5FA
  8
0
  6
CONTINUOUS
 62
     3
 10
69.2817009014075893
 20
-87.0479507917436877
 30
0.0
 11
70.6631098063155605
 21
-87.0479507917436877
 31
0.0
210
0.0
220
1.0
230
0.0
  0
LINE
  5
1A5FB
  8
0
  6
CONTINUOUS
 62
     3
 10
69.2817009014075893
 20
-68.6479507917437246
 30
0.0
 11
69.2817009014075893
 21
-62.6479507917437175
 31
0.0
210
0.0
220
1.0
230
0.0
  0
LINE
  5
1A5FC
  8
0
  6
CONTINUOUS
 62
     3
 10
70.6631098063155605
 20
-62.6479507917437175
 30
0.0
 11
70.6631098063155605
 21
-68.6479507917437246
 31
0.0
210
0.0
220
1.0
230
0.0
  0
LINE
  5
1A5FD
  8
0
  6
CONTINUOUS
 62
     3
 10
69.6659999473213247
 20
-68.6479507917437246
 30
0.0
 11
69.6659999473213247
 21
-62.6479507917437175
 31
0.0
210
0.0
220
1.0
230
0.0
  0
LINE
  5
1A5FE
  8
0
  6
CONTINUOUS
 62
     3
 10
70.6631098063155605
 20
-62.6479507917437175
 30
0.0
 11
69.2817009014075893
 21
-62.6479507917437175
 31
0.0
210
0.0
220
1.0
230
0.0
  0
LINE
  5
1A5FF
  8
0
  6
CONTINUOUS
 62
     3
 10
69.2817009014075893
 20
-68.6479507917437246
 30
0.0
 11
70.6631098063155605
 21
-68.6479507917437246
 31
0.0
210
0.0
220
1.0
230
0.0
  0
LINE
  5
1A600
  8
0
  6
CONTINUOUS
 62
     3
 10
69.2817009014075893
 20
-50.2479507917437118
 30
0.0
 11
69.2817009014075893
 21
-44.2479507917436834
 31
0.0
210
0.0
220
1.0
230
0.0
  0
LINE
  5
1A601
  8
0
  6
CONTINUOUS
 62
     3
 10
70.6631098063155605
 20
-44.2479507917436834
 30
0.0
 11
70.6631098063155605
 21
-50.2479507917437118
 31
0.0
210
0.0
220
1.0
230
0.0
  0
LINE
  5
1A602
  8
0
  6
CONTINUOUS
 62
     3
 10
69.6659999473213247
 20
-50.2479507917437118
 30
0.0
 11
69.6659999473213247
 21
-44.2479507917436834
 31
0.0
210
0.0
220
1.0
230
0.0
  0
LINE
  5
1A603
  8
0
  6
CONTINUOUS
 62
     3
 10
70.6631098063155605
 20
-44.2479507917436834
 30
0.0
 11
69.2817009014075893
 21
-44.2479507917436834
 31
0.0
210
0.0
220
1.0
230
0.0
  0
LINE
  5
1A604
  8
0
  6
CONTINUOUS
 62
     3
 10
69.2817009014075893
 20
-50.2479507917437118
 30
0.0
 11
70.6631098063155605
 21
-50.2479507917437118
 31
0.0
210
0.0
220
1.0
230
0.0
  0
LINE
  5
1A605
  8
0
  6
CONTINUOUS
 62
     3
 10
69.2817009014075893
 20
-31.8479507917437097
 30
0.0
 11
69.2817009014075893
 21
-25.8479507917437203
 31
0.0
210
0.0
220
1.0
230
0.0
  0
LINE
  5
1A606
  8
0
  6
CONTINUOUS
 62
     3
 10
70.6631098063155605
 20
-25.8479507917437203
 30
0.0
 11
70.6631098063155605
 21
-31.8479507917437097
 31
0.0
210
0.0
220
1.0
230
0.0
  0
LINE
  5
1A607
  8
0
  6
CONTINUOUS
 62
     3
 10
69.6659999473213247
 20
-31.8479507917437097
 30
0.0
 11
69.6659999473213247
 21
-25.8479507917437203
 31
0.0
210
0.0
220
1.0
230
0.0
  0
LINE
  5
1A608
  8
0
  6
CONTINUOUS
 62
     3
 10
70.6631098063155605
 20
-25.8479507917437203
 30
0.0
 11
69.2817009014075893
 21
-25.8479507917437203
 31
0.0
210
0.0
220
1.0
230
0.0
  0
LINE
  5
1A609
  8
0
  6
CONTINUOUS
 62
     3
 10
69.2817009014075893
 20
-31.8479507917437097
 30
0.0
 11
70.6631098063155605
 21
-31.8479507917437097
 31
0.0
210
0.0
220
1.0
230
0.0
  0
LINE
  5
1A60A
  8
0
  6
CONTINUOUS
 62
     3
 10
64.0266104091871284
 20
-96.2479507917436905
 30
0.0
 11
64.0266104091871284
 21
-90.2479507917436905
 31
0.0
210
0.0
220
1.0
230
0.0
  0
LINE
  5
1A60B
  8
0
  6
CONTINUOUS
 62
     3
 10
67.8972321484254735
 20
-90.2479507917436905
 30
0.0
 11
67.8972321484254735
 21
-96.2479507917436905
 31
0.0
210
0.0
220
1.0
230
0.0
  0
LINE
  5
1A60C
  8
0
  6
CONTINUOUS
 62
     3
 10
67.0318307493307657
 20
-96.2479507917436905
 30
0.0
 11
67.0318307493307657
 21
-90.2479507917436905
 31
0.0
210
0.0
220
1.0
230
0.0
  0
LINE
  5
1A60D
  8
0
  6
CONTINUOUS
 62
     3
 10
67.8972321484254735
 20
-90.2479507917436905
 30
0.0
 11
64.0266104091870716
 21
-90.2479507917436905
 31
0.0
210
0.0
220
1.0
230
0.0
  0
LINE
  5
1A60E
  8
0
  6
CONTINUOUS
 62
     3
 10
64.0266104091870716
 20
-96.2479507917436905
 30
0.0
 11
67.8972321484254735
 21
-96.2479507917436905
 31
0.0
210
0.0
220
1.0
230
0.0
  0
LINE
  5
1A60F
  8
0
  6
CONTINUOUS
 62
     3
 10
64.0266104091871284
 20
-77.8479507917437132
 30
0.0
 11
64.0266104091871284
 21
-71.8479507917437132
 31
0.0
210
0.0
220
1.0
230
0.0
  0
LINE
  5
1A610
  8
0
  6
CONTINUOUS
 62
     3
 10
67.8972321484254735
 20
-71.8479507917437132
 30
0.0
 11
67.8972321484254735
 21
-77.8479507917437132
 31
0.0
210
0.0
220
1.0
230
0.0
  0
LINE
  5
1A611
  8
0
  6
CONTINUOUS
 62
     3
 10
67.0318307493307657
 20
-77.8479507917437132
 30
0.0
 11
67.0318307493307657
 21
-71.8479507917437132
 31
0.0
210
0.0
220
1.0
230
0.0
  0
LINE
  5
1A612
  8
0
  6
CONTINUOUS
 62
     3
 10
67.8972321484254735
 20
-71.8479507917437132
 30
0.0
 11
64.0266104091870716
 21
-71.8479507917437132
 31
0.0
210
0.0
220
1.0
230
0.0
  0
LINE
  5
1A613
  8
0
  6
CONTINUOUS
 62
     3
 10
64.0266104091870716
 20
-77.8479507917437132
 30
0.0
 11
67.8972321484254735
 21
-77.8479507917437132
 31
0.0
210
0.0
220
1.0
230
0.0
  0
LINE
  5
1A614
  8
0
  6
CONTINUOUS
 62
     3
 10
64.0266104091871284
 20
-59.4479507917437076
 30
0.0
 11
64.0266104091871284
 21
-53.4479507917437076
 31
0.0
210
0.0
220
1.0
230
0.0
  0
LINE
  5
1A615
  8
0
  6
CONTINUOUS
 62
     3
 10
67.8972321484254735
 20
-53.4479507917437076
 30
0.0
 11
67.8972321484254735
 21
-59.4479507917437076
 31
0.0
210
0.0
220
1.0
230
0.0
  0
LINE
  5
1A616
  8
0
  6
CONTINUOUS
 62
     3
 10
67.0318307493307657
 20
-59.4479507917437076
 30
0.0
 11
67.0318307493307657
 21
-53.4479507917437076
 31
0.0
210
0.0
220
1.0
230
0.0
  0
LINE
  5
1A617
  8
0
  6
CONTINUOUS
 62
     3
 10
67.8972321484254735
 20
-53.4479507917437076
 30
0.0
 11
64.0266104091870716
 21
-53.4479507917437076
 31
0.0
210
0.0
220
1.0
230
0.0
  0
LINE
  5
1A618
  8
0
  6
CONTINUOUS
 62
     3
 10
64.0266104091870716
 20
-59.4479507917437076
 30
0.0
 11
67.8972321484254735
 21
-59.4479507917437076
 31
0.0
210
0.0
220
1.0
230
0.0
  0
LINE
  5
1A619
  8
0
  6
CONTINUOUS
 62
     3
 10
64.0266104091871284
 20
-41.0479507917437232
 30
0.0
 11
64.0266104091871284
 21
-35.0479507917437232
 31
0.0
210
0.0
220
1.0
230
0.0
  0
LINE
  5
1A61A
  8
0
  6
CONTINUOUS
 62
     3
 10
67.8972321484254735
 20
-35.0479507917437232
 30
0.0
 11
67.8972321484254735
 21
-41.0479507917437232
 31
0.0
210
0.0
220
1.0
230
0.0
  0
LINE
  5
1A61B
  8
0
  6
CONTINUOUS
 62
     3
 10
67.0318307493307657
 20
-41.0479507917437232
 30
0.0
 11
67.0318307493307657
 21
-35.0479507917437232
 31
0.0
210
0.0
220
1.0
230
0.0
  0
LINE
  5
1A61C
  8
0
  6
CONTINUOUS
 62
     3
 10
67.8972321484254735
 20
-35.0479507917437232
 30
0.0
 11
64.0266104091870716
 21
-35.0479507917437232
 31
0.0
210
0.0
220
1.0
230
0.0
  0
LINE
  5
1A61D
  8
0
  6
CONTINUOUS
 62
     3
 10
64.0266104091870716
 20
-41.0479507917437232
 30
0.0
 11
67.8972321484254735
 21
-41.0479507917437232
 31
0.0
210
0.0
220
1.0
230
0.0
  0
LINE
  5
1A61E
  8
0
  6
CONTINUOUS
 62
     3
 10
64.0266104091871284
 20
-22.6479507917437104
 30
0.0
 11
64.0266104091871284
 21
-16.6479507917437104
 31
0.0
210
0.0
220
1.0
230
0.0
  0
LINE
  5
1A61F
  8
0
  6
CONTINUOUS
 62
     3
 10
67.8972321484254735
 20
-16.6479507917437104
 30
0.0
 11
67.8972321484254735
 21
-22.6479507917437104
 31
0.0
210
0.0
220
1.0
230
0.0
  0
LINE
  5
1A620
  8
0
  6
CONTINUOUS
 62
     3
 10
67.0318307493307657
 20
-22.6479507917437104
 30
0.0
 11
67.0318307493307657
 21
-16.6479507917437104
 31
0.0
210
0.0
220
1.0
230
0.0
  0
LINE
  5
1A621
  8
0
  6
CONTINUOUS
 62
     3
 10
67.8972321484254735
 20
-16.6479507917437104
 30
0.0
 11
64.0266104091870716
 21
-16.6479507917437104
 31
0.0
210
0.0
220
1.0
230
0.0
  0
LINE
  5
1A622
  8
0
  6
CONTINUOUS
 62
     3
 10
64.0266104091870716
 20
-22.6479507917437104
 30
0.0
 11
67.8972321484254735
 21
-22.6479507917437104
 31
0.0
210
0.0
220
1.0
230
0.0
  0
LINE
  5
1A623
  8
0
  6
CONTINUOUS
 62
     3
 10
55.9386734510936208
 20
-87.0479507917436877
 30
0.0
 11
55.9386734510936208
 21
-81.0479507917437161
 31
0.0
210
0.0
220
1.0
230
0.0
  0
LINE
  5
1A624
  8
0
  6
CONTINUOUS
 62
     3
 10
61.5318839191458622
 20
-81.0479507917437161
 30
0.0
 11
61.5318839191458622
 21
-87.0479507917436877
 31
0.0
210
0.0
220
1.0
230
0.0
  0
LINE
  5
1A625
  8
0
  6
CONTINUOUS
 62
     3
 10
60.9695943404930176
 20
-87.0479507917436877
 30
0.0
 11
60.9695943404930176
 21
-81.0479507917437161
 31
0.0
210
0.0
220
1.0
230
0.0
  0
LINE
  5
1A626
  8
0
  6
CONTINUOUS
 62
     3
 10
61.5318839191458622
 20
-81.0479507917437161
 30
0.0
 11
55.9386734510936208
 21
-81.0479507917437161
 31
0.0
210
0.0
220
1.0
230
0.0
  0
LINE
  5
1A627
  8
0
  6
CONTINUOUS
 62
     3
 10
55.9386734510936208
 20
-87.0479507917436877
 30
0.0
 11
61.5318839191458622
 21
-87.0479507917436877
 31
0.0
210
0.0
220
1.0
230
0.0
  0
LINE
  5
1A628
  8
0
  6
CONTINUOUS
 62
     3
 10
55.9386734510936208
 20
-68.6479507917437246
 30
0.0
 11
55.9386734510936208
 21
-62.6479507917436891
 31
0.0
210
0.0
220
1.0
230
0.0
  0
LINE
  5
1A629
  8
0
  6
CONTINUOUS
 62
     3
 10
61.5318839191458622
 20
-62.6479507917437175
 30
0.0
 11
61.5318839191458622
 21
-68.6479507917437246
 31
0.0
210
0.0
220
1.0
230
0.0
  0
LINE
  5
1A62A
  8
0
  6
CONTINUOUS
 62
     3
 10
60.9695943404930176
 20
-68.6479507917437246
 30
0.0
 11
60.9695943404930176
 21
-62.6479507917437175
 31
0.0
210
0.0
220
1.0
230
0.0
  0
LINE
  5
1A62B
  8
0
  6
CONTINUOUS
 62
     3
 10
61.5318839191458622
 20
-62.6479507917437175
 30
0.0
 11
55.9386734510936208
 21
-62.6479507917436891
 31
0.0
210
0.0
220
1.0
230
0.0
  0
LINE
  5
1A62C
  8
0
  6
CONTINUOUS
 62
     3
 10
55.9386734510936208
 20
-68.6479507917437246
 30
0.0
 11
61.5318839191458622
 21
-68.6479507917437246
 31
0.0
210
0.0
220
1.0
230
0.0
  0
LINE
  5
1A62D
  8
0
  6
CONTINUOUS
 62
     3
 10
55.9386734510936208
 20
-50.2479507917436905
 30
0.0
 11
55.9386734510936208
 21
-44.2479507917436834
 31
0.0
210
0.0
220
1.0
230
0.0
  0
LINE
  5
1A62E
  8
0
  6
CONTINUOUS
 62
     3
 10
61.5318839191458622
 20
-44.2479507917436834
 30
0.0
 11
61.5318839191458622
 21
-50.2479507917437118
 31
0.0
210
0.0
220
1.0
230
0.0
  0
LINE
  5
1A62F
  8
0
  6
CONTINUOUS
 62
     3
 10
60.9695943404930176
 20
-50.2479507917437118
 30
0.0
 11
60.9695943404930176
 21
-44.2479507917436834
 31
0.0
210
0.0
220
1.0
230
0.0
  0
LINE
  5
1A630
  8
0
  6
CONTINUOUS
 62
     3
 10
61.5318839191458622
 20
-44.2479507917436834
 30
0.0
 11
55.9386734510936208
 21
-44.2479507917436834
 31
0.0
210
0.0
220
1.0
230
0.0
  0
LINE
  5
1A631
  8
0
  6
CONTINUOUS
 62
     3
 10
55.9386734510936208
 20
-50.2479507917437118
 30
0.0
 11
61.5318839191458622
 21
-50.2479507917437118
 31
0.0
210
0.0
220
1.0
230
0.0
  0
LINE
  5
1A632
  8
0
  6
CONTINUOUS
 62
     3
 10
55.9386734510936208
 20
-31.8479507917437097
 30
0.0
 11
55.9386734510936208
 21
-25.8479507917437203
 31
0.0
210
0.0
220
1.0
230
0.0
  0
LINE
  5
1A633
  8
0
  6
CONTINUOUS
 62
     3
 10
61.5318839191458622
 20
-25.8479507917437203
 30
0.0
 11
61.5318839191458622
 21
-31.8479507917437097
 31
0.0
210
0.0
220
1.0
230
0.0
  0
LINE
  5
1A634
  8
0
  6
CONTINUOUS
 62
     3
 10
60.9695943404930176
 20
-31.8479507917437097
 30
0.0
 11
60.9695943404930176
 21
-25.8479507917437203
 31
0.0
210
0.0
220
1.0
230
0.0
  0
LINE
  5
1A635
  8
0
  6
CONTINUOUS
 62
     3
 10
61.5318839191458622
 20
-25.8479507917437203
 30
0.0
 11
55.9386734510936208
 21
-25.8479507917437203
 31
0.0
210
0.0
220
1.0
230
0.0
  0
LINE
  5
1A636
  8
0
  6
CONTINUOUS
 62
     3
 10
55.9386734510936208
 20
-31.8479507917437097
 30
0.0
 11
61.5318839191458622
 21
-31.8479507917437097
 31
0.0
210
0.0
220
1.0
230
0.0
  0
LINE
  5
1A637
  8
0
  6
CONTINUOUS
 62
     3
 10
46.7676145448445482
 20
-90.2479507917436905
 30
0.0
 11
46.7676145448445482
 21
-96.2479507917436905
 31
0.0
210
0.0
220
1.0
230
0.0
  0
LINE
  5
1A638
  8
0
  6
CONTINUOUS
 62
     3
 10
46.6198051337149124
 20
-96.2479507917436905
 30
0.0
 11
46.6198051337149124
 21
-90.2479507917436905
 31
0.0
210
0.0
220
1.0
230
0.0
  0
LINE
  5
1A639
  8
0
  6
CONTINUOUS
 62
     3
 10
52.8278004011585196
 20
-90.2479507917436905
 30
0.0
 11
52.8278004011585196
 21
-96.2479507917436905
 31
0.0
210
0.0
220
1.0
230
0.0
  0
LINE
  5
1A63A
  8
0
  6
CONTINUOUS
 62
     3
 10
52.679990990028891
 20
-96.2479507917436905
 30
0.0
 11
52.679990990028891
 21
-90.2479507917436905
 31
0.0
210
0.0
220
1.0
230
0.0
  0
LINE
  5
1A63B
  8
0
  6
CONTINUOUS
 62
     3
 10
52.8278004011585196
 20
-90.2479507917436905
 30
0.0
 11
46.6198051337149124
 21
-90.2479507917436905
 31
0.0
210
0.0
220
1.0
230
0.0
  0
LINE
  5
1A63C
  8
0
  6
CONTINUOUS
 62
     3
 10
46.6198051337149124
 20
-96.2479507917436905
 30
0.0
 11
52.8278004011585196
 21
-96.2479507917436905
 31
0.0
210
0.0
220
1.0
230
0.0
  0
LINE
  5
1A63D
  8
0
  6
CONTINUOUS
 62
     3
 10
46.7676145448445482
 20
-71.8479507917437132
 30
0.0
 11
46.7676145448445482
 21
-77.8479507917437132
 31
0.0
210
0.0
220
1.0
230
0.0
  0
LINE
  5
1A63E
  8
0
  6
CONTINUOUS
 62
     3
 10
46.6198051337149124
 20
-77.8479507917437132
 30
0.0
 11
46.6198051337149124
 21
-71.8479507917437132
 31
0.0
210
0.0
220
1.0
230
0.0
  0
LINE
  5
1A63F
  8
0
  6
CONTINUOUS
 62
     3
 10
52.8278004011585196
 20
-71.8479507917437132
 30
0.0
 11
52.8278004011585196
 21
-77.8479507917437132
 31
0.0
210
0.0
220
1.0
230
0.0
  0
LINE
  5
1A640
  8
0
  6
CONTINUOUS
 62
     3
 10
52.679990990028891
 20
-77.8479507917437132
 30
0.0
 11
52.679990990028891
 21
-71.8479507917437132
 31
0.0
210
0.0
220
1.0
230
0.0
  0
LINE
  5
1A641
  8
0
  6
CONTINUOUS
 62
     3
 10
52.8278004011585196
 20
-71.8479507917437132
 30
0.0
 11
46.6198051337149124
 21
-71.8479507917437132
 31
0.0
210
0.0
220
1.0
230
0.0
  0
LINE
  5
1A642
  8
0
  6
CONTINUOUS
 62
     3
 10
46.6198051337149124
 20
-77.8479507917437132
 30
0.0
 11
52.8278004011585196
 21
-77.8479507917437132
 31
0.0
210
0.0
220
1.0
230
0.0
  0
LINE
  5
1A643
  8
0
  6
CONTINUOUS
 62
     3
 10
46.7676145448445482
 20
-53.4479507917436933
 30
0.0
 11
46.7676145448445482
 21
-59.4479507917436933
 31
0.0
210
0.0
220
1.0
230
0.0
  0
LINE
  5
1A644
  8
0
  6
CONTINUOUS
 62
     3
 10
46.6198051337149124
 20
-59.4479507917436933
 30
0.0
 11
46.6198051337149124
 21
-53.4479507917436933
 31
0.0
210
0.0
220
1.0
230
0.0
  0
LINE
  5
1A645
  8
0
  6
CONTINUOUS
 62
     3
 10
52.8278004011585196
 20
-53.4479507917436933
 30
0.0
 11
52.8278004011585196
 21
-59.4479507917436933
 31
0.0
210
0.0
220
1.0
230
0.0
  0
LINE
  5
1A646
  8
0
  6
CONTINUOUS
 62
     3
 10
52.679990990028891
 20
-59.4479507917436933
 30
0.0
 11
52.679990990028891
 21
-53.4479507917436933
 31
0.0
210
0.0
220
1.0
230
0.0
  0
LINE
  5
1A647
  8
0
  6
CONTINUOUS
 62
     3
 10
52.8278004011585196
 20
-53.4479507917436933
 30
0.0
 11
46.6198051337149124
 21
-53.4479507917436933
 31
0.0
210
0.0
220
1.0
230
0.0
  0
LINE
  5
1A648
  8
0
  6
CONTINUOUS
 62
     3
 10
46.6198051337149124
 20
-59.4479507917436933
 30
0.0
 11
52.8278004011585196
 21
-59.4479507917436933
 31
0.0
210
0.0
220
1.0
230
0.0
  0
LINE
  5
1A649
  8
0
  6
CONTINUOUS
 62
     3
 10
46.7676145448445482
 20
-35.0479507917437232
 30
0.0
 11
46.7676145448445482
 21
-41.0479507917437232
 31
0.0
210
0.0
220
1.0
230
0.0
  0
LINE
  5
1A64A
  8
0
  6
CONTINUOUS
 62
     3
 10
46.6198051337149124
 20
-41.0479507917437019
 30
0.0
 11
46.6198051337149124
 21
-35.0479507917437019
 31
0.0
210
0.0
220
1.0
230
0.0
  0
LINE
  5
1A64B
  8
0
  6
CONTINUOUS
 62
     3
 10
52.8278004011585196
 20
-35.0479507917437232
 30
0.0
 11
52.8278004011585196
 21
-41.0479507917437232
 31
0.0
210
0.0
220
1.0
230
0.0
  0
LINE
  5
1A64C
  8
0
  6
CONTINUOUS
 62
     3
 10
52.679990990028891
 20
-41.0479507917437019
 30
0.0
 11
52.679990990028891
 21
-35.0479507917437019
 31
0.0
210
0.0
220
1.0
230
0.0
  0
LINE
  5
1A64D
  8
0
  6
CONTINUOUS
 62
     3
 10
52.8278004011585196
 20
-35.0479507917437232
 30
0.0
 11
46.6198051337149124
 21
-35.0479507917437232
 31
0.0
210
0.0
220
1.0
230
0.0
  0
LINE
  5
1A64E
  8
0
  6
CONTINUOUS
 62
     3
 10
46.6198051337149124
 20
-41.0479507917437019
 30
0.0
 11
52.8278004011585196
 21
-41.0479507917437019
 31
0.0
210
0.0
220
1.0
230
0.0
  0
LINE
  5
1A64F
  8
0
  6
CONTINUOUS
 62
     3
 10
46.7676145448445482
 20
-16.6479507917437104
 30
0.0
 11
46.7676145448445482
 21
-22.6479507917437104
 31
0.0
210
0.0
220
1.0
230
0.0
  0
LINE
  5
1A650
  8
0
  6
CONTINUOUS
 62
     3
 10
46.6198051337149124
 20
-22.6479507917437104
 30
0.0
 11
46.6198051337149124
 21
-16.6479507917437104
 31
0.0
210
0.0
220
1.0
230
0.0
  0
LINE
  5
1A651
  8
0
  6
CONTINUOUS
 62
     3
 10
52.8278004011585196
 20
-16.6479507917437104
 30
0.0
 11
52.8278004011585196
 21
-22.6479507917437104
 31
0.0
210
0.0
220
1.0
230
0.0
  0
LINE
  5
1A652
  8
0
  6
CONTINUOUS
 62
     3
 10
52.679990990028891
 20
-22.6479507917437104
 30
0.0
 11
52.679990990028891
 21
-16.6479507917437104
 31
0.0
210
0.0
220
1.0
230
0.0
  0
LINE
  5
1A653
  8
0
  6
CONTINUOUS
 62
     3
 10
52.8278004011585196
 20
-16.6479507917437104
 30
0.0
 11
46.6198051337149124
 21
-16.6479507917437104
 31
0.0
210
0.0
220
1.0
230
0.0
  0
LINE
  5
1A654
  8
0
  6
CONTINUOUS
 62
     3
 10
46.6198051337149124
 20
-22.6479507917437104
 30
0.0
 11
52.8278004011585196
 21
-22.6479507917437104
 31
0.0
210
0.0
220
1.0
230
0.0
  0
LINE
  5
1A655
  8
0
  6
CONTINUOUS
 62
     3
 10
28.7238027674367302
 20
-13.6479507917437104
 30
0.0
 11
70.7238027674367231
 21
-13.6479507917437104
 31
0.0
210
0.0
220
1.0
230
0.0
  0
LINE
  5
1A656
  8
0
  6
CONTINUOUS
 62
     3
 10
28.7238027674367302
 20
-99.6479507917436536
 30
0.0
 11
70.7238027674367231
 21
-99.6479507917436536
 31
0.0
210
0.0
220
1.0
230
0.0
  0
LINE
  5
1A657
  8
0
  6
CONTINUOUS
 62
     3
 10
29.0737574215403392
 20
-103.6479507917435967
 30
0.0
 11
70.3738481133331106
 21
-103.6479507917435967
 31
0.0
210
0.0
220
1.0
230
0.0
  0
LINE
  5
1A658
  8
0
  6
CONTINUOUS
 62
     3
 10
28.7238027674367302
 20
-99.6479507917436536
 30
0.0
 11
28.7238027674367302
 21
-13.6479507917437104
 31
0.0
210
0.0
220
1.0
230
0.0
  0
LINE
  5
1A659
  8
0
  6
CONTINUOUS
 62
     3
 10
70.7238027674367231
 20
-99.6479507917436536
 30
0.0
 11
70.7238027674367231
 21
-13.6479507917437104
 31
0.0
210
0.0
220
1.0
230
0.0
  0
LINE
  5
1A65A
  8
0
  6
CONTINUOUS
 62
     3
 10
29.0737574215403392
 20
-103.6479507917435967
 30
0.0
 11
28.7238027674367302
 21
-99.6479507917436536
 31
0.0
210
0.0
220
1.0
230
0.0
  0
LINE
  5
1A65B
  8
0
  6
CONTINUOUS
 62
     3
 10
70.3738481133331106
 20
-103.6479507917435967
 30
0.0
 11
70.7238027674367231
 21
-99.6479507917436536
 31
0.0
210
0.0
220
1.0
230
0.0
  0
LINE
  5
1A65C
  8
0
  6
CONTINUOUS
 62
     3
 10
70.7238027674367231
 20
-12.6479507917437104
 30
0.0
 11
28.7238027674367302
 21
-12.6479507917437104
 31
0.0
210
0.0
220
1.0
230
0.0
  0
LINE
  5
1A65D
  8
0
  6
CONTINUOUS
 62
     3
 10
28.7238027674367302
 20
-13.6479507917437104
 30
0.0
 11
70.7238027674367231
 21
-13.6479507917437104
 31
0.0
210
0.0
220
1.0
230
0.0
  0
LINE
  5
1A65E
  8
0
  6
CONTINUOUS
 62
     3
 10
70.7238027674367231
 20
-12.6479507917437104
 30
0.0
 11
70.7238027674367231
 21
-13.6479507917437104
 31
0.0
210
0.0
220
1.0
230
0.0
  0
LINE
  5
1A65F
  8
0
  6
CONTINUOUS
 62
     3
 10
28.7238027674367302
 20
-12.6479507917437104
 30
0.0
 11
28.7238027674367302
 21
-13.6479507917437104
 31
0.0
210
0.0
220
1.0
230
0.0
  0
LINE
  5
1A660
  8
0
  6
VERDECKT
 62
     1
 10
55.6427272280623626
 20
-22.6479507917437104
 30
0.0
 11
55.9386734510936208
 21
-22.6479507917437104
 31
0.0
210
0.0
220
1.0
230
0.0
  0
LINE
  5
1A661
  8
0
  6
VERDECKT
 62
     1
 10
55.6427272280623626
 20
-16.6479507917437104
 30
0.0
 11
55.6427272280623626
 21
-22.6479507917437104
 31
0.0
210
0.0
220
1.0
230
0.0
  0
LINE
  5
1A662
  8
0
  6
VERDECKT
 62
     1
 10
55.6427272280623626
 20
-16.6479507917437104
 30
0.0
 11
55.9386734510936208
 21
-16.6479507917437104
 31
0.0
210
0.0
220
1.0
230
0.0
  0
LINE
  5
1A663
  8
0
  6
VERDECKT
 62
     1
 10
55.6427272280623626
 20
-41.0479507917437232
 30
0.0
 11
55.9386734510936208
 21
-41.0479507917437232
 31
0.0
210
0.0
220
1.0
230
0.0
  0
LINE
  5
1A664
  8
0
  6
VERDECKT
 62
     1
 10
55.6427272280623626
 20
-35.0479507917437232
 30
0.0
 11
55.6427272280623626
 21
-41.0479507917437232
 31
0.0
210
0.0
220
1.0
230
0.0
  0
LINE
  5
1A665
  8
0
  6
VERDECKT
 62
     1
 10
55.6427272280623626
 20
-35.0479507917437232
 30
0.0
 11
55.9386734510936208
 21
-35.0479507917437232
 31
0.0
210
0.0
220
1.0
230
0.0
  0
LINE
  5
1A666
  8
0
  6
VERDECKT
 62
     1
 10
55.6427272280623626
 20
-59.4479507917437076
 30
0.0
 11
55.9386734510936208
 21
-59.4479507917437076
 31
0.0
210
0.0
220
1.0
230
0.0
  0
LINE
  5
1A667
  8
0
  6
VERDECKT
 62
     1
 10
55.6427272280623626
 20
-53.4479507917437076
 30
0.0
 11
55.6427272280623626
 21
-59.4479507917437076
 31
0.0
210
0.0
220
1.0
230
0.0
  0
LINE
  5
1A668
  8
0
  6
VERDECKT
 62
     1
 10
55.6427272280623626
 20
-53.4479507917437076
 30
0.0
 11
55.9386734510936208
 21
-53.4479507917437076
 31
0.0
210
0.0
220
1.0
230
0.0
  0
LINE
  5
1A669
  8
0
  6
VERDECKT
 62
     1
 10
55.6427272280623626
 20
-77.8479507917437132
 30
0.0
 11
55.9386734510936208
 21
-77.8479507917437132
 31
0.0
210
0.0
220
1.0
230
0.0
  0
LINE
  5
1A66A
  8
0
  6
VERDECKT
 62
     1
 10
55.6427272280623626
 20
-71.8479507917437132
 30
0.0
 11
55.6427272280623626
 21
-77.8479507917437132
 31
0.0
210
0.0
220
1.0
230
0.0
  0
LINE
  5
1A66B
  8
0
  6
VERDECKT
 62
     1
 10
55.6427272280623626
 20
-71.8479507917437132
 30
0.0
 11
55.9386734510936208
 21
-71.8479507917437132
 31
0.0
210
0.0
220
1.0
230
0.0
  0
LINE
  5
1A66C
  8
0
  6
VERDECKT
 62
     1
 10
55.6427272280623626
 20
-96.2479507917436905
 30
0.0
 11
55.9386734510936208
 21
-96.2479507917436905
 31
0.0
210
0.0
220
1.0
230
0.0
  0
LINE
  5
1A66D
  8
0
  6
VERDECKT
 62
     1
 10
55.6427272280623626
 20
-90.2479507917436905
 30
0.0
 11
55.6427272280623626
 21
-96.2479507917436905
 31
0.0
210
0.0
220
1.0
230
0.0
  0
LINE
  5
1A66E
  8
0
  6
VERDECKT
 62
     1
 10
55.6427272280623626
 20
-90.2479507917436905
 30
0.0
 11
55.9386734510936208
 21
-90.2479507917436905
 31
0.0
210
0.0
220
1.0
230
0.0
  0
LINE
  5
1A66F
  8
0
  6
VERDECKT
 62
     1
 10
63.3455243310085621
 20
-31.8479507917437097
 30
0.0
 11
64.0266104091871284
 21
-31.8479507917437097
 31
0.0
210
0.0
220
1.0
230
0.0
  0
LINE
  5
1A670
  8
0
  6
VERDECKT
 62
     1
 10
63.345524331008491
 20
-25.8479507917437203
 30
0.0
 11
63.345524331008491
 21
-31.8479507917437097
 31
0.0
210
0.0
220
1.0
230
0.0
  0
LINE
  5
1A671
  8
0
  6
VERDECKT
 62
     1
 10
63.3455243310085621
 20
-25.8479507917437203
 30
0.0
 11
64.0266104091871284
 21
-25.8479507917437203
 31
0.0
210
0.0
220
1.0
230
0.0
  0
LINE
  5
1A672
  8
0
  6
VERDECKT
 62
     1
 10
63.3455243310085621
 20
-50.2479507917437118
 30
0.0
 11
64.0266104091871284
 21
-50.2479507917437118
 31
0.0
210
0.0
220
1.0
230
0.0
  0
LINE
  5
1A673
  8
0
  6
VERDECKT
 62
     1
 10
63.345524331008491
 20
-44.2479507917436834
 30
0.0
 11
63.345524331008491
 21
-50.2479507917437118
 31
0.0
210
0.0
220
1.0
230
0.0
  0
LINE
  5
1A674
  8
0
  6
VERDECKT
 62
     1
 10
63.3455243310085621
 20
-44.2479507917436834
 30
0.0
 11
64.0266104091871284
 21
-44.2479507917436834
 31
0.0
210
0.0
220
1.0
230
0.0
  0
LINE
  5
1A675
  8
0
  6
VERDECKT
 62
     1
 10
63.3455243310085621
 20
-68.6479507917437246
 30
0.0
 11
64.0266104091871284
 21
-68.6479507917437246
 31
0.0
210
0.0
220
1.0
230
0.0
  0
LINE
  5
1A676
  8
0
  6
VERDECKT
 62
     1
 10
63.345524331008491
 20
-62.6479507917437175
 30
0.0
 11
63.345524331008491
 21
-68.6479507917437246
 31
0.0
210
0.0
220
1.0
230
0.0
  0
LINE
  5
1A677
  8
0
  6
VERDECKT
 62
     1
 10
63.3455243310085621
 20
-62.6479507917437175
 30
0.0
 11
64.0266104091871284
 21
-62.6479507917437175
 31
0.0
210
0.0
220
1.0
230
0.0
  0
LINE
  5
1A678
  8
0
  6
VERDECKT
 62
     1
 10
63.3455243310085621
 20
-87.0479507917436877
 30
0.0
 11
64.0266104091871284
 21
-87.0479507917436877
 31
0.0
210
0.0
220
1.0
230
0.0
  0
LINE
  5
1A679
  8
0
  6
VERDECKT
 62
     1
 10
63.345524331008491
 20
-81.0479507917437161
 30
0.0
 11
63.345524331008491
 21
-87.0479507917436877
 31
0.0
210
0.0
220
1.0
230
0.0
  0
LINE
  5
1A67A
  8
0
  6
VERDECKT
 62
     1
 10
63.3455243310085621
 20
-81.0479507917437161
 30
0.0
 11
64.0266104091871284
 21
-81.0479507917437161
 31
0.0
210
0.0
220
1.0
230
0.0
  0
LINE
  5
1A67B
  8
0
  6
VERDECKT
 62
     1
 10
68.350372418837523
 20
-22.6479507917437104
 30
0.0
 11
69.2817009014075893
 21
-22.6479507917437104
 31
0.0
210
0.0
220
1.0
230
0.0
  0
LINE
  5
1A67C
  8
0
  6
VERDECKT
 62
     1
 10
68.3503724188375941
 20
-16.6479507917437104
 30
0.0
 11
68.3503724188375941
 21
-22.6479507917437104
 31
0.0
210
0.0
220
1.0
230
0.0
  0
LINE
  5
1A67D
  8
0
  6
VERDECKT
 62
     1
 10
68.350372418837523
 20
-16.6479507917437104
 30
0.0
 11
69.2817009014075893
 21
-16.6479507917437104
 31
0.0
210
0.0
220
1.0
230
0.0
  0
LINE
  5
1A67E
  8
0
  6
VERDECKT
 62
     1
 10
68.350372418837523
 20
-41.0479507917437232
 30
0.0
 11
69.2817009014075893
 21
-41.0479507917437232
 31
0.0
210
0.0
220
1.0
230
0.0
  0
LINE
  5
1A67F
  8
0
  6
VERDECKT
 62
     1
 10
68.3503724188375941
 20
-35.0479507917437232
 30
0.0
 11
68.3503724188375941
 21
-41.0479507917437232
 31
0.0
210
0.0
220
1.0
230
0.0
  0
LINE
  5
1A680
  8
0
  6
VERDECKT
 62
     1
 10
68.350372418837523
 20
-35.0479507917437232
 30
0.0
 11
69.2817009014075893
 21
-35.0479507917437232
 31
0.0
210
0.0
220
1.0
230
0.0
  0
LINE
  5
1A681
  8
0
  6
VERDECKT
 62
     1
 10
68.350372418837523
 20
-59.4479507917437076
 30
0.0
 11
69.2817009014075893
 21
-59.4479507917437076
 31
0.0
210
0.0
220
1.0
230
0.0
  0
LINE
  5
1A682
  8
0
  6
VERDECKT
 62
     1
 10
68.3503724188375941
 20
-53.4479507917437076
 30
0.0
 11
68.3503724188375941
 21
-59.4479507917437076
 31
0.0
210
0.0
220
1.0
230
0.0
  0
LINE
  5
1A683
  8
0
  6
VERDECKT
 62
     1
 10
68.350372418837523
 20
-53.4479507917437076
 30
0.0
 11
69.2817009014075893
 21
-53.4479507917437076
 31
0.0
210
0.0
220
1.0
230
0.0
  0
LINE
  5
1A684
  8
0
  6
VERDECKT
 62
     1
 10
68.350372418837523
 20
-77.8479507917437132
 30
0.0
 11
69.2817009014075893
 21
-77.8479507917437132
 31
0.0
210
0.0
220
1.0
230
0.0
  0
LINE
  5
1A685
  8
0
  6
VERDECKT
 62
     1
 10
68.3503724188375941
 20
-71.8479507917437132
 30
0.0
 11
68.3503724188375941
 21
-77.8479507917437132
 31
0.0
210
0.0
220
1.0
230
0.0
  0
LINE
  5
1A686
  8
0
  6
VERDECKT
 62
     1
 10
68.350372418837523
 20
-71.8479507917437132
 30
0.0
 11
69.2817009014075893
 21
-71.8479507917437132
 31
0.0
210
0.0
220
1.0
230
0.0
  0
LINE
  5
1A687
  8
0
  6
VERDECKT
 62
     1
 10
68.350372418837523
 20
-96.2479507917436905
 30
0.0
 11
69.2817009014075893
 21
-96.2479507917436905
 31
0.0
210
0.0
220
1.0
230
0.0
  0
LINE
  5
1A688
  8
0
  6
VERDECKT
 62
     1
 10
68.3503724188375941
 20
-90.2479507917436905
 30
0.0
 11
68.3503724188375941
 21
-96.2479507917436905
 31
0.0
210
0.0
220
1.0
230
0.0
  0
LINE
  5
1A689
  8
0
  6
VERDECKT
 62
     1
 10
68.350372418837523
 20
-90.2479507917436905
 30
0.0
 11
69.2817009014075893
 21
-90.2479507917436905
 31
0.0
210
0.0
220
1.0
230
0.0
  0
LINE
  5
1A68A
  8
0
  6
VERDECKT
 62
     1
 10
30.1659046334658711
 20
-22.6479507917437104
 30
0.0
 11
31.097233116035909
 21
-22.6479507917437104
 31
0.0
210
0.0
220
1.0
230
0.0
  0
LINE
  5
1A68B
  8
0
  6
VERDECKT
 62
     1
 10
30.1659046334658711
 20
-16.6479507917437104
 30
0.0
 11
31.097233116035909
 21
-16.6479507917437104
 31
0.0
210
0.0
220
1.0
230
0.0
  0
LINE
  5
1A68C
  8
0
  6
VERDECKT
 62
     1
 10
31.0972331160358415
 20
-22.6479507917437104
 30
0.0
 11
31.0972331160358415
 21
-16.6479507917437104
 31
0.0
210
0.0
220
1.0
230
0.0
  0
LINE
  5
1A68D
  8
0
  6
VERDECKT
 62
     1
 10
30.1659046334658711
 20
-41.0479507917437232
 30
0.0
 11
31.097233116035909
 21
-41.0479507917437232
 31
0.0
210
0.0
220
1.0
230
0.0
  0
LINE
  5
1A68E
  8
0
  6
VERDECKT
 62
     1
 10
30.1659046334658711
 20
-35.0479507917437232
 30
0.0
 11
31.097233116035909
 21
-35.0479507917437232
 31
0.0
210
0.0
220
1.0
230
0.0
  0
LINE
  5
1A68F
  8
0
  6
VERDECKT
 62
     1
 10
31.0972331160358415
 20
-41.0479507917437232
 30
0.0
 11
31.0972331160358415
 21
-35.0479507917437232
 31
0.0
210
0.0
220
1.0
230
0.0
  0
LINE
  5
1A690
  8
0
  6
VERDECKT
 62
     1
 10
30.1659046334658711
 20
-59.4479507917437076
 30
0.0
 11
31.097233116035909
 21
-59.4479507917437076
 31
0.0
210
0.0
220
1.0
230
0.0
  0
LINE
  5
1A691
  8
0
  6
VERDECKT
 62
     1
 10
30.1659046334658711
 20
-53.4479507917437076
 30
0.0
 11
31.097233116035909
 21
-53.4479507917437076
 31
0.0
210
0.0
220
1.0
230
0.0
  0
LINE
  5
1A692
  8
0
  6
VERDECKT
 62
     1
 10
31.0972331160358415
 20
-59.4479507917437076
 30
0.0
 11
31.0972331160358415
 21
-53.4479507917437076
 31
0.0
210
0.0
220
1.0
230
0.0
  0
LINE
  5
1A693
  8
0
  6
VERDECKT
 62
     1
 10
30.1659046334658711
 20
-77.8479507917437132
 30
0.0
 11
31.097233116035909
 21
-77.8479507917437132
 31
0.0
210
0.0
220
1.0
230
0.0
  0
LINE
  5
1A694
  8
0
  6
VERDECKT
 62
     1
 10
30.1659046334658711
 20
-71.8479507917437132
 30
0.0
 11
31.097233116035909
 21
-71.8479507917437132
 31
0.0
210
0.0
220
1.0
230
0.0
  0
LINE
  5
1A695
  8
0
  6
VERDECKT
 62
     1
 10
31.0972331160358415
 20
-77.8479507917437132
 30
0.0
 11
31.0972331160358415
 21
-71.8479507917437132
 31
0.0
210
0.0
220
1.0
230
0.0
  0
LINE
  5
1A696
  8
0
  6
VERDECKT
 62
     1
 10
30.1659046334658711
 20
-96.2479507917436905
 30
0.0
 11
31.097233116035909
 21
-96.2479507917436905
 31
0.0
210
0.0
220
1.0
230
0.0
  0
LINE
  5
1A697
  8
0
  6
VERDECKT
 62
     1
 10
30.1659046334658711
 20
-90.2479507917436905
 30
0.0
 11
31.097233116035909
 21
-90.2479507917436905
 31
0.0
210
0.0
220
1.0
230
0.0
  0
LINE
  5
1A698
  8
0
  6
VERDECKT
 62
     1
 10
31.0972331160358415
 20
-96.2479507917436905
 30
0.0
 11
31.0972331160358415
 21
-90.2479507917436905
 31
0.0
210
0.0
220
1.0
230
0.0
  0
LINE
  5
1A699
  8
0
  6
VERDECKT
 62
     1
 10
35.420995125686332
 20
-31.8479507917437097
 30
0.0
 11
36.1020812038648771
 21
-31.8479507917437097
 31
0.0
210
0.0
220
1.0
230
0.0
  0
LINE
  5
1A69A
  8
0
  6
VERDECKT
 62
     1
 10
35.420995125686332
 20
-25.8479507917437203
 30
0.0
 11
36.1020812038648771
 21
-25.8479507917437203
 31
0.0
210
0.0
220
1.0
230
0.0
  0
LINE
  5
1A69B
  8
0
  6
VERDECKT
 62
     1
 10
36.1020812038649481
 20
-31.8479507917437097
 30
0.0
 11
36.1020812038649481
 21
-25.8479507917437203
 31
0.0
210
0.0
220
1.0
230
0.0
  0
LINE
  5
1A69C
  8
0
  6
VERDECKT
 62
     1
 10
35.420995125686332
 20
-50.2479507917437118
 30
0.0
 11
36.1020812038648771
 21
-50.2479507917437118
 31
0.0
210
0.0
220
1.0
230
0.0
  0
LINE
  5
1A69D
  8
0
  6
VERDECKT
 62
     1
 10
35.420995125686332
 20
-44.2479507917436834
 30
0.0
 11
36.1020812038648771
 21
-44.2479507917436834
 31
0.0
210
0.0
220
1.0
230
0.0
  0
LINE
  5
1A69E
  8
0
  6
VERDECKT
 62
     1
 10
36.1020812038649481
 20
-50.2479507917437118
 30
0.0
 11
36.1020812038649481
 21
-44.2479507917436834
 31
0.0
210
0.0
220
1.0
230
0.0
  0
LINE
  5
1A69F
  8
0
  6
VERDECKT
 62
     1
 10
35.420995125686332
 20
-68.6479507917437246
 30
0.0
 11
36.1020812038648771
 21
-68.6479507917437246
 31
0.0
210
0.0
220
1.0
230
0.0
  0
LINE
  5
1A6A0
  8
0
  6
VERDECKT
 62
     1
 10
35.420995125686332
 20
-62.6479507917437175
 30
0.0
 11
36.1020812038648771
 21
-62.6479507917437175
 31
0.0
210
0.0
220
1.0
230
0.0
  0
LINE
  5
1A6A1
  8
0
  6
VERDECKT
 62
     1
 10
36.1020812038649481
 20
-68.6479507917437246
 30
0.0
 11
36.1020812038649481
 21
-62.6479507917437175
 31
0.0
210
0.0
220
1.0
230
0.0
  0
LINE
  5
1A6A2
  8
0
  6
VERDECKT
 62
     1
 10
35.420995125686332
 20
-87.0479507917436877
 30
0.0
 11
36.1020812038648771
 21
-87.0479507917436877
 31
0.0
210
0.0
220
1.0
230
0.0
  0
LINE
  5
1A6A3
  8
0
  6
VERDECKT
 62
     1
 10
35.420995125686332
 20
-81.0479507917437161
 30
0.0
 11
36.1020812038648771
 21
-81.0479507917437161
 31
0.0
210
0.0
220
1.0
230
0.0
  0
LINE
  5
1A6A4
  8
0
  6
VERDECKT
 62
     1
 10
36.1020812038649481
 20
-87.0479507917436877
 30
0.0
 11
36.1020812038649481
 21
-81.0479507917437161
 31
0.0
210
0.0
220
1.0
230
0.0
  0
LINE
  5
1A6A5
  8
0
  6
VERDECKT
 62
     1
 10
43.5089320837798113
 20
-22.6479507917437104
 30
0.0
 11
43.8048783068110623
 21
-22.6479507917437104
 31
0.0
210
0.0
220
1.0
230
0.0
  0
LINE
  5
1A6A6
  8
0
  6
VERDECKT
 62
     1
 10
43.5089320837798113
 20
-16.6479507917437104
 30
0.0
 11
43.8048783068110623
 21
-16.6479507917437104
 31
0.0
210
0.0
220
1.0
230
0.0
  0
LINE
  5
1A6A7
  8
0
  6
VERDECKT
 62
     1
 10
43.8048783068110623
 20
-22.6479507917437104
 30
0.0
 11
43.8048783068110623
 21
-16.6479507917437104
 31
0.0
210
0.0
220
1.0
230
0.0
  0
LINE
  5
1A6A8
  8
0
  6
VERDECKT
 62
     1
 10
43.5089320837798113
 20
-41.0479507917437019
 30
0.0
 11
43.8048783068110623
 21
-41.0479507917437019
 31
0.0
210
0.0
220
1.0
230
0.0
  0
LINE
  5
1A6A9
  8
0
  6
VERDECKT
 62
     1
 10
43.5089320837798113
 20
-35.0479507917437232
 30
0.0
 11
43.8048783068110623
 21
-35.0479507917437232
 31
0.0
210
0.0
220
1.0
230
0.0
  0
LINE
  5
1A6AA
  8
0
  6
VERDECKT
 62
     1
 10
43.8048783068110623
 20
-41.0479507917437232
 30
0.0
 11
43.8048783068110623
 21
-35.0479507917437232
 31
0.0
210
0.0
220
1.0
230
0.0
  0
LINE
  5
1A6AB
  8
0
  6
VERDECKT
 62
     1
 10
43.5089320837798113
 20
-59.4479507917437076
 30
0.0
 11
43.8048783068110623
 21
-59.4479507917437076
 31
0.0
210
0.0
220
1.0
230
0.0
  0
LINE
  5
1A6AC
  8
0
  6
VERDECKT
 62
     1
 10
43.5089320837798113
 20
-53.4479507917437076
 30
0.0
 11
43.8048783068110623
 21
-53.4479507917437076
 31
0.0
210
0.0
220
1.0
230
0.0
  0
LINE
  5
1A6AD
  8
0
  6
VERDECKT
 62
     1
 10
43.8048783068110623
 20
-59.4479507917437076
 30
0.0
 11
43.8048783068110623
 21
-53.4479507917437076
 31
0.0
210
0.0
220
1.0
230
0.0
  0
LINE
  5
1A6AE
  8
0
  6
VERDECKT
 62
     1
 10
43.5089320837798113
 20
-77.8479507917437132
 30
0.0
 11
43.8048783068110623
 21
-77.8479507917437132
 31
0.0
210
0.0
220
1.0
230
0.0
  0
LINE
  5
1A6AF
  8
0
  6
VERDECKT
 62
     1
 10
43.5089320837798113
 20
-71.8479507917437132
 30
0.0
 11
43.8048783068110623
 21
-71.8479507917437132
 31
0.0
210
0.0
220
1.0
230
0.0
  0
LINE
  5
1A6B0
  8
0
  6
VERDECKT
 62
     1
 10
43.8048783068110623
 20
-77.8479507917437132
 30
0.0
 11
43.8048783068110623
 21
-71.8479507917437132
 31
0.0
210
0.0
220
1.0
230
0.0
  0
LINE
  5
1A6B1
  8
0
  6
VERDECKT
 62
     1
 10
43.5089320837798113
 20
-96.2479507917437189
 30
0.0
 11
43.8048783068110623
 21
-96.2479507917437189
 31
0.0
210
0.0
220
1.0
230
0.0
  0
LINE
  5
1A6B2
  8
0
  6
VERDECKT
 62
     1
 10
43.5089320837798113
 20
-90.2479507917437189
 30
0.0
 11
43.8048783068110623
 21
-90.2479507917437189
 31
0.0
210
0.0
220
1.0
230
0.0
  0
LINE
  5
1A6B3
  8
0
  6
VERDECKT
 62
     1
 10
43.8048783068110623
 20
-96.2479507917437189
 30
0.0
 11
43.8048783068110623
 21
-90.2479507917437189
 31
0.0
210
0.0
220
1.0
230
0.0
  0
LINE
  5
1A6B4
  8
0
  6
VERDECKT
 62
     1
 10
43.5089320837798113
 20
-87.0479507917437161
 30
0.0
 11
43.8048783068110623
 21
-87.0479507917437161
 31
0.0
210
0.0
220
1.0
230
0.0
  0
LINE
  5
1A6B5
  8
0
  6
VERDECKT
 62
     1
 10
43.5089320837798113
 20
-81.0479507917437161
 30
0.0
 11
43.8048783068110623
 21
-81.0479507917437161
 31
0.0
210
0.0
220
1.0
230
0.0
  0
LINE
  5
1A6B6
  8
0
  6
VERDECKT
 62
     1
 10
43.8048783068110623
 20
-87.0479507917437161
 30
0.0
 11
43.8048783068110623
 21
-81.0479507917437161
 31
0.0
210
0.0
220
1.0
230
0.0
  0
LINE
  5
1A6B7
  8
0
  6
VERDECKT
 62
     1
 10
43.5089320837798113
 20
-68.6479507917437246
 30
0.0
 11
43.8048783068110623
 21
-68.6479507917437246
 31
0.0
210
0.0
220
1.0
230
0.0
  0
LINE
  5
1A6B8
  8
0
  6
VERDECKT
 62
     1
 10
43.5089320837798113
 20
-62.6479507917437175
 30
0.0
 11
43.8048783068110623
 21
-62.6479507917437175
 31
0.0
210
0.0
220
1.0
230
0.0
  0
LINE
  5
1A6B9
  8
0
  6
VERDECKT
 62
     1
 10
43.8048783068110623
 20
-68.6479507917437246
 30
0.0
 11
43.8048783068110623
 21
-62.6479507917437175
 31
0.0
210
0.0
220
1.0
230
0.0
  0
LINE
  5
1A6BA
  8
0
  6
VERDECKT
 62
     1
 10
43.5089320837798113
 20
-50.2479507917437118
 30
0.0
 11
43.8048783068110623
 21
-50.2479507917437118
 31
0.0
210
0.0
220
1.0
230
0.0
  0
LINE
  5
1A6BB
  8
0
  6
VERDECKT
 62
     1
 10
43.5089320837798113
 20
-44.2479507917437118
 30
0.0
 11
43.8048783068110623
 21
-44.2479507917437118
 31
0.0
210
0.0
220
1.0
230
0.0
  0
LINE
  5
1A6BC
  8
0
  6
VERDECKT
 62
     1
 10
43.8048783068110623
 20
-50.2479507917437189
 30
0.0
 11
43.8048783068110623
 21
-44.2479507917437189
 31
0.0
210
0.0
220
1.0
230
0.0
  0
LINE
  5
1A6BD
  8
0
  6
VERDECKT
 62
     1
 10
43.5089320837798113
 20
-31.8479507917437097
 30
0.0
 11
43.8048783068110623
 21
-31.8479507917437097
 31
0.0
210
0.0
220
1.0
230
0.0
  0
LINE
  5
1A6BE
  8
0
  6
VERDECKT
 62
     1
 10
43.5089320837798113
 20
-25.8479507917437203
 30
0.0
 11
43.8048783068110623
 21
-25.8479507917437203
 31
0.0
210
0.0
220
1.0
230
0.0
  0
LINE
  5
1A6BF
  8
0
  6
VERDECKT
 62
     1
 10
43.8048783068110623
 20
-31.8479507917437097
 30
0.0
 11
43.8048783068110623
 21
-25.8479507917437203
 31
0.0
210
0.0
220
1.0
230
0.0
  0
LINE
  5
1A6C0
  8
0
  6
VERDECKT
 62
     1
 10
35.420995125686332
 20
-96.2479507917436905
 30
0.0
 11
36.1020812038648771
 21
-96.2479507917436905
 31
0.0
210
0.0
220
1.0
230
0.0
  0
LINE
  5
1A6C1
  8
0
  6
VERDECKT
 62
     1
 10
35.420995125686332
 20
-90.2479507917436905
 30
0.0
 11
36.1020812038648771
 21
-90.2479507917436905
 31
0.0
210
0.0
220
1.0
230
0.0
  0
LINE
  5
1A6C2
  8
0
  6
VERDECKT
 62
     1
 10
36.1020812038649481
 20
-96.2479507917436905
 30
0.0
 11
36.1020812038649481
 21
-90.2479507917436905
 31
0.0
210
0.0
220
1.0
230
0.0
  0
LINE
  5
1A6C3
  8
0
  6
VERDECKT
 62
     1
 10
35.420995125686332
 20
-77.8479507917437132
 30
0.0
 11
36.1020812038648771
 21
-77.8479507917437132
 31
0.0
210
0.0
220
1.0
230
0.0
  0
LINE
  5
1A6C4
  8
0
  6
VERDECKT
 62
     1
 10
35.420995125686332
 20
-71.8479507917437132
 30
0.0
 11
36.1020812038648771
 21
-71.8479507917437132
 31
0.0
210
0.0
220
1.0
230
0.0
  0
LINE
  5
1A6C5
  8
0
  6
VERDECKT
 62
     1
 10
36.1020812038649481
 20
-77.8479507917437132
 30
0.0
 11
36.1020812038649481
 21
-71.8479507917437132
 31
0.0
210
0.0
220
1.0
230
0.0
  0
LINE
  5
1A6C6
  8
0
  6
VERDECKT
 62
     1
 10
35.420995125686332
 20
-59.4479507917437076
 30
0.0
 11
36.1020812038648771
 21
-59.4479507917437076
 31
0.0
210
0.0
220
1.0
230
0.0
  0
LINE
  5
1A6C7
  8
0
  6
VERDECKT
 62
     1
 10
35.420995125686332
 20
-53.4479507917437076
 30
0.0
 11
36.1020812038648771
 21
-53.4479507917437076
 31
0.0
210
0.0
220
1.0
230
0.0
  0
LINE
  5
1A6C8
  8
0
  6
VERDECKT
 62
     1
 10
36.1020812038649481
 20
-59.4479507917437076
 30
0.0
 11
36.1020812038649481
 21
-53.4479507917437076
 31
0.0
210
0.0
220
1.0
230
0.0
  0
LINE
  5
1A6C9
  8
0
  6
VERDECKT
 62
     1
 10
35.420995125686332
 20
-41.0479507917437232
 30
0.0
 11
36.1020812038648771
 21
-41.0479507917437232
 31
0.0
210
0.0
220
1.0
230
0.0
  0
LINE
  5
1A6CA
  8
0
  6
VERDECKT
 62
     1
 10
35.420995125686332
 20
-35.0479507917437232
 30
0.0
 11
36.1020812038648771
 21
-35.0479507917437232
 31
0.0
210
0.0
220
1.0
230
0.0
  0
LINE
  5
1A6CB
  8
0
  6
VERDECKT
 62
     1
 10
36.1020812038649481
 20
-41.0479507917437232
 30
0.0
 11
36.1020812038649481
 21
-35.0479507917437232
 31
0.0
210
0.0
220
1.0
230
0.0
  0
LINE
  5
1A6CC
  8
0
  6
VERDECKT
 62
     1
 10
35.420995125686332
 20
-22.6479507917437104
 30
0.0
 11
36.1020812038648771
 21
-22.6479507917437104
 31
0.0
210
0.0
220
1.0
230
0.0
  0
LINE
  5
1A6CD
  8
0
  6
VERDECKT
 62
     1
 10
35.420995125686332
 20
-16.6479507917437104
 30
0.0
 11
36.1020812038648771
 21
-16.6479507917437104
 31
0.0
210
0.0
220
1.0
230
0.0
  0
LINE
  5
1A6CE
  8
0
  6
VERDECKT
 62
     1
 10
36.1020812038649481
 20
-22.6479507917437104
 30
0.0
 11
36.1020812038649481
 21
-16.6479507917437104
 31
0.0
210
0.0
220
1.0
230
0.0
  0
LINE
  5
1A6CF
  8
0
  6
VERDECKT
 62
     1
 10
30.1659046334658711
 20
-87.0479507917436877
 30
0.0
 11
31.097233116035909
 21
-87.0479507917436877
 31
0.0
210
0.0
220
1.0
230
0.0
  0
LINE
  5
1A6D0
  8
0
  6
VERDECKT
 62
     1
 10
30.1659046334658711
 20
-81.0479507917437161
 30
0.0
 11
31.097233116035909
 21
-81.0479507917437161
 31
0.0
210
0.0
220
1.0
230
0.0
  0
LINE
  5
1A6D1
  8
0
  6
VERDECKT
 62
     1
 10
31.0972331160358415
 20
-87.0479507917436877
 30
0.0
 11
31.0972331160358415
 21
-81.0479507917437161
 31
0.0
210
0.0
220
1.0
230
0.0
  0
LINE
  5
1A6D2
  8
0
  6
VERDECKT
 62
     1
 10
30.1659046334658711
 20
-68.6479507917437246
 30
0.0
 11
31.097233116035909
 21
-68.6479507917437246
 31
0.0
210
0.0
220
1.0
230
0.0
  0
LINE
  5
1A6D3
  8
0
  6
VERDECKT
 62
     1
 10
30.1659046334658711
 20
-62.6479507917437175
 30
0.0
 11
31.097233116035909
 21
-62.6479507917437175
 31
0.0
210
0.0
220
1.0
230
0.0
  0
LINE
  5
1A6D4
  8
0
  6
VERDECKT
 62
     1
 10
31.0972331160358415
 20
-68.6479507917437246
 30
0.0
 11
31.0972331160358415
 21
-62.6479507917437175
 31
0.0
210
0.0
220
1.0
230
0.0
  0
LINE
  5
1A6D5
  8
0
  6
VERDECKT
 62
     1
 10
30.1659046334658711
 20
-50.2479507917437118
 30
0.0
 11
31.097233116035909
 21
-50.2479507917437118
 31
0.0
210
0.0
220
1.0
230
0.0
  0
LINE
  5
1A6D6
  8
0
  6
VERDECKT
 62
     1
 10
30.1659046334658711
 20
-44.2479507917436834
 30
0.0
 11
31.097233116035909
 21
-44.2479507917436834
 31
0.0
210
0.0
220
1.0
230
0.0
  0
LINE
  5
1A6D7
  8
0
  6
VERDECKT
 62
     1
 10
31.0972331160358415
 20
-50.2479507917437118
 30
0.0
 11
31.0972331160358415
 21
-44.2479507917436834
 31
0.0
210
0.0
220
1.0
230
0.0
  0
LINE
  5
1A6D8
  8
0
  6
VERDECKT
 62
     1
 10
30.1659046334658711
 20
-31.8479507917437097
 30
0.0
 11
31.097233116035909
 21
-31.8479507917437097
 31
0.0
210
0.0
220
1.0
230
0.0
  0
LINE
  5
1A6D9
  8
0
  6
VERDECKT
 62
     1
 10
30.1659046334658711
 20
-25.8479507917437203
 30
0.0
 11
31.097233116035909
 21
-25.8479507917437203
 31
0.0
210
0.0
220
1.0
230
0.0
  0
LINE
  5
1A6DA
  8
0
  6
VERDECKT
 62
     1
 10
31.0972331160358415
 20
-31.8479507917437097
 30
0.0
 11
31.0972331160358415
 21
-25.8479507917437203
 31
0.0
210
0.0
220
1.0
230
0.0
  0
LINE
  5
1A6DB
  8
0
  6
VERDECKT
 62
     1
 10
68.350372418837523
 20
-87.0479507917436877
 30
0.0
 11
69.2817009014075893
 21
-87.0479507917436877
 31
0.0
210
0.0
220
1.0
230
0.0
  0
LINE
  5
1A6DC
  8
0
  6
VERDECKT
 62
     1
 10
68.3503724188375941
 20
-81.0479507917437161
 30
0.0
 11
68.3503724188375941
 21
-87.0479507917436877
 31
0.0
210
0.0
220
1.0
230
0.0
  0
LINE
  5
1A6DD
  8
0
  6
VERDECKT
 62
     1
 10
68.350372418837523
 20
-81.0479507917437161
 30
0.0
 11
69.2817009014075893
 21
-81.0479507917437161
 31
0.0
210
0.0
220
1.0
230
0.0
  0
LINE
  5
1A6DE
  8
0
  6
VERDECKT
 62
     1
 10
68.350372418837523
 20
-68.6479507917437246
 30
0.0
 11
69.2817009014075893
 21
-68.6479507917437246
 31
0.0
210
0.0
220
1.0
230
0.0
  0
LINE
  5
1A6DF
  8
0
  6
VERDECKT
 62
     1
 10
68.3503724188375941
 20
-62.6479507917437175
 30
0.0
 11
68.3503724188375941
 21
-68.6479507917437246
 31
0.0
210
0.0
220
1.0
230
0.0
  0
LINE
  5
1A6E0
  8
0
  6
VERDECKT
 62
     1
 10
68.350372418837523
 20
-62.6479507917437175
 30
0.0
 11
69.2817009014075893
 21
-62.6479507917437175
 31
0.0
210
0.0
220
1.0
230
0.0
  0
LINE
  5
1A6E1
  8
0
  6
VERDECKT
 62
     1
 10
68.350372418837523
 20
-50.2479507917437118
 30
0.0
 11
69.2817009014075893
 21
-50.2479507917437118
 31
0.0
210
0.0
220
1.0
230
0.0
  0
LINE
  5
1A6E2
  8
0
  6
VERDECKT
 62
     1
 10
68.3503724188375941
 20
-44.2479507917436834
 30
0.0
 11
68.3503724188375941
 21
-50.2479507917437118
 31
0.0
210
0.0
220
1.0
230
0.0
  0
LINE
  5
1A6E3
  8
0
  6
VERDECKT
 62
     1
 10
68.350372418837523
 20
-44.2479507917436834
 30
0.0
 11
69.2817009014075893
 21
-44.2479507917436834
 31
0.0
210
0.0
220
1.0
230
0.0
  0
LINE
  5
1A6E4
  8
0
  6
VERDECKT
 62
     1
 10
68.350372418837523
 20
-31.8479507917437097
 30
0.0
 11
69.2817009014075893
 21
-31.8479507917437097
 31
0.0
210
0.0
220
1.0
230
0.0
  0
LINE
  5
1A6E5
  8
0
  6
VERDECKT
 62
     1
 10
68.3503724188375941
 20
-25.8479507917437203
 30
0.0
 11
68.3503724188375941
 21
-31.8479507917437097
 31
0.0
210
0.0
220
1.0
230
0.0
  0
LINE
  5
1A6E6
  8
0
  6
VERDECKT
 62
     1
 10
68.350372418837523
 20
-25.8479507917437203
 30
0.0
 11
69.2817009014075893
 21
-25.8479507917437203
 31
0.0
210
0.0
220
1.0
230
0.0
  0
LINE
  5
1A6E7
  8
0
  6
VERDECKT
 62
     1
 10
63.3455243310085621
 20
-96.2479507917436905
 30
0.0
 11
64.0266104091871284
 21
-96.2479507917436905
 31
0.0
210
0.0
220
1.0
230
0.0
  0
LINE
  5
1A6E8
  8
0
  6
VERDECKT
 62
     1
 10
63.345524331008491
 20
-90.2479507917436905
 30
0.0
 11
63.345524331008491
 21
-96.2479507917436905
 31
0.0
210
0.0
220
1.0
230
0.0
  0
LINE
  5
1A6E9
  8
0
  6
VERDECKT
 62
     1
 10
63.3455243310085621
 20
-90.2479507917436905
 30
0.0
 11
64.0266104091871284
 21
-90.2479507917436905
 31
0.0
210
0.0
220
1.0
230
0.0
  0
LINE
  5
1A6EA
  8
0
  6
VERDECKT
 62
     1
 10
63.3455243310085621
 20
-77.8479507917437132
 30
0.0
 11
64.0266104091871284
 21
-77.8479507917437132
 31
0.0
210
0.0
220
1.0
230
0.0
  0
LINE
  5
1A6EB
  8
0
  6
VERDECKT
 62
     1
 10
63.345524331008491
 20
-71.8479507917437132
 30
0.0
 11
63.345524331008491
 21
-77.8479507917437132
 31
0.0
210
0.0
220
1.0
230
0.0
  0
LINE
  5
1A6EC
  8
0
  6
VERDECKT
 62
     1
 10
63.3455243310085621
 20
-71.8479507917437132
 30
0.0
 11
64.0266104091871284
 21
-71.8479507917437132
 31
0.0
210
0.0
220
1.0
230
0.0
  0
LINE
  5
1A6ED
  8
0
  6
VERDECKT
 62
     1
 10
63.3455243310085621
 20
-59.4479507917437076
 30
0.0
 11
64.0266104091871284
 21
-59.4479507917437076
 31
0.0
210
0.0
220
1.0
230
0.0
  0
LINE
  5
1A6EE
  8
0
  6
VERDECKT
 62
     1
 10
63.345524331008491
 20
-53.4479507917437076
 30
0.0
 11
63.345524331008491
 21
-59.4479507917437076
 31
0.0
210
0.0
220
1.0
230
0.0
  0
LINE
  5
1A6EF
  8
0
  6
VERDECKT
 62
     1
 10
63.3455243310085621
 20
-53.4479507917437076
 30
0.0
 11
64.0266104091871284
 21
-53.4479507917437076
 31
0.0
210
0.0
220
1.0
230
0.0
  0
LINE
  5
1A6F0
  8
0
  6
VERDECKT
 62
     1
 10
63.3455243310085621
 20
-41.0479507917437232
 30
0.0
 11
64.0266104091871284
 21
-41.0479507917437232
 31
0.0
210
0.0
220
1.0
230
0.0
  0
LINE
  5
1A6F1
  8
0
  6
VERDECKT
 62
     1
 10
63.345524331008491
 20
-35.0479507917437232
 30
0.0
 11
63.345524331008491
 21
-41.0479507917437232
 31
0.0
210
0.0
220
1.0
230
0.0
  0
LINE
  5
1A6F2
  8
0
  6
VERDECKT
 62
     1
 10
63.3455243310085621
 20
-35.0479507917437232
 30
0.0
 11
64.0266104091871284
 21
-35.0479507917437232
 31
0.0
210
0.0
220
1.0
230
0.0
  0
LINE
  5
1A6F3
  8
0
  6
VERDECKT
 62
     1
 10
63.3455243310085621
 20
-22.6479507917437104
 30
0.0
 11
64.0266104091871284
 21
-22.6479507917437104
 31
0.0
210
0.0
220
1.0
230
0.0
  0
LINE
  5
1A6F4
  8
0
  6
VERDECKT
 62
     1
 10
63.345524331008491
 20
-16.6479507917437104
 30
0.0
 11
63.345524331008491
 21
-22.6479507917437104
 31
0.0
210
0.0
220
1.0
230
0.0
  0
LINE
  5
1A6F5
  8
0
  6
VERDECKT
 62
     1
 10
63.3455243310085621
 20
-16.6479507917437104
 30
0.0
 11
64.0266104091871284
 21
-16.6479507917437104
 31
0.0
210
0.0
220
1.0
230
0.0
  0
LINE
  5
1A6F6
  8
0
  6
VERDECKT
 62
     1
 10
55.6427272280623626
 20
-87.0479507917436877
 30
0.0
 11
55.9386734510936208
 21
-87.0479507917436877
 31
0.0
210
0.0
220
1.0
230
0.0
  0
LINE
  5
1A6F7
  8
0
  6
VERDECKT
 62
     1
 10
55.6427272280623626
 20
-81.0479507917437161
 30
0.0
 11
55.6427272280623626
 21
-87.0479507917436877
 31
0.0
210
0.0
220
1.0
230
0.0
  0
LINE
  5
1A6F8
  8
0
  6
VERDECKT
 62
     1
 10
55.6427272280623626
 20
-81.0479507917437161
 30
0.0
 11
55.9386734510936208
 21
-81.0479507917437161
 31
0.0
210
0.0
220
1.0
230
0.0
  0
LINE
  5
1A6F9
  8
0
  6
VERDECKT
 62
     1
 10
55.6427272280623626
 20
-68.6479507917437246
 30
0.0
 11
55.9386734510936208
 21
-68.6479507917437246
 31
0.0
210
0.0
220
1.0
230
0.0
  0
LINE
  5
1A6FA
  8
0
  6
VERDECKT
 62
     1
 10
55.6427272280623626
 20
-62.6479507917437175
 30
0.0
 11
55.6427272280623626
 21
-68.6479507917437246
 31
0.0
210
0.0
220
1.0
230
0.0
  0
LINE
  5
1A6FB
  8
0
  6
VERDECKT
 62
     1
 10
55.6427272280623626
 20
-62.6479507917437175
 30
0.0
 11
55.9386734510936208
 21
-62.6479507917437175
 31
0.0
210
0.0
220
1.0
230
0.0
  0
LINE
  5
1A6FC
  8
0
  6
VERDECKT
 62
     1
 10
55.6427272280623626
 20
-50.2479507917437118
 30
0.0
 11
55.9386734510936208
 21
-50.2479507917437118
 31
0.0
210
0.0
220
1.0
230
0.0
  0
LINE
  5
1A6FD
  8
0
  6
VERDECKT
 62
     1
 10
55.6427272280623626
 20
-44.2479507917436834
 30
0.0
 11
55.6427272280623626
 21
-50.2479507917437118
 31
0.0
210
0.0
220
1.0
230
0.0
  0
LINE
  5
1A6FE
  8
0
  6
VERDECKT
 62
     1
 10
55.6427272280623626
 20
-44.2479507917436834
 30
0.0
 11
55.9386734510936208
 21
-44.2479507917436834
 31
0.0
210
0.0
220
1.0
230
0.0
  0
LINE
  5
1A6FF
  8
0
  6
VERDECKT
 62
     1
 10
55.6427272280623626
 20
-31.8479507917437097
 30
0.0
 11
55.9386734510936208
 21
-31.8479507917437097
 31
0.0
210
0.0
220
1.0
230
0.0
  0
LINE
  5
1A700
  8
0
  6
VERDECKT
 62
     1
 10
55.6427272280623626
 20
-25.8479507917437203
 30
0.0
 11
55.6427272280623626
 21
-31.8479507917437097
 31
0.0
210
0.0
220
1.0
230
0.0
  0
LINE
  5
1A701
  8
0
  6
VERDECKT
 62
     1
 10
55.6427272280623626
 20
-25.8479507917437203
 30
0.0
 11
55.9386734510936208
 21
-25.8479507917437203
 31
0.0
210
0.0
220
1.0
230
0.0
  0
LINE
  5
1A702
  8
0
  6
VERDECKT
 62
     1
 10
30.0661612980464987
 20
-103.5611267029102009
 30
0.0
 11
69.3814442368269511
 21
-103.5611267029102009
 31
0.0
210
0.0
220
1.0
230
0.0
  0
LINE
  5
1A703
  8
0
  6
VERDECKT
 62
     1
 10
29.7238027674367302
 20
-99.6479507917436536
 30
0.0
 11
29.7238027674367302
 21
-13.6479507917437104
 31
0.0
210
0.0
220
1.0
230
0.0
  0
LINE
  5
1A704
  8
0
  6
VERDECKT
 62
     1
 10
69.7238027674367231
 20
-99.6479507917436536
 30
0.0
 11
69.7238027674367231
 21
-13.6479507917437104
 31
0.0
210
0.0
220
1.0
230
0.0
  0
LINE
  5
1A705
  8
0
  6
VERDECKT
 62
     1
 10
69.3814442368269511
 20
-103.5611267029102009
 30
0.0
 11
70.3738481133331106
 21
-103.6479507917435967
 31
0.0
210
0.0
220
1.0
230
0.0
  0
LINE
  5
1A706
  8
0
  6
VERDECKT
 62
     1
 10
30.0661612980464987
 20
-103.5611267029102009
 30
0.0
 11
29.0737574215403392
 21
-103.6479507917435967
 31
0.0
210
0.0
220
1.0
230
0.0
  0
LINE
  5
1A707
  8
0
  6
VERDECKT
 62
     1
 10
30.0661612980464987
 20
-103.5611267029102009
 30
0.0
 11
29.7238027674367302
 21
-99.6479507917436536
 31
0.0
210
0.0
220
1.0
230
0.0
  0
LINE
  5
1A708
  8
0
  6
VERDECKT
 62
     1
 10
69.3814442368269511
 20
-103.5611267029102009
 30
0.0
 11
69.7238027674367231
 21
-99.6479507917436536
 31
0.0
210
0.0
220
1.0
230
0.0
  0
LINE
  5
1A709
  8
0
  6
VERDECKT
 62
     1
 10
67.4720421167355653
 20
-13.6479507917437104
 30
0.0
 11
67.4720421167355653
 21
-12.6479507917437104
 31
0.0
210
0.0
220
1.0
230
0.0
  0
LINE
  5
1A70A
  8
0
  6
VERDECKT
 62
     1
 10
66.6943655159138871
 20
-13.6479507917437104
 30
0.0
 11
66.6943655159138871
 21
-12.6479507917437104
 31
0.0
210
0.0
220
1.0
230
0.0
  0
LINE
  5
1A70B
  8
0
  6
VERDECKT
 62
     1
 10
64.7238027674367231
 20
-13.6479507917437104
 30
0.0
 11
64.7238027674367231
 21
-12.6479507917437104
 31
0.0
210
0.0
220
1.0
230
0.0
  0
LINE
  5
1A70C
  8
0
  6
VERDECKT
 62
     1
 10
59.6736771385029101
 20
-13.6479507917437104
 30
0.0
 11
59.6736771385029101
 21
-12.6479507917437104
 31
0.0
210
0.0
220
1.0
230
0.0
  0
LINE
  5
1A70D
  8
0
  6
VERDECKT
 62
     1
 10
55.7238027674367231
 20
-13.6479507917437104
 30
0.0
 11
55.7238027674367231
 21
-12.6479507917437104
 31
0.0
210
0.0
220
1.0
230
0.0
  0
LINE
  5
1A70E
  8
0
  6
VERDECKT
 62
     1
 10
46.7238027674367231
 20
-13.6479507917437104
 30
0.0
 11
46.7238027674367231
 21
-12.6479507917437104
 31
0.0
210
0.0
220
1.0
230
0.0
  0
LINE
  5
1A70F
  8
0
  6
VERDECKT
 62
     1
 10
52.7238027674367231
 20
-13.6479507917437104
 30
0.0
 11
52.7238027674367231
 21
-12.6479507917437104
 31
0.0
210
0.0
220
1.0
230
0.0
  0
LINE
  5
1A710
  8
0
  6
VERDECKT
 62
     1
 10
39.7739283963705503
 20
-13.6479507917437104
 30
0.0
 11
39.7739283963705503
 21
-12.6479507917437104
 31
0.0
210
0.0
220
1.0
230
0.0
  0
LINE
  5
1A711
  8
0
  6
VERDECKT
 62
     1
 10
43.7238027674367231
 20
-13.6479507917437104
 30
0.0
 11
43.7238027674367231
 21
-12.6479507917437104
 31
0.0
210
0.0
220
1.0
230
0.0
  0
LINE
  5
1A712
  8
0
  6
VERDECKT
 62
     1
 10
32.7532400189595592
 20
-13.6479507917437104
 30
0.0
 11
32.7532400189595592
 21
-12.6479507917437104
 31
0.0
210
0.0
220
1.0
230
0.0
  0
LINE
  5
1A713
  8
0
  6
VERDECKT
 62
     1
 10
34.7238027674367302
 20
-13.6479507917437104
 30
0.0
 11
34.7238027674367302
 21
-12.6479507917437104
 31
0.0
210
0.0
220
1.0
230
0.0
  0
LINE
  5
1A714
  8
0
  6
VERDECKT
 62
     1
 10
37.7238027674367231
 20
-13.6479507917437104
 30
0.0
 11
37.7238027674367231
 21
-12.6479507917437104
 31
0.0
210
0.0
220
1.0
230
0.0
  0
LINE
  5
1A715
  8
0
  6
VERDECKT
 62
     1
 10
61.7238027674367231
 20
-13.6479507917437104
 30
0.0
 11
61.7238027674367231
 21
-12.6479507917437104
 31
0.0
210
0.0
220
1.0
230
0.0
  0
LINE
  5
1A716
  8
0
  6
VERDECKT
 62
     1
 10
31.9755634181378809
 20
-13.6479507917437104
 30
0.0
 11
31.9755634181378809
 21
-12.6479507917437104
 31
0.0
210
0.0
220
1.0
230
0.0
  0
LINE
  5
1A717
  8
0
  6
VERDECKT
 62
     1
 10
67.7238027674367231
 20
-13.6479507917437104
 30
0.0
 11
67.7238027674367231
 21
-12.6479507917437104
 31
0.0
210
0.0
220
1.0
230
0.0
  0
LINE
  5
1A718
  8
0
  6
VERDECKT
 62
     1
 10
31.7238027674367196
 20
-13.6479507917437104
 30
0.0
 11
31.7238027674367196
 21
-12.6479507917437104
 31
0.0
210
0.0
220
1.0
230
0.0
  0
ENDBLK
  5
1A71A
  8
0
 62
     6
  0
BLOCK
  8
0
 62
     6
  2
A$C05547528
 70
     0
 10
0.0
 20
0.0
 30
0.0
  3
A$C05547528
  1

  0
LINE
  5
1A71E
  8
0
  6
CONTINUOUS
 62
     3
 10
108.6775648335653983
 20
-186.5490321867874002
 30
0.0
 11
108.6775648335653983
 21
-182.5991578157212132
 31
0.0
  0
ARC
  5
1A71F
  8
0
  6
CONTINUOUS
 62
     3
 10
93.6775648335654694
 20
-192.5490321867875139
 30
0.0
 40
18.0000000000000497
 50
19.4712206344911394
 51
33.5573097619211396
  0
LINE
  5
1A720
  8
0
  6
CONTINUOUS
 62
     3
 10
110.6481275820426049
 20
-186.5490321867874002
 30
0.0
 11
108.6775648335653983
 21
-186.5490321867874002
 31
0.0
  0
LINE
  5
1A721
  8
0
  6
CONTINUOUS
 62
     3
 10
111.4258041828642973
 20
-195.5490321867874002
 30
0.0
 11
108.6775648335653983
 21
-195.5490321867874002
 31
0.0
  0
LINE
  5
1A722
  8
0
  6
CONTINUOUS
 62
     3
 10
108.6775648335653983
 20
-195.5490321867874002
 30
0.0
 11
108.6775648335653983
 21
-189.5490321867874002
 31
0.0
  0
LINE
  5
1A723
  8
0
  6
CONTINUOUS
 62
     3
 10
108.6775648335653983
 20
-189.5490321867874002
 30
0.0
 11
111.4258041828642973
 21
-189.5490321867874002
 31
0.0
  0
ARC
  5
1A724
  8
0
  6
CONTINUOUS
 62
     3
 10
93.6775648335713242
 20
-192.549032186787997
 30
0.0
 40
17.9999999999941593
 50
350.4059317731384908
 51
9.5940682268648096
  0
LINE
  5
1A725
  8
0
  6
CONTINUOUS
 62
     3
 10
108.6775648335653983
 20
-198.5490321867872865
 30
0.0
 11
110.6481275820426049
 21
-198.5490321867872865
 31
0.0
  0
ARC
  5
1A726
  8
0
  6
CONTINUOUS
 62
     3
 10
93.6775648335651141
 20
-192.5490321867872012
 30
0.0
 40
18.0000000000005009
 50
326.4426902380789102
 51
340.5287793655089104
  0
LINE
  5
1A727
  8
0
  6
CONTINUOUS
 62
     3
 10
108.6775648335653983
 20
-202.4989065578537009
 30
0.0
 11
108.6775648335653983
 21
-198.5490321867872865
 31
0.0
  0
LINE
  5
1A728
  8
0
  6
CONTINUOUS
 62
     3
 10
99.6775648335654694
 20
-207.5490321867874002
 30
0.0
 11
103.627439204631699
 21
-207.5490321867874002
 31
0.0
  0
ARC
  5
1A729
  8
0
  6
CONTINUOUS
 62
     3
 10
93.6775648335651567
 20
-192.5490321867868033
 30
0.0
 40
18.0000000000006786
 50
289.4712206344913739
 51
303.5573097619200098
  0
LINE
  5
1A72A
  8
0
  6
CONTINUOUS
 62
     3
 10
99.6775648335654694
 20
-209.5195949352645926
 30
0.0
 11
99.6775648335654694
 21
-207.5490321867874002
 31
0.0
  0
ARC
  5
1A72B
  8
0
  6
CONTINUOUS
 62
     3
 10
93.6775648335656257
 20
-192.5490321867872012
 30
0.0
 40
18.0000000000002309
 50
260.4059317731391729
 51
279.5940682268599744
  0
LINE
  5
1A72C
  8
0
  6
CONTINUOUS
 62
     3
 10
90.6775648335654552
 20
-210.2972715360862992
 30
0.0
 11
90.6775648335654552
 21
-207.5490321867874002
 31
0.0
  0
LINE
  5
1A72D
  8
0
  6
CONTINUOUS
 62
     3
 10
90.6775648335654552
 20
-207.5490321867874002
 30
0.0
 11
96.6775648335654836
 21
-207.5490321867874002
 31
0.0
  0
LINE
  5
1A72E
  8
0
  6
CONTINUOUS
 62
     3
 10
96.6775648335654836
 20
-207.5490321867874002
 30
0.0
 11
96.6775648335654836
 21
-210.2972715360862992
 31
0.0
  0
ARC
  5
1A72F
  8
0
  6
CONTINUOUS
 62
     3
 10
93.6775648335655831
 20
-192.5490321867874002
 30
0.0
 40
18.0000000000000995
 50
236.4426902380793081
 51
250.5287793655085125
  0
LINE
  5
1A730
  8
0
  6
CONTINUOUS
 62
     3
 10
83.7276904624993108
 20
-207.5490321867874002
 30
0.0
 11
87.6775648335654836
 21
-207.5490321867874002
 31
0.0
  0
LINE
  5
1A731
  8
0
  6
CONTINUOUS
 62
     3
 10
87.6775648335654836
 20
-207.5490321867874002
 30
0.0
 11
87.6775648335654836
 21
-209.5195949352645926
 31
0.0
  0
ARC
  5
1A732
  8
0
  6
CONTINUOUS
 62
     3
 10
93.6775648335654694
 20
-192.5490321867874002
 30
0.0
 40
18.0000000000000497
 50
199.4712206344910896
 51
213.5573097619210898
  0
LINE
  5
1A733
  8
0
  6
CONTINUOUS
 62
     3
 10
76.7070020850883338
 20
-198.5490321867872865
 30
0.0
 11
78.6775648335654978
 21
-198.5490321867872865
 31
0.0
  0
LINE
  5
1A734
  8
0
  6
CONTINUOUS
 62
     3
 10
78.6775648335654978
 20
-198.5490321867872865
 30
0.0
 11
78.6775648335654978
 21
-202.4989065578537009
 31
0.0
  0
LINE
  5
1A735
  8
0
  6
CONTINUOUS
 62
     3
 10
81.6775648335654978
 20
-204.5490321867875139
 30
0.0
 11
81.6775648335654978
 21
-198.5490321867872865
 31
0.0
  0
LINE
  5
1A736
  8
0
  6
CONTINUOUS
 62
     3
 10
81.6775648335654978
 20
-198.5490321867872865
 30
0.0
 11
87.6775648335654836
 21
-198.5490321867872865
 31
0.0
  0
LINE
  5
1A737
  8
0
  6
CONTINUOUS
 62
     3
 10
87.6775648335654836
 20
-198.5490321867872865
 30
0.0
 11
87.6775648335654836
 21
-204.5490321867875139
 31
0.0
  0
LINE
  5
1A738
  8
0
  6
CONTINUOUS
 62
     3
 10
87.6775648335654836
 20
-204.5490321867875139
 30
0.0
 11
81.6775648335654978
 21
-204.5490321867875139
 31
0.0
  0
LINE
  5
1A739
  8
0
  6
CONTINUOUS
 62
     3
 10
90.6775648335654552
 20
-204.5490321867875139
 30
0.0
 11
90.6775648335654552
 21
-198.5490321867872865
 31
0.0
  0
LINE
  5
1A73A
  8
0
  6
CONTINUOUS
 62
     3
 10
90.6775648335654552
 20
-198.5490321867872865
 30
0.0
 11
96.6775648335654836
 21
-198.5490321867872865
 31
0.0
  0
LINE
  5
1A73B
  8
0
  6
CONTINUOUS
 62
     3
 10
96.6775648335654836
 20
-198.5490321867872865
 30
0.0
 11
96.6775648335654836
 21
-204.5490321867875139
 31
0.0
  0
LINE
  5
1A73C
  8
0
  6
CONTINUOUS
 62
     3
 10
96.6775648335654836
 20
-204.5490321867875139
 30
0.0
 11
90.6775648335654552
 21
-204.5490321867875139
 31
0.0
  0
LINE
  5
1A73D
  8
0
  6
CONTINUOUS
 62
     3
 10
99.6775648335654694
 20
-204.5490321867875139
 30
0.0
 11
99.6775648335654694
 21
-198.5490321867872865
 31
0.0
  0
LINE
  5
1A73E
  8
0
  6
CONTINUOUS
 62
     3
 10
99.6775648335654694
 20
-198.5490321867872865
 30
0.0
 11
105.6775648335653983
 21
-198.5490321867872865
 31
0.0
  0
LINE
  5
1A73F
  8
0
  6
CONTINUOUS
 62
     3
 10
105.6775648335653983
 20
-198.5490321867872865
 30
0.0
 11
105.6775648335653983
 21
-204.5490321867875139
 31
0.0
  0
LINE
  5
1A740
  8
0
  6
CONTINUOUS
 62
     3
 10
105.6775648335653983
 20
-204.5490321867875139
 30
0.0
 11
99.6775648335654694
 21
-204.5490321867875139
 31
0.0
  0
LINE
  5
1A741
  8
0
  6
CONTINUOUS
 62
     3
 10
90.6775648335654552
 20
-195.5490321867874002
 30
0.0
 11
90.6775648335654552
 21
-189.5490321867874002
 31
0.0
  0
LINE
  5
1A742
  8
0
  6
CONTINUOUS
 62
     3
 10
90.6775648335654552
 20
-189.5490321867874002
 30
0.0
 11
96.6775648335654836
 21
-189.5490321867874002
 31
0.0
  0
LINE
  5
1A743
  8
0
  6
CONTINUOUS
 62
     3
 10
96.6775648335654836
 20
-189.5490321867874002
 30
0.0
 11
96.6775648335654836
 21
-195.5490321867874002
 31
0.0
  0
LINE
  5
1A744
  8
0
  6
CONTINUOUS
 62
     3
 10
96.6775648335654836
 20
-195.5490321867874002
 30
0.0
 11
90.6775648335654552
 21
-195.5490321867874002
 31
0.0
  0
LINE
  5
1A745
  8
0
  6
CONTINUOUS
 62
     3
 10
87.6775648335654836
 20
-195.5490321867874002
 30
0.0
 11
81.6775648335654978
 21
-195.5490321867874002
 31
0.0
  0
LINE
  5
1A746
  8
0
  6
CONTINUOUS
 62
     3
 10
81.6775648335654978
 20
-195.5490321867874002
 30
0.0
 11
81.6775648335654978
 21
-189.5490321867874002
 31
0.0
  0
LINE
  5
1A747
  8
0
  6
CONTINUOUS
 62
     3
 10
81.6775648335654978
 20
-189.5490321867874002
 30
0.0
 11
87.6775648335654836
 21
-189.5490321867874002
 31
0.0
  0
LINE
  5
1A748
  8
0
  6
CONTINUOUS
 62
     3
 10
87.6775648335654836
 20
-189.5490321867874002
 30
0.0
 11
87.6775648335654836
 21
-195.5490321867874002
 31
0.0
  0
ARC
  5
1A749
  8
0
  6
CONTINUOUS
 62
     3
 10
93.6775648335596571
 20
-192.5490321867870023
 30
0.0
 40
17.9999999999941593
 50
170.4059317731384056
 51
189.5940682268648061
  0
LINE
  5
1A74A
  8
0
  6
CONTINUOUS
 62
     3
 10
75.9293254842666556
 20
-189.5490321867874002
 30
0.0
 11
78.6775648335654978
 21
-189.5490321867874002
 31
0.0
  0
LINE
  5
1A74B
  8
0
  6
CONTINUOUS
 62
     3
 10
78.6775648335654978
 20
-189.5490321867874002
 30
0.0
 11
78.6775648335654978
 21
-195.5490321867874002
 31
0.0
  0
LINE
  5
1A74C
  8
0
  6
CONTINUOUS
 62
     3
 10
78.6775648335654978
 20
-195.5490321867874002
 30
0.0
 11
75.9293254842666556
 21
-195.5490321867874002
 31
0.0
  0
ARC
  5
1A74D
  8
0
  6
CONTINUOUS
 62
     3
 10
93.6775648335623856
 20
-192.5490321867862065
 30
0.0
 40
17.9999999999967386
 50
146.4426902380770059
 51
160.5287793655103883
  0
LINE
  5
1A74E
  8
0
  6
CONTINUOUS
 62
     3
 10
78.6775648335654409
 20
-182.5991578157212132
 30
0.0
 11
78.6775648335653557
 21
-186.5490321867875139
 31
0.0
  0
LINE
  5
1A74F
  8
0
  6
CONTINUOUS
 62
     3
 10
78.6775648335653557
 20
-186.5490321867875139
 30
0.0
 11
76.7070020850882344
 21
-186.5490321867875139
 31
0.0
  0
LINE
  5
1A750
  8
0
  6
CONTINUOUS
 62
     3
 10
87.6775648335654836
 20
-186.5490321867874002
 30
0.0
 11
81.6775648335654978
 21
-186.5490321867874002
 31
0.0
  0
LINE
  5
1A751
  8
0
  6
CONTINUOUS
 62
     3
 10
81.6775648335654978
 20
-186.5490321867874002
 30
0.0
 11
81.6775648335654978
 21
-180.5490321867872865
 31
0.0
  0
LINE
  5
1A752
  8
0
  6
CONTINUOUS
 62
     3
 10
81.6775648335654978
 20
-180.5490321867872865
 30
0.0
 11
87.6775648335654836
 21
-180.5490321867872865
 31
0.0
  0
LINE
  5
1A753
  8
0
  6
CONTINUOUS
 62
     3
 10
87.6775648335654836
 20
-180.5490321867872865
 30
0.0
 11
87.6775648335654836
 21
-186.5490321867874002
 31
0.0
  0
LINE
  5
1A754
  8
0
  6
CONTINUOUS
 62
     3
 10
87.6775648335654836
 20
-177.5490321867872865
 30
0.0
 11
83.7276904624993108
 21
-177.5490321867872865
 31
0.0
  0
ARC
  5
1A755
  8
0
  6
CONTINUOUS
 62
     3
 10
93.6775648335654267
 20
-192.5490321867872012
 30
0.0
 40
17.9999999999997407
 50
109.4712206344906065
 51
123.5573097619207061
  0
LINE
  5
1A756
  8
0
  6
CONTINUOUS
 62
     3
 10
87.6775648335654836
 20
-175.5784694383102078
 30
0.0
 11
87.6775648335654836
 21
-177.5490321867872865
 31
0.0
  0
LINE
  5
1A757
  8
0
  6
CONTINUOUS
 62
     3
 10
96.6775648335654836
 20
-186.5490321867874002
 30
0.0
 11
90.6775648335654552
 21
-186.5490321867874002
 31
0.0
  0
LINE
  5
1A758
  8
0
  6
CONTINUOUS
 62
     3
 10
90.6775648335654552
 20
-186.5490321867874002
 30
0.0
 11
90.6775648335654552
 21
-180.5490321867872865
 31
0.0
  0
LINE
  5
1A759
  8
0
  6
CONTINUOUS
 62
     3
 10
90.6775648335654552
 20
-180.5490321867872865
 30
0.0
 11
96.6775648335654836
 21
-180.5490321867872865
 31
0.0
  0
LINE
  5
1A75A
  8
0
  6
CONTINUOUS
 62
     3
 10
96.6775648335654836
 20
-180.5490321867872865
 30
0.0
 11
96.6775648335654836
 21
-186.5490321867874002
 31
0.0
  0
LINE
  5
1A75B
  8
0
  6
CONTINUOUS
 62
     3
 10
96.6775648335654836
 20
-177.5490321867872865
 30
0.0
 11
90.6775648335654552
 21
-177.5490321867872865
 31
0.0
  0
LINE
  5
1A75C
  8
0
  6
CONTINUOUS
 62
     3
 10
90.6775648335654552
 20
-177.5490321867872865
 30
0.0
 11
90.6775648335654552
 21
-174.8007928374885864
 31
0.0
  0
ARC
  5
1A75D
  8
0
  6
CONTINUOUS
 62
     3
 10
93.6775648335653557
 20
-192.5490321867877128
 30
0.0
 40
18.0000000000002203
 50
80.4059317731392156
 51
99.5940682268599744
  0
LINE
  5
1A75E
  8
0
  6
CONTINUOUS
 62
     3
 10
96.6775648335654836
 20
-174.8007928374885864
 30
0.0
 11
96.6775648335654836
 21
-177.5490321867872865
 31
0.0
  0
LINE
  5
1A75F
  8
0
  6
CONTINUOUS
 62
     3
 10
99.6775648335654694
 20
-177.5490321867872865
 30
0.0
 11
99.6775648335654694
 21
-175.5784694383102078
 31
0.0
  0
ARC
  5
1A760
  8
0
  6
CONTINUOUS
 62
     3
 10
93.6775648335654267
 20
-192.5490321867875139
 30
0.0
 40
18.0000000000000995
 50
56.4426902380793223
 51
70.5287793655085835
  0
LINE
  5
1A761
  8
0
  6
CONTINUOUS
 62
     3
 10
103.627439204631699
 20
-177.5490321867872865
 30
0.0
 11
99.6775648335654694
 21
-177.5490321867872865
 31
0.0
  0
LINE
  5
1A762
  8
0
  6
CONTINUOUS
 62
     3
 10
105.6775648335653983
 20
-186.5490321867874002
 30
0.0
 11
99.6775648335654694
 21
-186.5490321867874002
 31
0.0
  0
LINE
  5
1A763
  8
0
  6
CONTINUOUS
 62
     3
 10
99.6775648335654694
 20
-186.5490321867874002
 30
0.0
 11
99.6775648335654694
 21
-180.5490321867872865
 31
0.0
  0
LINE
  5
1A764
  8
0
  6
CONTINUOUS
 62
     3
 10
99.6775648335654694
 20
-180.5490321867872865
 30
0.0
 11
105.6775648335653983
 21
-180.5490321867872865
 31
0.0
  0
LINE
  5
1A765
  8
0
  6
CONTINUOUS
 62
     3
 10
105.6775648335653983
 20
-180.5490321867872865
 30
0.0
 11
105.6775648335653983
 21
-186.5490321867874002
 31
0.0
  0
LINE
  5
1A766
  8
0
  6
CONTINUOUS
 62
     3
 10
105.6775648335653983
 20
-195.5490321867874002
 30
0.0
 11
99.6775648335654694
 21
-195.5490321867874002
 31
0.0
  0
LINE
  5
1A767
  8
0
  6
CONTINUOUS
 62
     3
 10
99.6775648335654694
 20
-195.5490321867874002
 30
0.0
 11
99.6775648335654694
 21
-189.5490321867874002
 31
0.0
  0
LINE
  5
1A768
  8
0
  6
CONTINUOUS
 62
     3
 10
99.6775648335654694
 20
-189.5490321867874002
 30
0.0
 11
105.6775648335653983
 21
-189.5490321867874002
 31
0.0
  0
LINE
  5
1A769
  8
0
  6
CONTINUOUS
 62
     3
 10
105.6775648335653983
 20
-189.5490321867874002
 30
0.0
 11
105.6775648335653983
 21
-195.5490321867874002
 31
0.0
  0
CIRCLE
  5
1A76A
  8
0
  6
CONTINUOUS
 62
     3
 10
93.6775648335654694
 20
-192.5490321867874002
 30
0.0
 40
21.0
  0
LINE
  5
1A76B
  8
0
  6
VERDECKT
 62
     1
 10
99.5964892941911302
 20
-211.6531242413554139
 30
0.0
 11
99.8924355172223954
 21
-212.6083288440838999
 31
0.0
  0
LINE
  5
1A76C
  8
0
  6
VERDECKT
 62
     1
 10
105.4856459852746013
 20
-209.9147806450212954
 30
0.0
 11
104.9233564066218065
 21
-209.0878402422482907
 31
0.0
  0
LINE
  5
1A76D
  8
0
  6
VERDECKT
 62
     1
 10
112.3041344849662977
 20
-199.8326372709138923
 30
0.0
 11
113.2354629675362929
 21
-200.1968175251203093
 31
0.0
  0
LINE
  5
1A76E
  8
0
  6
VERDECKT
 62
     1
 10
114.6168718724443067
 20
-194.1444696601967905
 30
0.0
 11
113.6197620134500994
 21
-194.0684964471772105
 31
0.0
  0
LINE
  5
1A76F
  8
0
  6
VERDECKT
 62
     1
 10
110.9855928154593983
 20
-182.5274471136577858
 30
0.0
 11
111.8509942145542055
 21
-182.0263678600014998
 31
0.0
  0
LINE
  5
1A770
  8
0
  6
VERDECKT
 62
     1
 10
107.9803724753159031
 20
-177.1727617169015048
 30
0.0
 11
107.2992863971372941
 21
-177.9049650726103948
 31
0.0
  0
LINE
  5
1A771
  8
0
  6
VERDECKT
 62
     1
 10
96.633753056157687
 20
-172.7687149195490974
 30
0.0
 11
96.7815624672873156
 21
-171.7796990561870984
 31
0.0
  0
LINE
  5
1A772
  8
0
  6
VERDECKT
 62
     1
 10
90.5735671998436658
 20
-171.7796990561872121
 30
0.0
 11
90.7213766109733086
 21
-172.7687149195490974
 31
0.0
  0
LINE
  5
1A773
  8
0
  6
VERDECKT
 62
     1
 10
80.0558432699937157
 20
-177.9049650726103948
 30
0.0
 11
79.3747571918151493
 21
-177.1727617169015048
 31
0.0
  0
LINE
  5
1A774
  8
0
  6
VERDECKT
 62
     1
 10
75.5041354525767474
 20
-182.0263678600014998
 30
0.0
 11
76.3695368516714552
 21
-182.5274471136577858
 31
0.0
  0
LINE
  5
1A775
  8
0
  6
VERDECKT
 62
     1
 10
73.7353676536808962
 20
-194.0684964471772105
 30
0.0
 11
72.7382577946866604
 21
-194.1444696601967053
 31
0.0
  0
LINE
  5
1A776
  8
0
  6
VERDECKT
 62
     1
 10
74.1196666995946032
 20
-200.1968175251201956
 30
0.0
 11
75.0509951821646695
 21
-199.832637270913807
 31
0.0
  0
LINE
  5
1A777
  8
0
  6
VERDECKT
 62
     1
 10
82.4317732605091322
 20
-209.0878402422482907
 30
0.0
 11
81.8694836818562806
 21
-209.9147806450212954
 31
0.0
  0
LINE
  5
1A778
  8
0
  6
VERDECKT
 62
     1
 10
87.4626941499086143
 20
-212.6083288440838999
 30
0.0
 11
87.7586403729398512
 21
-211.6531242413554992
 31
0.0
  0
LINE
  5
1A779
  8
0
  6
VERDECKT
 62
     1
 10
76.3695368516714552
 20
-202.5706172599169861
 30
0.0
 11
75.5041354525767474
 21
-203.0716965135734995
 31
0.0
  0
LINE
  5
1A77A
  8
0
  6
VERDECKT
 62
     1
 10
79.3747571918150925
 20
-207.9253026566734945
 30
0.0
 11
80.0558432699936589
 21
-207.1930993009646045
 31
0.0
  0
LINE
  5
1A77B
  8
0
  6
VERDECKT
 62
     1
 10
75.0509951821646695
 20
-185.2654271026609081
 30
0.0
 11
74.1196666995946032
 21
-184.9012468484546901
 31
0.0
  0
LINE
  5
1A77C
  8
0
  6
VERDECKT
 62
     1
 10
72.7382577946866604
 20
-190.9535947133782088
 30
0.0
 11
73.7353676536808962
 21
-191.0295679263975899
 31
0.0
  0
LINE
  5
1A77D
  8
0
  6
VERDECKT
 62
     1
 10
87.7586403729397944
 20
-173.4449401322193864
 30
0.0
 11
87.4626941499085291
 21
-172.4897355294910142
 31
0.0
  0
LINE
  5
1A77E
  8
0
  6
VERDECKT
 62
     1
 10
81.8694836818562521
 20
-175.1832837285535902
 30
0.0
 11
82.4317732605091038
 21
-176.0102241313265949
 31
0.0
  0
LINE
  5
1A77F
  8
0
  6
VERDECKT
 62
     1
 10
104.9233564066218065
 20
-176.0102241313265949
 30
0.0
 11
105.4856459852746013
 21
-175.1832837285535902
 31
0.0
  0
LINE
  5
1A780
  8
0
  6
VERDECKT
 62
     1
 10
99.8924355172223954
 20
-172.4897355294910142
 30
0.0
 11
99.5964892941911302
 21
-173.4449401322195001
 31
0.0
  0
LINE
  5
1A781
  8
0
  6
VERDECKT
 62
     1
 10
113.6197620134499999
 20
-191.0295679263975899
 30
0.0
 11
114.6168718724441931
 21
-190.9535947133782088
 31
0.0
  0
LINE
  5
1A782
  8
0
  6
VERDECKT
 62
     1
 10
113.2354629675362929
 20
-184.9012468484546901
 30
0.0
 11
112.3041344849662977
 21
-185.265427102661107
 31
0.0
  0
LINE
  5
1A783
  8
0
  6
VERDECKT
 62
     1
 10
107.2992863971372941
 20
-207.1930993009646045
 30
0.0
 11
107.9803724753159031
 21
-207.9253026566734945
 31
0.0
  0
LINE
  5
1A784
  8
0
  6
VERDECKT
 62
     1
 10
111.8509942145542055
 20
-203.0716965135734995
 30
0.0
 11
110.9855928154593983
 21
-202.5706172599170998
 31
0.0
  0
LINE
  5
1A785
  8
0
  6
VERDECKT
 62
     1
 10
90.7213766109733086
 20
-212.3293494540257029
 30
0.0
 11
90.5735671998436658
 21
-213.3183653173877019
 31
0.0
  0
LINE
  5
1A786
  8
0
  6
VERDECKT
 62
     1
 10
96.7815624672873156
 20
-213.3183653173877019
 30
0.0
 11
96.633753056157687
 21
-212.3293494540257029
 31
0.0
  0
CIRCLE
  5
1A787
  8
0
  6
VERDECKT
 62
     1
 10
93.6775648335654694
 20
-192.5490321867874002
 30
0.0
 40
20.0
  0
CIRCLE
  5
1A788
  8
0
  6
VERDECKT
 62
     1
 10
93.6775648335654694
 20
-192.5490321867875139
 30
0.0
 40
20.6500453458963911
  0
CIRCLE
  5
1A789
  8
0
  6
VERDECKT
 62
     1
 10
93.6775648335654694
 20
-192.5490321867875139
 30
0.0
 40
19.6576414693902208
  0
ENDBLK
  5
1A78B
  8
0
 62
     6
  0
ENDSEC
  0
SECTION
  2
ENTITIES
  0
TEXT
  5
8F
  8
VOLL
 10
78.076754716981128
 20
31.025947764705851
 30
0.0
 40
1.8
  1

  7
GREEKS
  0
INSERT
  5
18CB5
  8
ADSK_ASSOC_ENTITY_BACKUPS
 62
     3
  2
*U2
 10
0.0
 20
0.0
 30
0.0
  0
INSERT
  5
1A895
  8
0
 62
     6
  2
A$C1CC81728
 10
-28.7238025342454009
 20
169.3950680280038057
 30
0.0
  0
INSERT
  5
1A896
  8
0
 62
     6
  2
A$C05547528
 10
-72.6775646003741826
 20
213.5490321701915093
 30
0.0
  0
VIEWPORT
  5
18BF9
 67
     1
  8
0
 62
     3
 10
136.3087507764462032
 20
151.5311189563142023
 30
0.0
 40
1230.5902862529130743
 41
481.0787625724719874
 68
     1
 69
     1
1001
ACAD
1000
MVIEW
1002
{
1070
    16
1010
0.0
1020
0.0
1030
0.0
1010
0.0
1020
0.0
1030
1.0
1040
0.0
1040
481.0787625724719874
1040
136.3087507764462032
1040
151.5311189563142023
1040
50.0
1040
0.0
1040
0.0
1070
     0
1070
  1500
1070
     1
1070
     1
1070
     0
1070
     0
1070
     0
1070
     0
1040
0.0
1040
0.0
1040
0.0
1040
10.0
1040
10.0
1040
10.0
1040
10.0
1070
     0
1002
{
1002
}
1002
}
  0
ENDSEC
  0
EOF
