  0
SECTION
  2
HEADER
  9
$ACADVER
  1
AC1009
  9
$INSBASE
 10
0.0
 20
0.0
 30
0.0
  9
$EXTMIN
 10
-0.0000000000001659
 20
-165.0000000000007958
 30
-0.00000000000001
  9
$EXTMAX
 10
445.0000000000001137
 20
45.0000000000000426
 30
0.0000000000000713
  9
$LIMMIN
 10
0.0
 20
0.0
  9
$LIMMAX
 10
839.9999999999997726
 20
594.0000000000001137
  9
$ORTHOMODE
 70
     1
  9
$REGENMODE
 70
     1
  9
$FILLMODE
 70
     1
  9
$QTEXTMODE
 70
     0
  9
$MIRRTEXT
 70
     1
  9
$DRAGMODE
 70
     2
  9
$LTSCALE
 40
10.0
  9
$OSMODE
 70
   511
  9
$ATTMODE
 70
     1
  9
$TEXTSIZE
 40
2.5
  9
$TRACEWID
 40
0.5
  9
$TEXTSTYLE
  7
GREEKS
  9
$CLAYER
  8
STEMPEL
  9
$CELTYPE
  6
BYLAYER
  9
$CECOLOR
 62
   256
  9
$DIMSCALE
 40
1.0
  9
$DIMASZ
 40
3.5
  9
$DIMEXO
 40
1.0
  9
$DIMDLI
 40
1.0
  9
$DIMRND
 40
0.0
  9
$DIMDLE
 40
0.0
  9
$DIMEXE
 40
1.0
  9
$DIMTP
 40
0.0
  9
$DIMTM
 40
2.0
  9
$DIMTXT
 40
3.5
  9
$DIMCEN
 40
0.09
  9
$DIMTSZ
 40
0.0
  9
$DIMTOL
 70
     0
  9
$DIMLIM
 70
     0
  9
$DIMTIH
 70
     0
  9
$DIMTOH
 70
     0
  9
$DIMSE1
 70
     0
  9
$DIMSE2
 70
     0
  9
$DIMTAD
 70
     1
  9
$DIMZIN
 70
     8
  9
$DIMBLK
  1

  9
$DIMASO
 70
     1
  9
$DIMSHO
 70
     0
  9
$DIMPOST
  1

  9
$DIMAPOST
  1

  9
$DIMALT
 70
     0
  9
$DIMALTD
 70
     2
  9
$DIMALTF
 40
25.3999999999999986
  9
$DIMLFAC
 40
2.0
  9
$DIMTOFL
 70
     1
  9
$DIMTVP
 40
0.0
  9
$DIMTIX
 70
     0
  9
$DIMSOXD
 70
     0
  9
$DIMSAH
 70
     0
  9
$DIMBLK1
  1

  9
$DIMBLK2
  1

  9
$DIMSTYLE
  2
STANDARD
  9
$DIMCLRD
 70
   256
  9
$DIMCLRE
 70
     0
  9
$DIMCLRT
 70
     1
  9
$DIMTFAC
 40
0.5
  9
$DIMGAP
 40
1.1999999999999991
  9
$LUNITS
 70
     2
  9
$LUPREC
 70
     2
  9
$SKETCHINC
 40
1.0
  9
$FILLETRAD
 40
1.0
  9
$AUNITS
 70
     0
  9
$AUPREC
 70
     0
  9
$MENU
  1
ACAD
  9
$ELEVATION
 40
0.0
  9
$PELEVATION
 40
0.0
  9
$THICKNESS
 40
0.0
  9
$LIMCHECK
 70
     0
  9
$BLIPMODE
 70
     0
  9
$CHAMFERA
 40
1.0
  9
$CHAMFERB
 40
1.0
  9
$SKPOLY
 70
     0
  9
$TDCREATE
 40
2452806.2369097219780087
  9
$TDUPDATE
 40
2460507.4047453701496124
  9
$TDINDWG
 40
2.1179888309999999
  9
$TDUSRTIMER
 40
2.1179888309999999
  9
$USRTIMER
 70
     1
  9
$ANGBASE
 50
0.0
  9
$ANGDIR
 70
     0
  9
$PDMODE
 70
     0
  9
$PDSIZE
 40
0.0
  9
$PLINEWID
 40
0.0
  9
$COORDS
 70
     1
  9
$SPLFRAME
 70
     0
  9
$SPLINETYPE
 70
     6
  9
$SPLINESEGS
 70
     8
  9
$ATTDIA
 70
     1
  9
$ATTREQ
 70
     1
  9
$HANDLING
 70
     1
  9
$HANDSEED
  5
13A65
  9
$SURFTAB1
 70
     6
  9
$SURFTAB2
 70
     6
  9
$SURFTYPE
 70
     6
  9
$SURFU
 70
     6
  9
$SURFV
 70
     6
  9
$UCSNAME
  2

  9
$UCSORG
 10
0.0
 20
0.0
 30
0.0
  9
$UCSXDIR
 10
1.0
 20
0.0
 30
0.0
  9
$UCSYDIR
 10
0.0
 20
1.0
 30
0.0
  9
$PUCSNAME
  2

  9
$PUCSORG
 10
0.0
 20
0.0
 30
0.0
  9
$PUCSXDIR
 10
1.0
 20
0.0
 30
0.0
  9
$PUCSYDIR
 10
0.0
 20
1.0
 30
0.0
  9
$USERI1
 70
     0
  9
$USERI2
 70
     0
  9
$USERI3
 70
     0
  9
$USERI4
 70
     0
  9
$USERI5
 70
     0
  9
$USERR1
 40
0.0
  9
$USERR2
 40
0.0
  9
$USERR3
 40
0.0
  9
$USERR4
 40
0.0
  9
$USERR5
 40
0.0
  9
$WORLDVIEW
 70
     1
  9
$SHADEDGE
 70
     3
  9
$SHADEDIF
 70
    70
  9
$TILEMODE
 70
     1
  9
$MAXACTVP
 70
    16
  9
$PLIMCHECK
 70
     0
  9
$PEXTMIN
 10
140.9805465162598921
 20
81.5200526113806063
 30
0.0
  9
$PEXTMAX
 10
145.980546574880691
 20
86.5200523339430987
 30
0.0
  9
$PLIMMIN
 10
-0.2412826809539865
 20
-0.2492647697052348
  9
$PLIMMAX
 10
419.7587173190460135
 20
296.750735230294822
  9
$UNITMODE
 70
     0
  9
$VISRETAIN
 70
     0
  9
$PLINEGEN
 70
     0
  9
$PSLTSCALE
 70
     0
  0
ENDSEC
  0
SECTION
  2
TABLES
  0
TABLE
  2
VPORT
 70
     1
  0
VPORT
  2
*ACTIVE
 70
     0
 10
0.0
 20
0.0
 11
1.0
 21
1.0
 12
84.9999999999999858
 22
-60.0000000000003908
 13
0.0
 23
0.0
 14
1.0
 24
1.0
 15
10.0
 25
10.0
 16
0.0000000000002274
 26
0.0
 36
1043.2921731714129692
 17
137.5
 27
0.0
 37
0.0000000000000306
 40
236.7474422364118993
 41
1.8847807394668961
 42
50.0000000000000071
 43
0.0
 44
0.0
 50
0.0
 51
0.0
 71
     0
 72
  1500
 73
     1
 74
     0
 75
     0
 76
     0
 77
     0
 78
     0
  0
ENDTAB
  0
TABLE
  2
LTYPE
 70
     4
  0
LTYPE
  2
CONTINUOUS
 70
     0
  3
Solid line
 72
    65
 73
     0
 40
0.0
  0
LTYPE
  2
STRICHPUNKT
 70
     0
  3
__ . __ . __ . __ . __ . __ . __ . __ . __ . __
 72
    65
 73
     4
 40
1.0
 49
0.5
 49
-0.25
 49
0.0
 49
-0.25
  0
LTYPE
  2
AUSGEZOGEN
 70
     0
  3
Ausgezogene Linie
 72
    65
 73
     0
 40
0.0
  0
LTYPE
  2
VERDECKT
 70
     0
  3
Verdeckt __ __ __ __ __ __ __ __ __ __ __ __ __
 72
    65
 73
     2
 40
0.375
 49
0.25
 49
-0.125
  0
ENDTAB
  0
TABLE
  2
LAYER
 70
     6
  0
LAYER
  2
0
 70
     0
 62
     7
  6
AUSGEZOGEN
  0
LAYER
  2
STEMPEL
 70
     0
 62
     3
  6
AUSGEZOGEN
  0
LAYER
  2
ADSK_ASSOC_ENTITY_BACKUPS
 70
     0
 62
     7
  6
CONTINUOUS
  0
LAYER
  2
INDEX
 70
     0
 62
  -255
  6
CONTINUOUS
  0
ENDTAB
  0
TABLE
  2
STYLE
 70
     3
  0
STYLE
  2
STANDARD
 70
     0
 40
0.0
 41
0.8
 50
0.0
 71
     0
 42
3.5
  3
simplex.shx
  4

  0
STYLE
  2
GREEKS
 70
     0
 40
0.0
 41
0.8
 50
0.0
 71
     0
 42
2.5
  3
SIMPLEX.shx
  4

  0
ENDTAB
  0
TABLE
  2
VIEW
 70
     0
  0
ENDTAB
  0
TABLE
  2
UCS
 70
     0
  0
ENDTAB
  0
TABLE
  2
APPID
 70
    30
  0
APPID
  2
ACAD
 70
     0
  0
APPID
  2
ACAD_PSEXT
 70
     0
  0
APPID
  2
ACAD_NAV_VCDISPLAY
 70
     0
  0
APPID
  2
GRADIENTCOLOR1ACI
 70
     0
  0
APPID
  2
GRADIENTCOLOR2ACI
 70
     0
  0
APPID
  2
ACAD_EXEMPT_FROM_CAD_STANDARDS
 70
     0
  0
APPID
  2
ACAD_MLEADERVER
 70
     0
  0
APPID
  2
ACAD_OBJECT_CHANGE_GUID
 70
     0
  0
APPID
  2
ACAECLAYERSTANDARD
 70
     0
  0
APPID
  2
ACCMTRANSPARENCY
 70
     0
  0
APPID
  2
ACAD_STEPID
 70
     0
  0
APPID
  2
ACSYNERGY
 70
     0
  0
APPID
  2
SYNERGY_BODY_TBR_ID
 70
     0
  0
APPID
  2
ACAD_VIEW_EDGE_ID
 70
     0
  0
APPID
  2
ACSYNERGYSKETCH
 70
     0
  0
APPID
  2
SYNERGY_EXCLUDED_FROM_SNAPSHOT
 70
     0
  0
APPID
  2
ACAD_MODELDOC_XFORM
 70
     0
  0
APPID
  2
ACADANNOMONITORALERTICONDI
 70
     0
  0
APPID
  2
ACADANNOTATIVE
 70
     0
  0
APPID
  2
ACAD_DSTYLE_DIMJAG
 70
     0
  0
APPID
  2
ACAD_DSTYLE_DIMTALN
 70
     0
  0
APPID
  2
ACDBDYNAMICBLOCKGUID
 70
     0
  0
APPID
  2
ACAD_DIMASSOC_CALC_DIMLFAC
 70
     0
  0
APPID
  2
ACAD_DIMASSOC_DIMLFAC
 70
     0
  0
APPID
  2
ACAD_DIMASSOC_OVERRIDDEN_D
 70
     0
  0
APPID
  2
ACAD_DSTYLE_DIMRADIAL_EXTENSION
 70
     0
  0
APPID
  2
ACADANNOPO
 70
     0
  0
APPID
  2
ACAD_TC
 70
     0
  0
APPID
  2
ACAD_DSTYLE_DIMBREAK
 70
     0
  0
APPID
  2
ACAD_ASSOCPERSSUBENTMANAGER
 70
     0
  0
ENDTAB
  0
TABLE
  2
DIMSTYLE
 70
     1
  0
DIMSTYLE
  2
STANDARD
 70
     0
  3

  4

  5

  6

  7

 40
1.0
 41
3.5
 42
1.0
 43
1.0
 44
1.0
 45
0.0
 46
0.0
 47
0.0
 48
2.0
140
3.5
141
0.09
142
0.0
143
25.3999999999999986
144
2.0
145
0.0
146
0.5
147
1.1999999999999991
 71
     0
 72
     0
 73
     0
 74
     0
 75
     0
 76
     0
 77
     1
 78
     8
170
     0
171
     2
172
     1
173
     0
174
     0
175
     0
176
   256
177
     0
178
     1
  0
ENDTAB
  0
ENDSEC
  0
SECTION
  2
BLOCKS
  0
BLOCK
  8
0
  2
$MODEL_SPACE
 70
     0
 10
0.0
 20
0.0
 30
0.0
  3
$MODEL_SPACE
  1

  0
ENDBLK
  5
1098
  8
0
  0
BLOCK
 67
     1
  8
0
  2
$PAPER_SPACE
 70
     0
 10
0.0
 20
0.0
 30
0.0
  3
$PAPER_SPACE
  1

  0
ENDBLK
  5
1096
 67
     1
  8
0
  0
BLOCK
  8
0
  2
*S0
 70
     1
 10
0.0
 20
0.0
 30
0.0
  3
*S0
  1

  0
ENDBLK
  5
48E3
  8
0
  0
BLOCK
  8
0
  2
A$C39E6E8B8
 70
     0
 10
0.0
 20
0.0
 30
0.0
  3
A$C39E6E8B8
  1

  0
LINE
  5
136A4
  8
0
  6
CONTINUOUS
 62
     3
 10
69.9999999999996447
 20
25.2999999999998586
 30
0.0000000000000142
 11
71.4999999999996447
 21
25.2999999999998586
 31
0.0000000000000145
  0
LINE
  5
136A5
  8
0
  6
CONTINUOUS
 62
     3
 10
71.4999999999996447
 20
25.2999999999998586
 30
0.0000000000000142
 11
71.4999999999996447
 21
21.7999999999998799
 31
0.0000000000000142
  0
LINE
  5
136A6
  8
0
  6
CONTINUOUS
 62
     3
 10
71.4999999999996447
 20
21.7999999999998799
 30
0.0000000000000142
 11
69.9999999999996447
 21
21.7999999999998799
 31
0.0000000000000139
  0
LINE
  5
136A7
  8
0
  6
CONTINUOUS
 62
     3
 10
69.9999999999996447
 20
-21.8000000000001002
 30
0.0000000000000142
 11
71.4999999999996447
 21
-21.8000000000001002
 31
0.0000000000000145
  0
LINE
  5
136A8
  8
0
  6
CONTINUOUS
 62
     3
 10
71.4999999999996305
 20
-21.8000000000001002
 30
0.0000000000000142
 11
71.4999999999996305
 21
-25.3000000000000789
 31
0.0000000000000142
  0
LINE
  5
136A9
  8
0
  6
CONTINUOUS
 62
     3
 10
71.4999999999996447
 20
-25.3000000000000789
 30
0.0000000000000142
 11
69.9999999999996447
 21
-25.3000000000000789
 31
0.0000000000000139
  0
LINE
  5
136AA
  8
0
  6
CONTINUOUS
 62
     3
 10
69.9999999999994884
 20
25.2999999999998586
 30
0.0000000000000142
 11
69.9999999999994884
 21
44.9999999999999929
 31
0.0000000000000142
  0
LINE
  5
136AB
  8
0
  6
CONTINUOUS
 62
     3
 10
69.9999999999994884
 20
-45.0
 30
0.0000000000000142
 11
69.9999999999994884
 21
-25.3000000000000789
 31
0.0000000000000142
  0
LINE
  5
136AC
  8
0
  6
CONTINUOUS
 62
     3
 10
152.2003398282199953
 20
-43.4999999999999929
 30
0.000000000000034
 11
152.2003398282199953
 21
-44.9999999999999929
 31
0.000000000000034
  0
LINE
  5
136AD
  8
0
  6
CONTINUOUS
 62
     3
 10
146.2003398282199953
 20
-43.4999999999999787
 30
0.0000000000000326
 11
152.2003398282199953
 21
-43.4999999999999787
 31
0.000000000000034
  0
LINE
  5
136AE
  8
0
  6
CONTINUOUS
 62
     3
 10
146.200339828220109
 20
-45.0000000000000213
 30
0.0000000000000326
 11
146.200339828220109
 21
-43.4999999999999929
 31
0.0000000000000326
  0
LINE
  5
136AF
  8
0
  6
CONTINUOUS
 62
     3
 10
273.9333398282200278
 20
43.5000000000000071
 30
0.0000000000000611
 11
270.4333398282200278
 21
43.5000000000000071
 31
0.0000000000000603
  0
LINE
  5
136B0
  8
0
  6
CONTINUOUS
 62
     3
 10
273.9333398282199141
 20
45.0
 30
0.0000000000000611
 11
273.9333398282199141
 21
43.5000000000000213
 31
0.0000000000000611
  0
LINE
  5
136B1
  8
0
  6
CONTINUOUS
 62
     3
 10
270.4333398282200278
 20
43.5000000000000071
 30
0.0000000000000603
 11
270.4333398282200278
 21
45.0
 31
0.0000000000000603
  0
LINE
  5
136B2
  8
0
  6
CONTINUOUS
 62
     3
 10
146.2003398282199953
 20
43.4999999999999218
 30
0.0000000000000326
 11
146.200339828220109
 21
44.9999999999999574
 31
0.0000000000000326
  0
LINE
  5
136B3
  8
0
  6
CONTINUOUS
 62
     3
 10
152.2003398282199953
 20
43.4999999999999432
 30
0.000000000000034
 11
146.2003398282199953
 21
43.4999999999999218
 31
0.0000000000000326
  0
LINE
  5
136B4
  8
0
  6
CONTINUOUS
 62
     3
 10
152.2003398282199953
 20
44.9999999999999503
 30
0.000000000000034
 11
152.2003398282199953
 21
43.4999999999999503
 31
0.000000000000034
  0
LINE
  5
136B5
  8
0
  6
CONTINUOUS
 62
     3
 10
152.2003398282199953
 20
-45.0000000000001208
 30
0.000000000000034
 11
282.1833398282200278
 21
-45.0000000000008384
 31
0.000000000000063
  0
LINE
  5
136B6
  8
0
  6
CONTINUOUS
 62
     3
 10
135.6179805153392124
 20
-45.0000000000000213
 30
0.0000000000000303
 11
146.200339828220109
 21
-45.0000000000000711
 31
0.0000000000000326
  0
LINE
  5
136B7
  8
0
  6
CONTINUOUS
 62
     3
 10
282.1833398282200847
 20
-45.0000000000000071
 30
0.000000000000063
 11
282.1833398282200847
 21
45.0
 31
0.000000000000063
  0
LINE
  5
136B8
  8
0
  6
CONTINUOUS
 62
     3
 10
273.9333398282200278
 20
44.9999999999977476
 30
0.0000000000000611
 11
282.1833398282200278
 21
44.9999999999976126
 31
0.000000000000063
  0
LINE
  5
136B9
  8
0
  6
CONTINUOUS
 62
     3
 10
152.2003398282199953
 20
44.9999999999997016
 30
0.000000000000034
 11
270.4333398282200278
 21
44.9999999999977973
 31
0.0000000000000603
  0
LINE
  5
136BA
  8
0
  6
CONTINUOUS
 62
     3
 10
135.6179805153392124
 20
44.9999999999999716
 30
0.0000000000000303
 11
146.200339828220109
 21
44.9999999999998082
 31
0.0000000000000326
  0
LINE
  5
136BB
  8
0
  6
CONTINUOUS
 62
     3
 10
134.557320343559411
 20
-45.0
 30
0.00000000000003
 11
135.6179805153392124
 21
-45.0
 31
0.0000000000000303
  0
LINE
  5
136BC
  8
0
  6
CONTINUOUS
 62
     3
 10
134.5573203435592973
 20
45.0000000000000071
 30
0.00000000000003
 11
135.6179805153390987
 21
45.0000000000000071
 31
0.0000000000000303
  0
LINE
  5
136BD
  8
0
  6
CONTINUOUS
 62
     3
 10
90.8786796564398713
 20
45.0
 30
0.0000000000000213
 11
134.557320343559411
 21
45.0
 31
0.0000000000000284
  0
LINE
  5
136BE
  8
0
  6
CONTINUOUS
 62
     3
 10
90.8786796564398429
 20
45.0
 30
0.0000000000000213
 11
88.7573593128802116
 21
45.0
 31
0.0000000000000213
  0
LINE
  5
136BF
  8
0
  6
CONTINUOUS
 62
     3
 10
88.7573593128801832
 20
-45.0
 30
0.0000000000000213
 11
90.8786796564398429
 21
-45.0
 31
0.0000000000000213
  0
LINE
  5
136C0
  8
0
  6
CONTINUOUS
 62
     3
 10
134.5573203435592973
 20
-45.0000000000000213
 30
0.00000000000003
 11
90.8786796564398429
 21
-45.0
 31
0.0000000000000229
  0
LINE
  5
136C1
  8
0
  6
CONTINUOUS
 62
     3
 10
88.7573593128801832
 20
-45.0
 30
0.0000000000000213
 11
81.7499999999994458
 21
-45.0
 31
0.0000000000000198
  0
LINE
  5
136C2
  8
0
  6
CONTINUOUS
 62
     3
 10
69.9999999999995026
 20
-21.8000000000001002
 30
0.0000000000000142
 11
69.9999999999995026
 21
21.7999999999998799
 31
0.0000000000000142
  0
LINE
  5
136C3
  8
0
  6
CONTINUOUS
 62
     3
 10
78.2499999999994458
 20
-45.0
 30
0.0000000000000142
 11
69.9999999999994884
 21
-45.0
 31
0.0000000000000124
  0
LINE
  5
136C4
  8
0
  6
CONTINUOUS
 62
     3
 10
78.2499999999994458
 20
-43.5
 30
0.0000000000000142
 11
78.2499999999994458
 21
-45.0
 31
0.0000000000000142
  0
LINE
  5
136C5
  8
0
  6
CONTINUOUS
 62
     3
 10
81.7499999999994458
 20
-43.5
 30
0.0000000000000213
 11
78.2499999999994458
 21
-43.5
 31
0.0000000000000205
  0
LINE
  5
136C6
  8
0
  6
CONTINUOUS
 62
     3
 10
81.7499999999994458
 20
-45.0
 30
0.0000000000000213
 11
81.7499999999994458
 21
-43.5
 31
0.0000000000000213
  0
LINE
  5
136C7
  8
0
  6
CONTINUOUS
 62
     3
 10
81.7499999999994458
 20
45.0
 30
0.0000000000000213
 11
88.7573593128802116
 21
45.0
 31
0.0000000000000229
  0
LINE
  5
136C8
  8
0
  6
CONTINUOUS
 62
     3
 10
81.7499999999994458
 20
43.5
 30
0.0000000000000213
 11
81.7499999999994458
 21
45.0
 31
0.0000000000000213
  0
LINE
  5
136C9
  8
0
  6
CONTINUOUS
 62
     3
 10
78.2499999999994458
 20
43.5
 30
0.0000000000000142
 11
81.7499999999994458
 21
43.5
 31
0.000000000000015
  0
LINE
  5
136CA
  8
0
  6
CONTINUOUS
 62
     3
 10
78.2499999999994458
 20
45.0
 30
0.0000000000000142
 11
78.2499999999994458
 21
43.5
 31
0.0000000000000142
  0
LINE
  5
136CB
  8
0
  6
CONTINUOUS
 62
     3
 10
69.9999999999995026
 20
44.9999999999999929
 30
0.0000000000000142
 11
78.2499999999994458
 21
45.0
 31
0.0000000000000161
  0
LINE
  5
136CC
  8
0
  6
CONTINUOUS
 62
     3
 10
-0.0000000000001397
 20
39.2594616805545371
 30
0.0
 11
-0.0000000000001445
 21
-39.2594616805545087
 31
0.0
  0
LINE
  5
136CD
  8
0
  6
CONTINUOUS
 62
     3
 10
-0.0000000000001397
 20
39.2594616805545371
 30
0.0
 11
0.6596550823859129
 21
39.5670638972114972
 31
0.0000000000000001
  0
LINE
  5
136CE
  8
0
  6
CONTINUOUS
 62
     3
 10
-0.0000000000001446
 20
-39.2594616805545087
 30
0.0
 11
0.659655082385908
 21
-39.5670638972114688
 31
0.0000000000000001
  0
ARC
  5
136CF
  8
0
  6
CONTINUOUS
 62
     3
 10
11.1828497997148499
 20
17.0000000000722586
 30
0.0000000000000025
 40
24.8999999999273989
 50
89.999999999992184
 51
115.0000000000410978
  0
ARC
  5
136D0
  8
0
  6
CONTINUOUS
 62
     3
 10
11.1828497997148002
 20
-17.0000000000723901
 30
0.0000000000000025
 40
24.8999999999272497
 50
244.9999999999587885
 51
270.0000000000080149
  0
LINE
  5
136D1
  8
0
  6
CONTINUOUS
 62
     3
 10
15.36072651259596
 20
-41.899999999999622
 30
0.0000000000000034
 11
11.1828497997182392
 21
-41.899999999999622
 31
0.0000000000000025
  0
LINE
  5
136D2
  8
0
  6
CONTINUOUS
 62
     3
 10
15.36072651259596
 20
41.8999999999996433
 30
0.0000000000000034
 11
11.1828497997182392
 21
41.8999999999996433
 31
0.0000000000000025
  0
ARC
  5
136D3
  8
0
  6
CONTINUOUS
 62
     3
 10
15.4262594256516898
 20
16.9941909850606088
 30
0.0000000000000034
 40
24.9058952308748012
 50
68.9839059890083774
 51
90.1507580287746038
  0
ARC
  5
136D4
  8
0
  6
CONTINUOUS
 62
     3
 10
15.4262594256517502
 20
-16.9941909850608788
 30
0.0000000000000034
 40
24.9058952308745098
 50
269.8492419712251831
 51
291.0160940109917078
  0
ARC
  5
136D5
  8
0
  6
CONTINUOUS
 62
     3
 10
28.8718289426791905
 20
51.8999999999658002
 30
0.0000000000000064
 40
12.4999999999661409
 50
248.8331479601573051
 51
270.0
  0
ARC
  5
136D6
  8
0
  6
CONTINUOUS
 62
     3
 10
28.8718289426792403
 20
-51.8999999999659991
 30
0.0000000000000064
 40
12.49999999996637
 50
89.999999999969333
 51
111.1668520398116016
  0
LINE
  5
136D7
  8
0
  6
CONTINUOUS
 62
     3
 10
49.1484939899708806
 20
-39.3999999999996291
 30
0.000000000000011
 11
28.8718289426859407
 21
-39.3999999999996291
 31
0.0000000000000064
  0
LINE
  5
136D8
  8
0
  6
CONTINUOUS
 62
     3
 10
49.1484939899708806
 20
39.3999999999996433
 30
0.000000000000011
 11
28.8718289426859407
 21
39.3999999999996433
 31
0.0000000000000064
  0
ARC
  5
136D9
  8
0
  6
CONTINUOUS
 62
     3
 10
49.1484939899678324
 20
27.4999999999918607
 30
0.000000000000011
 40
11.9000000000077808
 50
58.6793304115938881
 51
89.9999999999852918
  0
ARC
  5
136DA
  8
0
  6
CONTINUOUS
 62
     3
 10
49.1484939899677826
 20
-27.4999999999916689
 30
0.000000000000011
 40
11.9000000000079602
 50
270.000000000014893
 51
301.3206695884059059
  0
ARC
  5
136DB
  8
0
  6
CONTINUOUS
 62
     3
 10
59.4930577797046993
 20
44.4999999999829967
 30
0.0000000000000133
 40
7.9999999999829958
 50
238.6793304115182934
 51
270.0
  0
ARC
  5
136DC
  8
0
  6
CONTINUOUS
 62
     3
 10
59.4930577797046425
 20
-44.499999999982812
 30
0.0000000000000133
 40
7.9999999999828111
 50
89.999999999954909
 51
121.3206695884373971
  0
LINE
  5
136DD
  8
0
  6
CONTINUOUS
 62
     3
 10
59.4930577797109379
 20
36.4999999999999503
 30
0.0000000000000133
 11
69.9999999999994458
 21
36.4999999999999503
 31
0.0000000000000156
  0
LINE
  5
136DE
  8
0
  6
CONTINUOUS
 62
     3
 10
59.4930577797109379
 20
-36.5000000000000497
 30
0.0000000000000133
 11
69.99999999999946
 21
-36.5000000000000497
 31
0.0000000000000156
  0
LINE
  5
136DF
  8
0
  6
CONTINUOUS
 62
     3
 10
71.4999999999995026
 20
22.0500000000000007
 30
0.0000000000000142
 11
69.9999999999995026
 21
22.0500000000000007
 31
0.0000000000000139
  0
LINE
  5
136E0
  8
0
  6
CONTINUOUS
 62
     3
 10
71.4999999999995026
 20
25.0499999999999616
 30
0.0000000000000142
 11
71.4999999999995026
 21
22.0500000000000007
 31
0.0000000000000142
  0
LINE
  5
136E1
  8
0
  6
CONTINUOUS
 62
     3
 10
69.9999999999995026
 20
25.0499999999999616
 30
0.0000000000000142
 11
71.4999999999995026
 21
25.0499999999999616
 31
0.0000000000000145
  0
LINE
  5
136E2
  8
0
  6
CONTINUOUS
 62
     3
 10
69.9999999999995026
 20
22.0500000000000007
 30
0.0000000000000142
 11
69.9999999999995026
 21
25.0499999999999616
 31
0.0000000000000142
  0
LINE
  5
136E3
  8
0
  6
CONTINUOUS
 62
     3
 10
69.9999999999995595
 20
25.0499999999999616
 30
0.0000000000000142
 11
69.9999999999995595
 21
25.2999999999998586
 31
0.0000000000000142
  0
LINE
  5
136E4
  8
0
  6
CONTINUOUS
 62
     3
 10
71.4999999999995026
 20
-25.049999999999951
 30
0.0000000000000142
 11
69.9999999999995026
 21
-25.049999999999951
 31
0.0000000000000139
  0
LINE
  5
136E5
  8
0
  6
CONTINUOUS
 62
     3
 10
71.4999999999995026
 20
-22.0500000000000007
 30
0.0000000000000142
 11
71.4999999999995026
 21
-25.049999999999951
 31
0.0000000000000142
  0
LINE
  5
136E6
  8
0
  6
CONTINUOUS
 62
     3
 10
69.9999999999995026
 20
-22.0500000000000007
 30
0.0000000000000142
 11
71.4999999999995026
 21
-22.0500000000000007
 31
0.0000000000000145
  0
LINE
  5
136E7
  8
0
  6
CONTINUOUS
 62
     3
 10
69.9999999999995026
 20
-25.049999999999951
 30
0.0000000000000142
 11
69.9999999999995026
 21
-22.0500000000000007
 31
0.0000000000000142
  0
LINE
  5
136E8
  8
0
  6
CONTINUOUS
 62
     3
 10
69.9999999999995595
 20
-22.0500000000000007
 30
0.0000000000000142
 11
69.9999999999995595
 21
-21.8000000000001002
 31
0.0000000000000142
  0
LINE
  5
136E9
  8
0
  6
CONTINUOUS
 62
     3
 10
69.9999999999995595
 20
21.7999999999998799
 30
0.0000000000000142
 11
69.9999999999995595
 21
22.0500000000000007
 31
0.0000000000000142
  0
LINE
  5
136EA
  8
0
  6
CONTINUOUS
 62
     3
 10
78.4999999999996021
 20
45.0000000000001279
 30
0.0000000000000142
 11
78.4999999999996021
 21
43.5000000000001279
 31
0.0000000000000142
  0
LINE
  5
136EB
  8
0
  6
CONTINUOUS
 62
     3
 10
78.2499999999994458
 20
45.0000000000001279
 30
0.0000000000000142
 11
78.4999999999995737
 21
45.0000000000001279
 31
0.0000000000000143
  0
LINE
  5
136EC
  8
0
  6
CONTINUOUS
 62
     3
 10
69.9999999999995595
 20
-25.3000000000000789
 30
0.0000000000000142
 11
69.9999999999995595
 21
-25.049999999999951
 31
0.0000000000000142
  0
LINE
  5
136ED
  8
0
  6
CONTINUOUS
 62
     3
 10
78.4999999999995453
 20
-45.0000000000001421
 30
0.0000000000000142
 11
78.2499999999994458
 21
-45.0000000000001421
 31
0.0000000000000142
  0
LINE
  5
136EE
  8
0
  6
CONTINUOUS
 62
     3
 10
78.4999999999995453
 20
-43.5000000000001279
 30
0.0000000000000142
 11
78.4999999999995453
 21
-45.0000000000001279
 31
0.0000000000000142
  0
LINE
  5
136EF
  8
0
  6
CONTINUOUS
 62
     3
 10
146.200339828220109
 20
45.0000000000000426
 30
0.0000000000000326
 11
147.6999999999993918
 21
45.0000000000000426
 31
0.000000000000033
  0
LINE
  5
136F0
  8
0
  6
CONTINUOUS
 62
     3
 10
147.6999999999993918
 20
-45.0000000000000711
 30
0.0000000000000329
 11
146.200339828220109
 21
-45.0000000000000711
 31
0.0000000000000325
  0
LINE
  5
136F1
  8
0
  6
CONTINUOUS
 62
     3
 10
147.6999999999993918
 20
45.0000000000000426
 30
0.000000000000033
 11
147.6999999999993918
 21
43.5000000000000426
 31
0.000000000000033
  0
LINE
  5
136F2
  8
0
  6
CONTINUOUS
 62
     3
 10
147.6999999999993918
 20
-43.5000000000000711
 30
0.000000000000033
 11
147.6999999999993918
 21
-45.0000000000000782
 31
0.000000000000033
  0
LINE
  5
136F3
  8
0
  6
CONTINUOUS
 62
     3
 10
147.6999999999993918
 20
45.0000000000000497
 30
0.000000000000033
 11
150.6999999999993918
 21
45.0000000000000497
 31
0.0000000000000336
  0
LINE
  5
136F4
  8
0
  6
CONTINUOUS
 62
     3
 10
150.6999999999993918
 20
45.0000000000000426
 30
0.0000000000000336
 11
150.6999999999993918
 21
43.5000000000000426
 31
0.0000000000000336
  0
LINE
  5
136F5
  8
0
  6
CONTINUOUS
 62
     3
 10
81.4999999999995453
 20
45.0000000000001279
 30
0.0000000000000213
 11
81.7499999999994458
 21
45.0000000000001279
 31
0.0000000000000214
  0
LINE
  5
136F6
  8
0
  6
CONTINUOUS
 62
     3
 10
81.7499999999994458
 20
-45.0000000000001421
 30
0.0000000000000213
 11
81.4999999999995168
 21
-45.0000000000001421
 31
0.0000000000000213
  0
LINE
  5
136F7
  8
0
  6
CONTINUOUS
 62
     3
 10
150.6999999999993918
 20
45.0000000000000426
 30
0.0000000000000335
 11
152.2003398282199953
 21
45.0000000000000426
 31
0.0000000000000339
  0
LINE
  5
136F8
  8
0
  6
CONTINUOUS
 62
     3
 10
270.4333398282200278
 20
45.0000000000000213
 30
0.0000000000000604
 11
270.6830301394908247
 21
45.0000000000000213
 31
0.0000000000000605
  0
LINE
  5
136F9
  8
0
  6
CONTINUOUS
 62
     3
 10
81.4999999999995453
 20
43.5000000000001279
 30
0.0000000000000213
 11
81.4999999999995453
 21
45.0000000000001279
 31
0.0000000000000213
  0
LINE
  5
136FA
  8
0
  6
CONTINUOUS
 62
     3
 10
81.4999999999995026
 20
-45.0000000000001279
 30
0.0000000000000213
 11
81.4999999999995026
 21
-43.5000000000001279
 31
0.0000000000000213
  0
LINE
  5
136FB
  8
0
  6
CONTINUOUS
 62
     3
 10
270.6830301394908247
 20
45.0000000000000284
 30
0.0000000000000604
 11
270.6830301394908247
 21
43.5000000000000426
 31
0.0000000000000604
  0
LINE
  5
136FC
  8
0
  6
CONTINUOUS
 62
     3
 10
270.6830301394908247
 20
45.0000000000000284
 30
0.0000000000000604
 11
273.6830301394908247
 21
45.0000000000000284
 31
0.0000000000000611
  0
LINE
  5
136FD
  8
0
  6
CONTINUOUS
 62
     3
 10
273.6830301394908247
 20
45.0000000000000284
 30
0.0000000000000611
 11
273.6830301394908247
 21
43.5000000000000426
 31
0.0000000000000611
  0
LINE
  5
136FE
  8
0
  6
CONTINUOUS
 62
     3
 10
273.6830301394908247
 20
45.0000000000000284
 30
0.0000000000000611
 11
273.9333398282200278
 21
45.0000000000000284
 31
0.0000000000000611
  0
LINE
  5
136FF
  8
0
  6
CONTINUOUS
 62
     3
 10
282.1833398282200847
 20
45.0000000000000497
 30
0.0000000000000631
 11
318.6493939335533128
 21
44.9999999999999716
 31
0.0000000000000702
  0
LINE
  5
13700
  8
0
  6
CONTINUOUS
 62
     3
 10
318.6493939335533128
 20
43.4999999999999574
 30
0.0000000000000711
 11
282.1833398282200847
 21
43.5000000000000426
 31
0.0000000000000639
  0
POLYLINE
  5
13701
  8
0
  6
CONTINUOUS
 62
     3
 10
320.0000000000000568
 20
41.9999999999999645
 30
0.0000000000000714
 66
     1
 70
     8
  0
VERTEX
  8
0
  5
1385D
 10
320.000
 20
42.0000
 30
7.13701e-14
  70
    32
  0
VERTEX
  8
0
  5
1385E
 10
320.000
 20
42.0184
 30
7.13701e-14
  70
    32
  0
VERTEX
  8
0
  5
1385F
 10
320.000
 20
42.0368
 30
7.13700e-14
  70
    32
  0
VERTEX
  8
0
  5
13860
 10
319.999
 20
42.0552
 30
7.13699e-14
  70
    32
  0
VERTEX
  8
0
  5
13861
 10
319.998
 20
42.0736
 30
7.13698e-14
  70
    32
  0
VERTEX
  8
0
  5
13862
 10
319.997
 20
42.0920
 30
7.13696e-14
  70
    32
  0
VERTEX
  8
0
  5
13863
 10
319.996
 20
42.1103
 30
7.13694e-14
  70
    32
  0
VERTEX
  8
0
  5
13864
 10
319.995
 20
42.1287
 30
7.13691e-14
  70
    32
  0
VERTEX
  8
0
  5
13865
 10
319.993
 20
42.1470
 30
7.13688e-14
  70
    32
  0
VERTEX
  8
0
  5
13866
 10
319.992
 20
42.1653
 30
7.13685e-14
  70
    32
  0
VERTEX
  8
0
  5
13867
 10
319.990
 20
42.1836
 30
7.13681e-14
  70
    32
  0
VERTEX
  8
0
  5
13868
 10
319.988
 20
42.2019
 30
7.13677e-14
  70
    32
  0
VERTEX
  8
0
  5
13869
 10
319.985
 20
42.2201
 30
7.13672e-14
  70
    32
  0
VERTEX
  8
0
  5
1386A
 10
319.983
 20
42.2383
 30
7.13667e-14
  70
    32
  0
VERTEX
  8
0
  5
1386B
 10
319.980
 20
42.2564
 30
7.13661e-14
  70
    32
  0
VERTEX
  8
0
  5
1386C
 10
319.977
 20
42.2746
 30
7.13656e-14
  70
    32
  0
VERTEX
  8
0
  5
1386D
 10
319.974
 20
42.2926
 30
7.13649e-14
  70
    32
  0
VERTEX
  8
0
  5
1386E
 10
319.971
 20
42.3107
 30
7.13643e-14
  70
    32
  0
VERTEX
  8
0
  5
1386F
 10
319.967
 20
42.3287
 30
7.13636e-14
  70
    32
  0
VERTEX
  8
0
  5
13870
 10
319.963
 20
42.3466
 30
7.13628e-14
  70
    32
  0
VERTEX
  8
0
  5
13871
 10
319.960
 20
42.3645
 30
7.13620e-14
  70
    32
  0
VERTEX
  8
0
  5
13872
 10
319.955
 20
42.3823
 30
7.13612e-14
  70
    32
  0
VERTEX
  8
0
  5
13873
 10
319.951
 20
42.4001
 30
7.13603e-14
  70
    32
  0
VERTEX
  8
0
  5
13874
 10
319.947
 20
42.4178
 30
7.13594e-14
  70
    32
  0
VERTEX
  8
0
  5
13875
 10
319.942
 20
42.4354
 30
7.13585e-14
  70
    32
  0
VERTEX
  8
0
  5
13876
 10
319.937
 20
42.4530
 30
7.13575e-14
  70
    32
  0
VERTEX
  8
0
  5
13877
 10
319.932
 20
42.4705
 30
7.13565e-14
  70
    32
  0
VERTEX
  8
0
  5
13878
 10
319.927
 20
42.4880
 30
7.13554e-14
  70
    32
  0
VERTEX
  8
0
  5
13879
 10
319.921
 20
42.5053
 30
7.13543e-14
  70
    32
  0
VERTEX
  8
0
  5
1387A
 10
319.915
 20
42.5226
 30
7.13532e-14
  70
    32
  0
VERTEX
  8
0
  5
1387B
 10
319.909
 20
42.5398
 30
7.13520e-14
  70
    32
  0
VERTEX
  8
0
  5
1387C
 10
319.903
 20
42.5570
 30
7.13508e-14
  70
    32
  0
VERTEX
  8
0
  5
1387D
 10
319.897
 20
42.5740
 30
7.13496e-14
  70
    32
  0
VERTEX
  8
0
  5
1387E
 10
319.891
 20
42.5910
 30
7.13483e-14
  70
    32
  0
VERTEX
  8
0
  5
1387F
 10
319.884
 20
42.6079
 30
7.13469e-14
  70
    32
  0
VERTEX
  8
0
  5
13880
 10
319.877
 20
42.6246
 30
7.13456e-14
  70
    32
  0
VERTEX
  8
0
  5
13881
 10
319.870
 20
42.6413
 30
7.13442e-14
  70
    32
  0
VERTEX
  8
0
  5
13882
 10
319.863
 20
42.6579
 30
7.13428e-14
  70
    32
  0
VERTEX
  8
0
  5
13883
 10
319.856
 20
42.6744
 30
7.13413e-14
  70
    32
  0
VERTEX
  8
0
  5
13884
 10
319.848
 20
42.6908
 30
7.13398e-14
  70
    32
  0
VERTEX
  8
0
  5
13885
 10
319.841
 20
42.7071
 30
7.13382e-14
  70
    32
  0
VERTEX
  8
0
  5
13886
 10
319.833
 20
42.7233
 30
7.13366e-14
  70
    32
  0
VERTEX
  8
0
  5
13887
 10
319.825
 20
42.7393
 30
7.13350e-14
  70
    32
  0
VERTEX
  8
0
  5
13888
 10
319.816
 20
42.7553
 30
7.13334e-14
  70
    32
  0
VERTEX
  8
0
  5
13889
 10
319.808
 20
42.7712
 30
7.13317e-14
  70
    32
  0
VERTEX
  8
0
  5
1388A
 10
319.799
 20
42.7869
 30
7.13300e-14
  70
    32
  0
VERTEX
  8
0
  5
1388B
 10
319.790
 20
42.8025
 30
7.13282e-14
  70
    32
  0
VERTEX
  8
0
  5
1388C
 10
319.782
 20
42.8180
 30
7.13264e-14
  70
    32
  0
VERTEX
  8
0
  5
1388D
 10
319.772
 20
42.8334
 30
7.13246e-14
  70
    32
  0
VERTEX
  8
0
  5
1388E
 10
319.763
 20
42.8486
 30
7.13227e-14
  70
    32
  0
VERTEX
  8
0
  5
1388F
 10
319.754
 20
42.8637
 30
7.13208e-14
  70
    32
  0
VERTEX
  8
0
  5
13890
 10
319.744
 20
42.8787
 30
7.13189e-14
  70
    32
  0
VERTEX
  8
0
  5
13891
 10
319.734
 20
42.8935
 30
7.13170e-14
  70
    32
  0
VERTEX
  8
0
  5
13892
 10
319.724
 20
42.9083
 30
7.13150e-14
  70
    32
  0
VERTEX
  8
0
  5
13893
 10
319.714
 20
42.9228
 30
7.13129e-14
  70
    32
  0
VERTEX
  8
0
  5
13894
 10
319.704
 20
42.9373
 30
7.13109e-14
  70
    32
  0
VERTEX
  8
0
  5
13895
 10
319.693
 20
42.9516
 30
7.13088e-14
  70
    32
  0
VERTEX
  8
0
  5
13896
 10
319.683
 20
42.9657
 30
7.13067e-14
  70
    32
  0
VERTEX
  8
0
  5
13897
 10
319.672
 20
42.9798
 30
7.13045e-14
  70
    32
  0
VERTEX
  8
0
  5
13898
 10
319.661
 20
42.9936
 30
7.13024e-14
  70
    32
  0
VERTEX
  8
0
  5
13899
 10
319.650
 20
43.0073
 30
7.13001e-14
  70
    32
  0
VERTEX
  8
0
  5
1389A
 10
319.639
 20
43.0209
 30
7.12979e-14
  70
    32
  0
VERTEX
  8
0
  5
1389B
 10
319.628
 20
43.0343
 30
7.12956e-14
  70
    32
  0
VERTEX
  8
0
  5
1389C
 10
319.616
 20
43.0476
 30
7.12933e-14
  70
    32
  0
VERTEX
  8
0
  5
1389D
 10
319.604
 20
43.0607
 30
7.12910e-14
  70
    32
  0
VERTEX
  8
0
  5
1389E
 10
319.593
 20
43.0736
 30
7.12886e-14
  70
    32
  0
VERTEX
  8
0
  5
1389F
 10
319.581
 20
43.0864
 30
7.12863e-14
  70
    32
  0
VERTEX
  8
0
  5
138A0
 10
319.569
 20
43.0990
 30
7.12838e-14
  70
    32
  0
VERTEX
  8
0
  5
138A1
 10
319.556
 20
43.1114
 30
7.12814e-14
  70
    32
  0
VERTEX
  8
0
  5
138A2
 10
319.544
 20
43.1237
 30
7.12789e-14
  70
    32
  0
VERTEX
  8
0
  5
138A3
 10
319.532
 20
43.1358
 30
7.12764e-14
  70
    32
  0
VERTEX
  8
0
  5
138A4
 10
319.519
 20
43.1478
 30
7.12739e-14
  70
    32
  0
VERTEX
  8
0
  5
138A5
 10
319.506
 20
43.1595
 30
7.12714e-14
  70
    32
  0
VERTEX
  8
0
  5
138A6
 10
319.493
 20
43.1711
 30
7.12688e-14
  70
    32
  0
VERTEX
  8
0
  5
138A7
 10
319.480
 20
43.1825
 30
7.12662e-14
  70
    32
  0
VERTEX
  8
0
  5
138A8
 10
319.467
 20
43.1938
 30
7.12636e-14
  70
    32
  0
VERTEX
  8
0
  5
138A9
 10
319.454
 20
43.2048
 30
7.12609e-14
  70
    32
  0
VERTEX
  8
0
  5
138AA
 10
319.441
 20
43.2157
 30
7.12582e-14
  70
    32
  0
VERTEX
  8
0
  5
138AB
 10
319.427
 20
43.2264
 30
7.12555e-14
  70
    32
  0
VERTEX
  8
0
  5
138AC
 10
319.413
 20
43.2369
 30
7.12528e-14
  70
    32
  0
VERTEX
  8
0
  5
138AD
 10
319.400
 20
43.2472
 30
7.12501e-14
  70
    32
  0
VERTEX
  8
0
  5
138AE
 10
319.386
 20
43.2573
 30
7.12473e-14
  70
    32
  0
VERTEX
  8
0
  5
138AF
 10
319.372
 20
43.2673
 30
7.12445e-14
  70
    32
  0
VERTEX
  8
0
  5
138B0
 10
319.358
 20
43.2770
 30
7.12417e-14
  70
    32
  0
VERTEX
  8
0
  5
138B1
 10
319.344
 20
43.2866
 30
7.12389e-14
  70
    32
  0
VERTEX
  8
0
  5
138B2
 10
319.329
 20
43.2960
 30
7.12360e-14
  70
    32
  0
VERTEX
  8
0
  5
138B3
 10
319.315
 20
43.3051
 30
7.12331e-14
  70
    32
  0
VERTEX
  8
0
  5
138B4
 10
319.301
 20
43.3141
 30
7.12302e-14
  70
    32
  0
VERTEX
  8
0
  5
138B5
 10
319.286
 20
43.3229
 30
7.12273e-14
  70
    32
  0
VERTEX
  8
0
  5
138B6
 10
319.271
 20
43.3315
 30
7.12244e-14
  70
    32
  0
VERTEX
  8
0
  5
138B7
 10
319.257
 20
43.3398
 30
7.12214e-14
  70
    32
  0
VERTEX
  8
0
  5
138B8
 10
319.242
 20
43.3480
 30
7.12185e-14
  70
    32
  0
VERTEX
  8
0
  5
138B9
 10
319.227
 20
43.3560
 30
7.12155e-14
  70
    32
  0
VERTEX
  8
0
  5
138BA
 10
319.212
 20
43.3638
 30
7.12125e-14
  70
    32
  0
VERTEX
  8
0
  5
138BB
 10
319.197
 20
43.3713
 30
7.12095e-14
  70
    32
  0
VERTEX
  8
0
  5
138BC
 10
319.182
 20
43.3787
 30
7.12064e-14
  70
    32
  0
VERTEX
  8
0
  5
138BD
 10
319.166
 20
43.3858
 30
7.12034e-14
  70
    32
  0
VERTEX
  8
0
  5
138BE
 10
319.151
 20
43.3928
 30
7.12003e-14
  70
    32
  0
VERTEX
  8
0
  5
138BF
 10
319.135
 20
43.3995
 30
7.11972e-14
  70
    32
  0
VERTEX
  8
0
  5
138C0
 10
319.120
 20
43.4060
 30
7.11941e-14
  70
    32
  0
VERTEX
  8
0
  5
138C1
 10
319.104
 20
43.4123
 30
7.11910e-14
  70
    32
  0
VERTEX
  8
0
  5
138C2
 10
319.089
 20
43.4184
 30
7.11879e-14
  70
    32
  0
VERTEX
  8
0
  5
138C3
 10
319.073
 20
43.4243
 30
7.11847e-14
  70
    32
  0
VERTEX
  8
0
  5
138C4
 10
319.057
 20
43.4300
 30
7.11816e-14
  70
    32
  0
VERTEX
  8
0
  5
138C5
 10
319.041
 20
43.4354
 30
7.11784e-14
  70
    32
  0
VERTEX
  8
0
  5
138C6
 10
319.026
 20
43.4406
 30
7.11752e-14
  70
    32
  0
VERTEX
  8
0
  5
138C7
 10
319.010
 20
43.4457
 30
7.11720e-14
  70
    32
  0
VERTEX
  8
0
  5
138C8
 10
318.994
 20
43.4505
 30
7.11688e-14
  70
    32
  0
VERTEX
  8
0
  5
138C9
 10
318.978
 20
43.4550
 30
7.11656e-14
  70
    32
  0
VERTEX
  8
0
  5
138CA
 10
318.961
 20
43.4594
 30
7.11624e-14
  70
    32
  0
VERTEX
  8
0
  5
138CB
 10
318.945
 20
43.4636
 30
7.11592e-14
  70
    32
  0
VERTEX
  8
0
  5
138CC
 10
318.929
 20
43.4675
 30
7.11559e-14
  70
    32
  0
VERTEX
  8
0
  5
138CD
 10
318.913
 20
43.4712
 30
7.11527e-14
  70
    32
  0
VERTEX
  8
0
  5
138CE
 10
318.897
 20
43.4747
 30
7.11494e-14
  70
    32
  0
VERTEX
  8
0
  5
138CF
 10
318.880
 20
43.4779
 30
7.11462e-14
  70
    32
  0
VERTEX
  8
0
  5
138D0
 10
318.864
 20
43.4810
 30
7.11429e-14
  70
    32
  0
VERTEX
  8
0
  5
138D1
 10
318.848
 20
43.4838
 30
7.11396e-14
  70
    32
  0
VERTEX
  8
0
  5
138D2
 10
318.831
 20
43.4864
 30
7.11364e-14
  70
    32
  0
VERTEX
  8
0
  5
138D3
 10
318.815
 20
43.4887
 30
7.11331e-14
  70
    32
  0
VERTEX
  8
0
  5
138D4
 10
318.798
 20
43.4909
 30
7.11298e-14
  70
    32
  0
VERTEX
  8
0
  5
138D5
 10
318.782
 20
43.4928
 30
7.11265e-14
  70
    32
  0
VERTEX
  8
0
  5
138D6
 10
318.765
 20
43.4945
 30
7.11232e-14
  70
    32
  0
VERTEX
  8
0
  5
138D7
 10
318.749
 20
43.4959
 30
7.11199e-14
  70
    32
  0
VERTEX
  8
0
  5
138D8
 10
318.732
 20
43.4972
 30
7.11166e-14
  70
    32
  0
VERTEX
  8
0
  5
138D9
 10
318.716
 20
43.4982
 30
7.11133e-14
  70
    32
  0
VERTEX
  8
0
  5
138DA
 10
318.699
 20
43.4990
 30
7.11099e-14
  70
    32
  0
VERTEX
  8
0
  5
138DB
 10
318.683
 20
43.4995
 30
7.11066e-14
  70
    32
  0
VERTEX
  8
0
  5
138DC
 10
318.666
 20
43.4999
 30
7.11033e-14
  70
    32
  0
VERTEX
  8
0
  5
138DD
 10
318.649
 20
43.5000
 30
7.11000e-14
  70
    32
  0
SEQEND
  8
0
  5
138DE
  0
LINE
  5
13702
  8
0
  6
CONTINUOUS
 62
     3
 10
320.0000000000002274
 20
44.5980762113532592
 30
0.0000000000000711
 11
320.0000000000002274
 21
41.9999999999999574
 31
0.0000000000000711
  0
POLYLINE
  5
13703
  8
0
  6
CONTINUOUS
 62
     3
 10
318.6493939335533128
 20
44.9999999999999432
 30
0.0000000000000711
 66
     1
 70
     8
  0
VERTEX
  8
0
  5
138DF
 10
318.649
 20
45.0000
 30
7.11000e-14
  70
    32
  0
VERTEX
  8
0
  5
138E0
 10
318.660
 20
45.0000
 30
7.11022e-14
  70
    32
  0
VERTEX
  8
0
  5
138E1
 10
318.671
 20
44.9999
 30
7.11044e-14
  70
    32
  0
VERTEX
  8
0
  5
138E2
 10
318.683
 20
44.9998
 30
7.11066e-14
  70
    32
  0
VERTEX
  8
0
  5
138E3
 10
318.694
 20
44.9996
 30
7.11088e-14
  70
    32
  0
VERTEX
  8
0
  5
138E4
 10
318.705
 20
44.9994
 30
7.11110e-14
  70
    32
  0
VERTEX
  8
0
  5
138E5
 10
318.716
 20
44.9991
 30
7.11133e-14
  70
    32
  0
VERTEX
  8
0
  5
138E6
 10
318.727
 20
44.9988
 30
7.11155e-14
  70
    32
  0
VERTEX
  8
0
  5
138E7
 10
318.738
 20
44.9984
 30
7.11177e-14
  70
    32
  0
VERTEX
  8
0
  5
138E8
 10
318.749
 20
44.9980
 30
7.11199e-14
  70
    32
  0
VERTEX
  8
0
  5
138E9
 10
318.760
 20
44.9975
 30
7.11221e-14
  70
    32
  0
VERTEX
  8
0
  5
138EA
 10
318.771
 20
44.9970
 30
7.11243e-14
  70
    32
  0
VERTEX
  8
0
  5
138EB
 10
318.782
 20
44.9964
 30
7.11265e-14
  70
    32
  0
VERTEX
  8
0
  5
138EC
 10
318.793
 20
44.9958
 30
7.11287e-14
  70
    32
  0
VERTEX
  8
0
  5
138ED
 10
318.804
 20
44.9951
 30
7.11309e-14
  70
    32
  0
VERTEX
  8
0
  5
138EE
 10
318.815
 20
44.9944
 30
7.11331e-14
  70
    32
  0
VERTEX
  8
0
  5
138EF
 10
318.826
 20
44.9936
 30
7.11353e-14
  70
    32
  0
VERTEX
  8
0
  5
138F0
 10
318.837
 20
44.9927
 30
7.11375e-14
  70
    32
  0
VERTEX
  8
0
  5
138F1
 10
318.848
 20
44.9919
 30
7.11397e-14
  70
    32
  0
VERTEX
  8
0
  5
138F2
 10
318.859
 20
44.9909
 30
7.11419e-14
  70
    32
  0
VERTEX
  8
0
  5
138F3
 10
318.870
 20
44.9900
 30
7.11441e-14
  70
    32
  0
VERTEX
  8
0
  5
138F4
 10
318.881
 20
44.9889
 30
7.11464e-14
  70
    32
  0
VERTEX
  8
0
  5
138F5
 10
318.892
 20
44.9879
 30
7.11486e-14
  70
    32
  0
VERTEX
  8
0
  5
138F6
 10
318.903
 20
44.9867
 30
7.11508e-14
  70
    32
  0
VERTEX
  8
0
  5
138F7
 10
318.914
 20
44.9856
 30
7.11530e-14
  70
    32
  0
VERTEX
  8
0
  5
138F8
 10
318.925
 20
44.9843
 30
7.11552e-14
  70
    32
  0
VERTEX
  8
0
  5
138F9
 10
318.936
 20
44.9830
 30
7.11573e-14
  70
    32
  0
VERTEX
  8
0
  5
138FA
 10
318.947
 20
44.9817
 30
7.11595e-14
  70
    32
  0
VERTEX
  8
0
  5
138FB
 10
318.958
 20
44.9803
 30
7.11617e-14
  70
    32
  0
VERTEX
  8
0
  5
138FC
 10
318.969
 20
44.9789
 30
7.11639e-14
  70
    32
  0
VERTEX
  8
0
  5
138FD
 10
318.980
 20
44.9774
 30
7.11661e-14
  70
    32
  0
VERTEX
  8
0
  5
138FE
 10
318.991
 20
44.9759
 30
7.11683e-14
  70
    32
  0
VERTEX
  8
0
  5
138FF
 10
319.002
 20
44.9743
 30
7.11705e-14
  70
    32
  0
VERTEX
  8
0
  5
13900
 10
319.013
 20
44.9727
 30
7.11727e-14
  70
    32
  0
VERTEX
  8
0
  5
13901
 10
319.024
 20
44.9710
 30
7.11749e-14
  70
    32
  0
VERTEX
  8
0
  5
13902
 10
319.035
 20
44.9693
 30
7.11771e-14
  70
    32
  0
VERTEX
  8
0
  5
13903
 10
319.046
 20
44.9675
 30
7.11793e-14
  70
    32
  0
VERTEX
  8
0
  5
13904
 10
319.057
 20
44.9657
 30
7.11815e-14
  70
    32
  0
VERTEX
  8
0
  5
13905
 10
319.068
 20
44.9638
 30
7.11836e-14
  70
    32
  0
VERTEX
  8
0
  5
13906
 10
319.079
 20
44.9619
 30
7.11858e-14
  70
    32
  0
VERTEX
  8
0
  5
13907
 10
319.089
 20
44.9599
 30
7.11880e-14
  70
    32
  0
VERTEX
  8
0
  5
13908
 10
319.100
 20
44.9579
 30
7.11902e-14
  70
    32
  0
VERTEX
  8
0
  5
13909
 10
319.111
 20
44.9558
 30
7.11924e-14
  70
    32
  0
VERTEX
  8
0
  5
1390A
 10
319.122
 20
44.9537
 30
7.11945e-14
  70
    32
  0
VERTEX
  8
0
  5
1390B
 10
319.133
 20
44.9515
 30
7.11967e-14
  70
    32
  0
VERTEX
  8
0
  5
1390C
 10
319.144
 20
44.9493
 30
7.11989e-14
  70
    32
  0
VERTEX
  8
0
  5
1390D
 10
319.155
 20
44.9470
 30
7.12011e-14
  70
    32
  0
VERTEX
  8
0
  5
1390E
 10
319.166
 20
44.9447
 30
7.12032e-14
  70
    32
  0
VERTEX
  8
0
  5
1390F
 10
319.176
 20
44.9424
 30
7.12054e-14
  70
    32
  0
VERTEX
  8
0
  5
13910
 10
319.187
 20
44.9399
 30
7.12076e-14
  70
    32
  0
VERTEX
  8
0
  5
13911
 10
319.198
 20
44.9375
 30
7.12097e-14
  70
    32
  0
VERTEX
  8
0
  5
13912
 10
319.209
 20
44.9350
 30
7.12119e-14
  70
    32
  0
VERTEX
  8
0
  5
13913
 10
319.220
 20
44.9324
 30
7.12141e-14
  70
    32
  0
VERTEX
  8
0
  5
13914
 10
319.230
 20
44.9298
 30
7.12162e-14
  70
    32
  0
VERTEX
  8
0
  5
13915
 10
319.241
 20
44.9271
 30
7.12184e-14
  70
    32
  0
VERTEX
  8
0
  5
13916
 10
319.252
 20
44.9244
 30
7.12205e-14
  70
    32
  0
VERTEX
  8
0
  5
13917
 10
319.263
 20
44.9216
 30
7.12227e-14
  70
    32
  0
VERTEX
  8
0
  5
13918
 10
319.274
 20
44.9188
 30
7.12248e-14
  70
    32
  0
VERTEX
  8
0
  5
13919
 10
319.284
 20
44.9160
 30
7.12270e-14
  70
    32
  0
VERTEX
  8
0
  5
1391A
 10
319.295
 20
44.9131
 30
7.12291e-14
  70
    32
  0
VERTEX
  8
0
  5
1391B
 10
319.306
 20
44.9101
 30
7.12313e-14
  70
    32
  0
VERTEX
  8
0
  5
1391C
 10
319.316
 20
44.9071
 30
7.12334e-14
  70
    32
  0
VERTEX
  8
0
  5
1391D
 10
319.327
 20
44.9040
 30
7.12356e-14
  70
    32
  0
VERTEX
  8
0
  5
1391E
 10
319.338
 20
44.9009
 30
7.12377e-14
  70
    32
  0
VERTEX
  8
0
  5
1391F
 10
319.349
 20
44.8978
 30
7.12398e-14
  70
    32
  0
VERTEX
  8
0
  5
13920
 10
319.359
 20
44.8946
 30
7.12420e-14
  70
    32
  0
VERTEX
  8
0
  5
13921
 10
319.370
 20
44.8913
 30
7.12441e-14
  70
    32
  0
VERTEX
  8
0
  5
13922
 10
319.380
 20
44.8880
 30
7.12462e-14
  70
    32
  0
VERTEX
  8
0
  5
13923
 10
319.391
 20
44.8847
 30
7.12483e-14
  70
    32
  0
VERTEX
  8
0
  5
13924
 10
319.402
 20
44.8813
 30
7.12505e-14
  70
    32
  0
VERTEX
  8
0
  5
13925
 10
319.412
 20
44.8778
 30
7.12526e-14
  70
    32
  0
VERTEX
  8
0
  5
13926
 10
319.423
 20
44.8744
 30
7.12547e-14
  70
    32
  0
VERTEX
  8
0
  5
13927
 10
319.434
 20
44.8708
 30
7.12568e-14
  70
    32
  0
VERTEX
  8
0
  5
13928
 10
319.444
 20
44.8672
 30
7.12589e-14
  70
    32
  0
VERTEX
  8
0
  5
13929
 10
319.455
 20
44.8636
 30
7.12610e-14
  70
    32
  0
VERTEX
  8
0
  5
1392A
 10
319.465
 20
44.8599
 30
7.12632e-14
  70
    32
  0
VERTEX
  8
0
  5
1392B
 10
319.476
 20
44.8562
 30
7.12653e-14
  70
    32
  0
VERTEX
  8
0
  5
1392C
 10
319.486
 20
44.8524
 30
7.12674e-14
  70
    32
  0
VERTEX
  8
0
  5
1392D
 10
319.497
 20
44.8486
 30
7.12695e-14
  70
    32
  0
VERTEX
  8
0
  5
1392E
 10
319.507
 20
44.8447
 30
7.12716e-14
  70
    32
  0
VERTEX
  8
0
  5
1392F
 10
319.518
 20
44.8408
 30
7.12737e-14
  70
    32
  0
VERTEX
  8
0
  5
13930
 10
319.528
 20
44.8368
 30
7.12757e-14
  70
    32
  0
VERTEX
  8
0
  5
13931
 10
319.539
 20
44.8328
 30
7.12778e-14
  70
    32
  0
VERTEX
  8
0
  5
13932
 10
319.549
 20
44.8287
 30
7.12799e-14
  70
    32
  0
VERTEX
  8
0
  5
13933
 10
319.559
 20
44.8246
 30
7.12820e-14
  70
    32
  0
VERTEX
  8
0
  5
13934
 10
319.570
 20
44.8205
 30
7.12841e-14
  70
    32
  0
VERTEX
  8
0
  5
13935
 10
319.580
 20
44.8163
 30
7.12862e-14
  70
    32
  0
VERTEX
  8
0
  5
13936
 10
319.591
 20
44.8120
 30
7.12882e-14
  70
    32
  0
VERTEX
  8
0
  5
13937
 10
319.601
 20
44.8077
 30
7.12903e-14
  70
    32
  0
VERTEX
  8
0
  5
13938
 10
319.611
 20
44.8034
 30
7.12924e-14
  70
    32
  0
VERTEX
  8
0
  5
13939
 10
319.622
 20
44.7990
 30
7.12944e-14
  70
    32
  0
VERTEX
  8
0
  5
1393A
 10
319.632
 20
44.7945
 30
7.12965e-14
  70
    32
  0
VERTEX
  8
0
  5
1393B
 10
319.642
 20
44.7901
 30
7.12985e-14
  70
    32
  0
VERTEX
  8
0
  5
1393C
 10
319.652
 20
44.7855
 30
7.13006e-14
  70
    32
  0
VERTEX
  8
0
  5
1393D
 10
319.663
 20
44.7809
 30
7.13027e-14
  70
    32
  0
VERTEX
  8
0
  5
1393E
 10
319.673
 20
44.7763
 30
7.13047e-14
  70
    32
  0
VERTEX
  8
0
  5
1393F
 10
319.683
 20
44.7716
 30
7.13067e-14
  70
    32
  0
VERTEX
  8
0
  5
13940
 10
319.693
 20
44.7669
 30
7.13088e-14
  70
    32
  0
VERTEX
  8
0
  5
13941
 10
319.703
 20
44.7622
 30
7.13108e-14
  70
    32
  0
VERTEX
  8
0
  5
13942
 10
319.714
 20
44.7573
 30
7.13129e-14
  70
    32
  0
VERTEX
  8
0
  5
13943
 10
319.724
 20
44.7525
 30
7.13149e-14
  70
    32
  0
VERTEX
  8
0
  5
13944
 10
319.734
 20
44.7476
 30
7.13169e-14
  70
    32
  0
VERTEX
  8
0
  5
13945
 10
319.744
 20
44.7426
 30
7.13189e-14
  70
    32
  0
VERTEX
  8
0
  5
13946
 10
319.754
 20
44.7376
 30
7.13209e-14
  70
    32
  0
VERTEX
  8
0
  5
13947
 10
319.764
 20
44.7326
 30
7.13230e-14
  70
    32
  0
VERTEX
  8
0
  5
13948
 10
319.774
 20
44.7275
 30
7.13250e-14
  70
    32
  0
VERTEX
  8
0
  5
13949
 10
319.784
 20
44.7224
 30
7.13270e-14
  70
    32
  0
VERTEX
  8
0
  5
1394A
 10
319.794
 20
44.7172
 30
7.13290e-14
  70
    32
  0
VERTEX
  8
0
  5
1394B
 10
319.804
 20
44.7120
 30
7.13310e-14
  70
    32
  0
VERTEX
  8
0
  5
1394C
 10
319.814
 20
44.7067
 30
7.13330e-14
  70
    32
  0
VERTEX
  8
0
  5
1394D
 10
319.824
 20
44.7014
 30
7.13350e-14
  70
    32
  0
VERTEX
  8
0
  5
1394E
 10
319.834
 20
44.6960
 30
7.13370e-14
  70
    32
  0
VERTEX
  8
0
  5
1394F
 10
319.844
 20
44.6906
 30
7.13389e-14
  70
    32
  0
VERTEX
  8
0
  5
13950
 10
319.854
 20
44.6852
 30
7.13409e-14
  70
    32
  0
VERTEX
  8
0
  5
13951
 10
319.864
 20
44.6797
 30
7.13429e-14
  70
    32
  0
VERTEX
  8
0
  5
13952
 10
319.874
 20
44.6741
 30
7.13449e-14
  70
    32
  0
VERTEX
  8
0
  5
13953
 10
319.884
 20
44.6685
 30
7.13468e-14
  70
    32
  0
VERTEX
  8
0
  5
13954
 10
319.893
 20
44.6629
 30
7.13488e-14
  70
    32
  0
VERTEX
  8
0
  5
13955
 10
319.903
 20
44.6572
 30
7.13508e-14
  70
    32
  0
VERTEX
  8
0
  5
13956
 10
319.913
 20
44.6515
 30
7.13527e-14
  70
    32
  0
VERTEX
  8
0
  5
13957
 10
319.923
 20
44.6458
 30
7.13547e-14
  70
    32
  0
VERTEX
  8
0
  5
13958
 10
319.932
 20
44.6400
 30
7.13566e-14
  70
    32
  0
VERTEX
  8
0
  5
13959
 10
319.942
 20
44.6341
 30
7.13586e-14
  70
    32
  0
VERTEX
  8
0
  5
1395A
 10
319.952
 20
44.6282
 30
7.13605e-14
  70
    32
  0
VERTEX
  8
0
  5
1395B
 10
319.962
 20
44.6223
 30
7.13624e-14
  70
    32
  0
VERTEX
  8
0
  5
1395C
 10
319.971
 20
44.6163
 30
7.13644e-14
  70
    32
  0
VERTEX
  8
0
  5
1395D
 10
319.981
 20
44.6103
 30
7.13663e-14
  70
    32
  0
VERTEX
  8
0
  5
1395E
 10
319.990
 20
44.6042
 30
7.13682e-14
  70
    32
  0
VERTEX
  8
0
  5
1395F
 10
320.000
 20
44.5981
 30
7.13701e-14
  70
    32
  0
SEQEND
  8
0
  5
13960
  0
LINE
  5
13704
  8
0
  6
CONTINUOUS
 62
     3
 10
318.6493939335533128
 20
-45.0000000000000426
 30
0.0000000000000711
 11
282.1833398282200847
 21
-45.0000000000000995
 31
0.0000000000000639
  0
POLYLINE
  5
13705
  8
0
  6
CONTINUOUS
 62
     3
 10
320.0000000000000568
 20
-44.5980762113533515
 30
0.0000000000000714
 66
     1
 70
     8
  0
VERTEX
  8
0
  5
13961
 10
320.000
 20
-44.5981
 30
7.13701e-14
  70
    32
  0
VERTEX
  8
0
  5
13962
 10
319.990
 20
-44.6042
 30
7.13682e-14
  70
    32
  0
VERTEX
  8
0
  5
13963
 10
319.981
 20
-44.6103
 30
7.13663e-14
  70
    32
  0
VERTEX
  8
0
  5
13964
 10
319.971
 20
-44.6163
 30
7.13644e-14
  70
    32
  0
VERTEX
  8
0
  5
13965
 10
319.962
 20
-44.6223
 30
7.13624e-14
  70
    32
  0
VERTEX
  8
0
  5
13966
 10
319.952
 20
-44.6282
 30
7.13605e-14
  70
    32
  0
VERTEX
  8
0
  5
13967
 10
319.942
 20
-44.6341
 30
7.13586e-14
  70
    32
  0
VERTEX
  8
0
  5
13968
 10
319.932
 20
-44.6400
 30
7.13566e-14
  70
    32
  0
VERTEX
  8
0
  5
13969
 10
319.923
 20
-44.6458
 30
7.13547e-14
  70
    32
  0
VERTEX
  8
0
  5
1396A
 10
319.913
 20
-44.6515
 30
7.13527e-14
  70
    32
  0
VERTEX
  8
0
  5
1396B
 10
319.903
 20
-44.6572
 30
7.13508e-14
  70
    32
  0
VERTEX
  8
0
  5
1396C
 10
319.893
 20
-44.6629
 30
7.13488e-14
  70
    32
  0
VERTEX
  8
0
  5
1396D
 10
319.884
 20
-44.6685
 30
7.13468e-14
  70
    32
  0
VERTEX
  8
0
  5
1396E
 10
319.874
 20
-44.6741
 30
7.13449e-14
  70
    32
  0
VERTEX
  8
0
  5
1396F
 10
319.864
 20
-44.6797
 30
7.13429e-14
  70
    32
  0
VERTEX
  8
0
  5
13970
 10
319.854
 20
-44.6852
 30
7.13409e-14
  70
    32
  0
VERTEX
  8
0
  5
13971
 10
319.844
 20
-44.6906
 30
7.13389e-14
  70
    32
  0
VERTEX
  8
0
  5
13972
 10
319.834
 20
-44.6960
 30
7.13370e-14
  70
    32
  0
VERTEX
  8
0
  5
13973
 10
319.824
 20
-44.7014
 30
7.13350e-14
  70
    32
  0
VERTEX
  8
0
  5
13974
 10
319.814
 20
-44.7067
 30
7.13330e-14
  70
    32
  0
VERTEX
  8
0
  5
13975
 10
319.804
 20
-44.7120
 30
7.13310e-14
  70
    32
  0
VERTEX
  8
0
  5
13976
 10
319.794
 20
-44.7172
 30
7.13290e-14
  70
    32
  0
VERTEX
  8
0
  5
13977
 10
319.784
 20
-44.7224
 30
7.13270e-14
  70
    32
  0
VERTEX
  8
0
  5
13978
 10
319.774
 20
-44.7275
 30
7.13250e-14
  70
    32
  0
VERTEX
  8
0
  5
13979
 10
319.764
 20
-44.7326
 30
7.13230e-14
  70
    32
  0
VERTEX
  8
0
  5
1397A
 10
319.754
 20
-44.7376
 30
7.13209e-14
  70
    32
  0
VERTEX
  8
0
  5
1397B
 10
319.744
 20
-44.7426
 30
7.13189e-14
  70
    32
  0
VERTEX
  8
0
  5
1397C
 10
319.734
 20
-44.7476
 30
7.13169e-14
  70
    32
  0
VERTEX
  8
0
  5
1397D
 10
319.724
 20
-44.7525
 30
7.13149e-14
  70
    32
  0
VERTEX
  8
0
  5
1397E
 10
319.714
 20
-44.7573
 30
7.13129e-14
  70
    32
  0
VERTEX
  8
0
  5
1397F
 10
319.703
 20
-44.7622
 30
7.13108e-14
  70
    32
  0
VERTEX
  8
0
  5
13980
 10
319.693
 20
-44.7669
 30
7.13088e-14
  70
    32
  0
VERTEX
  8
0
  5
13981
 10
319.683
 20
-44.7716
 30
7.13067e-14
  70
    32
  0
VERTEX
  8
0
  5
13982
 10
319.673
 20
-44.7763
 30
7.13047e-14
  70
    32
  0
VERTEX
  8
0
  5
13983
 10
319.663
 20
-44.7809
 30
7.13027e-14
  70
    32
  0
VERTEX
  8
0
  5
13984
 10
319.652
 20
-44.7855
 30
7.13006e-14
  70
    32
  0
VERTEX
  8
0
  5
13985
 10
319.642
 20
-44.7901
 30
7.12985e-14
  70
    32
  0
VERTEX
  8
0
  5
13986
 10
319.632
 20
-44.7945
 30
7.12965e-14
  70
    32
  0
VERTEX
  8
0
  5
13987
 10
319.622
 20
-44.7990
 30
7.12944e-14
  70
    32
  0
VERTEX
  8
0
  5
13988
 10
319.611
 20
-44.8034
 30
7.12924e-14
  70
    32
  0
VERTEX
  8
0
  5
13989
 10
319.601
 20
-44.8077
 30
7.12903e-14
  70
    32
  0
VERTEX
  8
0
  5
1398A
 10
319.591
 20
-44.8120
 30
7.12882e-14
  70
    32
  0
VERTEX
  8
0
  5
1398B
 10
319.580
 20
-44.8163
 30
7.12862e-14
  70
    32
  0
VERTEX
  8
0
  5
1398C
 10
319.570
 20
-44.8205
 30
7.12841e-14
  70
    32
  0
VERTEX
  8
0
  5
1398D
 10
319.559
 20
-44.8246
 30
7.12820e-14
  70
    32
  0
VERTEX
  8
0
  5
1398E
 10
319.549
 20
-44.8287
 30
7.12799e-14
  70
    32
  0
VERTEX
  8
0
  5
1398F
 10
319.539
 20
-44.8328
 30
7.12778e-14
  70
    32
  0
VERTEX
  8
0
  5
13990
 10
319.528
 20
-44.8368
 30
7.12757e-14
  70
    32
  0
VERTEX
  8
0
  5
13991
 10
319.518
 20
-44.8408
 30
7.12737e-14
  70
    32
  0
VERTEX
  8
0
  5
13992
 10
319.507
 20
-44.8447
 30
7.12716e-14
  70
    32
  0
VERTEX
  8
0
  5
13993
 10
319.497
 20
-44.8486
 30
7.12695e-14
  70
    32
  0
VERTEX
  8
0
  5
13994
 10
319.486
 20
-44.8524
 30
7.12674e-14
  70
    32
  0
VERTEX
  8
0
  5
13995
 10
319.476
 20
-44.8562
 30
7.12653e-14
  70
    32
  0
VERTEX
  8
0
  5
13996
 10
319.465
 20
-44.8599
 30
7.12632e-14
  70
    32
  0
VERTEX
  8
0
  5
13997
 10
319.455
 20
-44.8636
 30
7.12610e-14
  70
    32
  0
VERTEX
  8
0
  5
13998
 10
319.444
 20
-44.8672
 30
7.12589e-14
  70
    32
  0
VERTEX
  8
0
  5
13999
 10
319.434
 20
-44.8708
 30
7.12568e-14
  70
    32
  0
VERTEX
  8
0
  5
1399A
 10
319.423
 20
-44.8744
 30
7.12547e-14
  70
    32
  0
VERTEX
  8
0
  5
1399B
 10
319.412
 20
-44.8778
 30
7.12526e-14
  70
    32
  0
VERTEX
  8
0
  5
1399C
 10
319.402
 20
-44.8813
 30
7.12505e-14
  70
    32
  0
VERTEX
  8
0
  5
1399D
 10
319.391
 20
-44.8847
 30
7.12483e-14
  70
    32
  0
VERTEX
  8
0
  5
1399E
 10
319.380
 20
-44.8880
 30
7.12462e-14
  70
    32
  0
VERTEX
  8
0
  5
1399F
 10
319.370
 20
-44.8913
 30
7.12441e-14
  70
    32
  0
VERTEX
  8
0
  5
139A0
 10
319.359
 20
-44.8946
 30
7.12420e-14
  70
    32
  0
VERTEX
  8
0
  5
139A1
 10
319.349
 20
-44.8978
 30
7.12398e-14
  70
    32
  0
VERTEX
  8
0
  5
139A2
 10
319.338
 20
-44.9009
 30
7.12377e-14
  70
    32
  0
VERTEX
  8
0
  5
139A3
 10
319.327
 20
-44.9040
 30
7.12356e-14
  70
    32
  0
VERTEX
  8
0
  5
139A4
 10
319.316
 20
-44.9071
 30
7.12334e-14
  70
    32
  0
VERTEX
  8
0
  5
139A5
 10
319.306
 20
-44.9101
 30
7.12313e-14
  70
    32
  0
VERTEX
  8
0
  5
139A6
 10
319.295
 20
-44.9131
 30
7.12291e-14
  70
    32
  0
VERTEX
  8
0
  5
139A7
 10
319.284
 20
-44.9160
 30
7.12270e-14
  70
    32
  0
VERTEX
  8
0
  5
139A8
 10
319.274
 20
-44.9188
 30
7.12248e-14
  70
    32
  0
VERTEX
  8
0
  5
139A9
 10
319.263
 20
-44.9216
 30
7.12227e-14
  70
    32
  0
VERTEX
  8
0
  5
139AA
 10
319.252
 20
-44.9244
 30
7.12205e-14
  70
    32
  0
VERTEX
  8
0
  5
139AB
 10
319.241
 20
-44.9271
 30
7.12184e-14
  70
    32
  0
VERTEX
  8
0
  5
139AC
 10
319.230
 20
-44.9298
 30
7.12162e-14
  70
    32
  0
VERTEX
  8
0
  5
139AD
 10
319.220
 20
-44.9324
 30
7.12141e-14
  70
    32
  0
VERTEX
  8
0
  5
139AE
 10
319.209
 20
-44.9350
 30
7.12119e-14
  70
    32
  0
VERTEX
  8
0
  5
139AF
 10
319.198
 20
-44.9375
 30
7.12097e-14
  70
    32
  0
VERTEX
  8
0
  5
139B0
 10
319.187
 20
-44.9399
 30
7.12076e-14
  70
    32
  0
VERTEX
  8
0
  5
139B1
 10
319.176
 20
-44.9424
 30
7.12054e-14
  70
    32
  0
VERTEX
  8
0
  5
139B2
 10
319.166
 20
-44.9447
 30
7.12032e-14
  70
    32
  0
VERTEX
  8
0
  5
139B3
 10
319.155
 20
-44.9470
 30
7.12011e-14
  70
    32
  0
VERTEX
  8
0
  5
139B4
 10
319.144
 20
-44.9493
 30
7.11989e-14
  70
    32
  0
VERTEX
  8
0
  5
139B5
 10
319.133
 20
-44.9515
 30
7.11967e-14
  70
    32
  0
VERTEX
  8
0
  5
139B6
 10
319.122
 20
-44.9537
 30
7.11945e-14
  70
    32
  0
VERTEX
  8
0
  5
139B7
 10
319.111
 20
-44.9558
 30
7.11924e-14
  70
    32
  0
VERTEX
  8
0
  5
139B8
 10
319.100
 20
-44.9579
 30
7.11902e-14
  70
    32
  0
VERTEX
  8
0
  5
139B9
 10
319.089
 20
-44.9599
 30
7.11880e-14
  70
    32
  0
VERTEX
  8
0
  5
139BA
 10
319.079
 20
-44.9619
 30
7.11858e-14
  70
    32
  0
VERTEX
  8
0
  5
139BB
 10
319.068
 20
-44.9638
 30
7.11836e-14
  70
    32
  0
VERTEX
  8
0
  5
139BC
 10
319.057
 20
-44.9657
 30
7.11815e-14
  70
    32
  0
VERTEX
  8
0
  5
139BD
 10
319.046
 20
-44.9675
 30
7.11793e-14
  70
    32
  0
VERTEX
  8
0
  5
139BE
 10
319.035
 20
-44.9693
 30
7.11771e-14
  70
    32
  0
VERTEX
  8
0
  5
139BF
 10
319.024
 20
-44.9710
 30
7.11749e-14
  70
    32
  0
VERTEX
  8
0
  5
139C0
 10
319.013
 20
-44.9727
 30
7.11727e-14
  70
    32
  0
VERTEX
  8
0
  5
139C1
 10
319.002
 20
-44.9743
 30
7.11705e-14
  70
    32
  0
VERTEX
  8
0
  5
139C2
 10
318.991
 20
-44.9759
 30
7.11683e-14
  70
    32
  0
VERTEX
  8
0
  5
139C3
 10
318.980
 20
-44.9774
 30
7.11661e-14
  70
    32
  0
VERTEX
  8
0
  5
139C4
 10
318.969
 20
-44.9789
 30
7.11639e-14
  70
    32
  0
VERTEX
  8
0
  5
139C5
 10
318.958
 20
-44.9803
 30
7.11617e-14
  70
    32
  0
VERTEX
  8
0
  5
139C6
 10
318.947
 20
-44.9817
 30
7.11595e-14
  70
    32
  0
VERTEX
  8
0
  5
139C7
 10
318.936
 20
-44.9830
 30
7.11573e-14
  70
    32
  0
VERTEX
  8
0
  5
139C8
 10
318.925
 20
-44.9843
 30
7.11552e-14
  70
    32
  0
VERTEX
  8
0
  5
139C9
 10
318.914
 20
-44.9856
 30
7.11530e-14
  70
    32
  0
VERTEX
  8
0
  5
139CA
 10
318.903
 20
-44.9867
 30
7.11508e-14
  70
    32
  0
VERTEX
  8
0
  5
139CB
 10
318.892
 20
-44.9879
 30
7.11486e-14
  70
    32
  0
VERTEX
  8
0
  5
139CC
 10
318.881
 20
-44.9889
 30
7.11464e-14
  70
    32
  0
VERTEX
  8
0
  5
139CD
 10
318.870
 20
-44.9900
 30
7.11441e-14
  70
    32
  0
VERTEX
  8
0
  5
139CE
 10
318.859
 20
-44.9909
 30
7.11419e-14
  70
    32
  0
VERTEX
  8
0
  5
139CF
 10
318.848
 20
-44.9919
 30
7.11397e-14
  70
    32
  0
VERTEX
  8
0
  5
139D0
 10
318.837
 20
-44.9927
 30
7.11375e-14
  70
    32
  0
VERTEX
  8
0
  5
139D1
 10
318.826
 20
-44.9936
 30
7.11353e-14
  70
    32
  0
VERTEX
  8
0
  5
139D2
 10
318.815
 20
-44.9944
 30
7.11331e-14
  70
    32
  0
VERTEX
  8
0
  5
139D3
 10
318.804
 20
-44.9951
 30
7.11309e-14
  70
    32
  0
VERTEX
  8
0
  5
139D4
 10
318.793
 20
-44.9958
 30
7.11287e-14
  70
    32
  0
VERTEX
  8
0
  5
139D5
 10
318.782
 20
-44.9964
 30
7.11265e-14
  70
    32
  0
VERTEX
  8
0
  5
139D6
 10
318.771
 20
-44.9970
 30
7.11243e-14
  70
    32
  0
VERTEX
  8
0
  5
139D7
 10
318.760
 20
-44.9975
 30
7.11221e-14
  70
    32
  0
VERTEX
  8
0
  5
139D8
 10
318.749
 20
-44.9980
 30
7.11199e-14
  70
    32
  0
VERTEX
  8
0
  5
139D9
 10
318.738
 20
-44.9984
 30
7.11177e-14
  70
    32
  0
VERTEX
  8
0
  5
139DA
 10
318.727
 20
-44.9988
 30
7.11155e-14
  70
    32
  0
VERTEX
  8
0
  5
139DB
 10
318.716
 20
-44.9991
 30
7.11133e-14
  70
    32
  0
VERTEX
  8
0
  5
139DC
 10
318.705
 20
-44.9994
 30
7.11110e-14
  70
    32
  0
VERTEX
  8
0
  5
139DD
 10
318.694
 20
-44.9996
 30
7.11088e-14
  70
    32
  0
VERTEX
  8
0
  5
139DE
 10
318.683
 20
-44.9998
 30
7.11066e-14
  70
    32
  0
VERTEX
  8
0
  5
139DF
 10
318.671
 20
-44.9999
 30
7.11044e-14
  70
    32
  0
VERTEX
  8
0
  5
139E0
 10
318.660
 20
-45.0000
 30
7.11022e-14
  70
    32
  0
VERTEX
  8
0
  5
139E1
 10
318.649
 20
-45.0000
 30
7.11000e-14
  70
    32
  0
SEQEND
  8
0
  5
139E2
  0
LINE
  5
13706
  8
0
  6
CONTINUOUS
 62
     3
 10
320.0000000000001137
 20
-42.0000000000000426
 30
0.0000000000000711
 11
320.0000000000001137
 21
-44.5980762113533515
 31
0.0000000000000711
  0
POLYLINE
  5
13707
  8
0
  6
CONTINUOUS
 62
     3
 10
318.6493939335533128
 20
-43.5000000000000355
 30
0.0000000000000711
 66
     1
 70
     8
  0
VERTEX
  8
0
  5
139E3
 10
318.649
 20
-43.5000
 30
7.11000e-14
  70
    32
  0
VERTEX
  8
0
  5
139E4
 10
318.666
 20
-43.4999
 30
7.11033e-14
  70
    32
  0
VERTEX
  8
0
  5
139E5
 10
318.683
 20
-43.4995
 30
7.11066e-14
  70
    32
  0
VERTEX
  8
0
  5
139E6
 10
318.699
 20
-43.4990
 30
7.11099e-14
  70
    32
  0
VERTEX
  8
0
  5
139E7
 10
318.716
 20
-43.4982
 30
7.11133e-14
  70
    32
  0
VERTEX
  8
0
  5
139E8
 10
318.732
 20
-43.4972
 30
7.11166e-14
  70
    32
  0
VERTEX
  8
0
  5
139E9
 10
318.749
 20
-43.4959
 30
7.11199e-14
  70
    32
  0
VERTEX
  8
0
  5
139EA
 10
318.765
 20
-43.4945
 30
7.11232e-14
  70
    32
  0
VERTEX
  8
0
  5
139EB
 10
318.782
 20
-43.4928
 30
7.11265e-14
  70
    32
  0
VERTEX
  8
0
  5
139EC
 10
318.798
 20
-43.4909
 30
7.11298e-14
  70
    32
  0
VERTEX
  8
0
  5
139ED
 10
318.815
 20
-43.4887
 30
7.11331e-14
  70
    32
  0
VERTEX
  8
0
  5
139EE
 10
318.831
 20
-43.4864
 30
7.11364e-14
  70
    32
  0
VERTEX
  8
0
  5
139EF
 10
318.848
 20
-43.4838
 30
7.11396e-14
  70
    32
  0
VERTEX
  8
0
  5
139F0
 10
318.864
 20
-43.4810
 30
7.11429e-14
  70
    32
  0
VERTEX
  8
0
  5
139F1
 10
318.880
 20
-43.4779
 30
7.11462e-14
  70
    32
  0
VERTEX
  8
0
  5
139F2
 10
318.897
 20
-43.4747
 30
7.11494e-14
  70
    32
  0
VERTEX
  8
0
  5
139F3
 10
318.913
 20
-43.4712
 30
7.11527e-14
  70
    32
  0
VERTEX
  8
0
  5
139F4
 10
318.929
 20
-43.4675
 30
7.11559e-14
  70
    32
  0
VERTEX
  8
0
  5
139F5
 10
318.945
 20
-43.4636
 30
7.11592e-14
  70
    32
  0
VERTEX
  8
0
  5
139F6
 10
318.961
 20
-43.4594
 30
7.11624e-14
  70
    32
  0
VERTEX
  8
0
  5
139F7
 10
318.978
 20
-43.4550
 30
7.11656e-14
  70
    32
  0
VERTEX
  8
0
  5
139F8
 10
318.994
 20
-43.4505
 30
7.11688e-14
  70
    32
  0
VERTEX
  8
0
  5
139F9
 10
319.010
 20
-43.4457
 30
7.11720e-14
  70
    32
  0
VERTEX
  8
0
  5
139FA
 10
319.026
 20
-43.4406
 30
7.11752e-14
  70
    32
  0
VERTEX
  8
0
  5
139FB
 10
319.041
 20
-43.4354
 30
7.11784e-14
  70
    32
  0
VERTEX
  8
0
  5
139FC
 10
319.057
 20
-43.4300
 30
7.11816e-14
  70
    32
  0
VERTEX
  8
0
  5
139FD
 10
319.073
 20
-43.4243
 30
7.11847e-14
  70
    32
  0
VERTEX
  8
0
  5
139FE
 10
319.089
 20
-43.4184
 30
7.11879e-14
  70
    32
  0
VERTEX
  8
0
  5
139FF
 10
319.104
 20
-43.4123
 30
7.11910e-14
  70
    32
  0
VERTEX
  8
0
  5
13A00
 10
319.120
 20
-43.4060
 30
7.11941e-14
  70
    32
  0
VERTEX
  8
0
  5
13A01
 10
319.135
 20
-43.3995
 30
7.11972e-14
  70
    32
  0
VERTEX
  8
0
  5
13A02
 10
319.151
 20
-43.3928
 30
7.12003e-14
  70
    32
  0
VERTEX
  8
0
  5
13A03
 10
319.166
 20
-43.3858
 30
7.12034e-14
  70
    32
  0
VERTEX
  8
0
  5
13A04
 10
319.182
 20
-43.3787
 30
7.12064e-14
  70
    32
  0
VERTEX
  8
0
  5
13A05
 10
319.197
 20
-43.3713
 30
7.12095e-14
  70
    32
  0
VERTEX
  8
0
  5
13A06
 10
319.212
 20
-43.3638
 30
7.12125e-14
  70
    32
  0
VERTEX
  8
0
  5
13A07
 10
319.227
 20
-43.3560
 30
7.12155e-14
  70
    32
  0
VERTEX
  8
0
  5
13A08
 10
319.242
 20
-43.3480
 30
7.12185e-14
  70
    32
  0
VERTEX
  8
0
  5
13A09
 10
319.257
 20
-43.3398
 30
7.12214e-14
  70
    32
  0
VERTEX
  8
0
  5
13A0A
 10
319.271
 20
-43.3315
 30
7.12244e-14
  70
    32
  0
VERTEX
  8
0
  5
13A0B
 10
319.286
 20
-43.3229
 30
7.12273e-14
  70
    32
  0
VERTEX
  8
0
  5
13A0C
 10
319.301
 20
-43.3141
 30
7.12302e-14
  70
    32
  0
VERTEX
  8
0
  5
13A0D
 10
319.315
 20
-43.3051
 30
7.12331e-14
  70
    32
  0
VERTEX
  8
0
  5
13A0E
 10
319.329
 20
-43.2960
 30
7.12360e-14
  70
    32
  0
VERTEX
  8
0
  5
13A0F
 10
319.344
 20
-43.2866
 30
7.12389e-14
  70
    32
  0
VERTEX
  8
0
  5
13A10
 10
319.358
 20
-43.2770
 30
7.12417e-14
  70
    32
  0
VERTEX
  8
0
  5
13A11
 10
319.372
 20
-43.2673
 30
7.12445e-14
  70
    32
  0
VERTEX
  8
0
  5
13A12
 10
319.386
 20
-43.2573
 30
7.12473e-14
  70
    32
  0
VERTEX
  8
0
  5
13A13
 10
319.400
 20
-43.2472
 30
7.12501e-14
  70
    32
  0
VERTEX
  8
0
  5
13A14
 10
319.413
 20
-43.2369
 30
7.12528e-14
  70
    32
  0
VERTEX
  8
0
  5
13A15
 10
319.427
 20
-43.2264
 30
7.12555e-14
  70
    32
  0
VERTEX
  8
0
  5
13A16
 10
319.441
 20
-43.2157
 30
7.12582e-14
  70
    32
  0
VERTEX
  8
0
  5
13A17
 10
319.454
 20
-43.2048
 30
7.12609e-14
  70
    32
  0
VERTEX
  8
0
  5
13A18
 10
319.467
 20
-43.1938
 30
7.12636e-14
  70
    32
  0
VERTEX
  8
0
  5
13A19
 10
319.480
 20
-43.1825
 30
7.12662e-14
  70
    32
  0
VERTEX
  8
0
  5
13A1A
 10
319.493
 20
-43.1711
 30
7.12688e-14
  70
    32
  0
VERTEX
  8
0
  5
13A1B
 10
319.506
 20
-43.1595
 30
7.12714e-14
  70
    32
  0
VERTEX
  8
0
  5
13A1C
 10
319.519
 20
-43.1478
 30
7.12739e-14
  70
    32
  0
VERTEX
  8
0
  5
13A1D
 10
319.532
 20
-43.1358
 30
7.12764e-14
  70
    32
  0
VERTEX
  8
0
  5
13A1E
 10
319.544
 20
-43.1237
 30
7.12789e-14
  70
    32
  0
VERTEX
  8
0
  5
13A1F
 10
319.556
 20
-43.1114
 30
7.12814e-14
  70
    32
  0
VERTEX
  8
0
  5
13A20
 10
319.569
 20
-43.0990
 30
7.12838e-14
  70
    32
  0
VERTEX
  8
0
  5
13A21
 10
319.581
 20
-43.0864
 30
7.12863e-14
  70
    32
  0
VERTEX
  8
0
  5
13A22
 10
319.593
 20
-43.0736
 30
7.12886e-14
  70
    32
  0
VERTEX
  8
0
  5
13A23
 10
319.604
 20
-43.0607
 30
7.12910e-14
  70
    32
  0
VERTEX
  8
0
  5
13A24
 10
319.616
 20
-43.0476
 30
7.12933e-14
  70
    32
  0
VERTEX
  8
0
  5
13A25
 10
319.628
 20
-43.0343
 30
7.12956e-14
  70
    32
  0
VERTEX
  8
0
  5
13A26
 10
319.639
 20
-43.0209
 30
7.12979e-14
  70
    32
  0
VERTEX
  8
0
  5
13A27
 10
319.650
 20
-43.0073
 30
7.13001e-14
  70
    32
  0
VERTEX
  8
0
  5
13A28
 10
319.661
 20
-42.9936
 30
7.13024e-14
  70
    32
  0
VERTEX
  8
0
  5
13A29
 10
319.672
 20
-42.9798
 30
7.13045e-14
  70
    32
  0
VERTEX
  8
0
  5
13A2A
 10
319.683
 20
-42.9657
 30
7.13067e-14
  70
    32
  0
VERTEX
  8
0
  5
13A2B
 10
319.693
 20
-42.9516
 30
7.13088e-14
  70
    32
  0
VERTEX
  8
0
  5
13A2C
 10
319.704
 20
-42.9373
 30
7.13109e-14
  70
    32
  0
VERTEX
  8
0
  5
13A2D
 10
319.714
 20
-42.9228
 30
7.13129e-14
  70
    32
  0
VERTEX
  8
0
  5
13A2E
 10
319.724
 20
-42.9083
 30
7.13150e-14
  70
    32
  0
VERTEX
  8
0
  5
13A2F
 10
319.734
 20
-42.8935
 30
7.13170e-14
  70
    32
  0
VERTEX
  8
0
  5
13A30
 10
319.744
 20
-42.8787
 30
7.13189e-14
  70
    32
  0
VERTEX
  8
0
  5
13A31
 10
319.754
 20
-42.8637
 30
7.13208e-14
  70
    32
  0
VERTEX
  8
0
  5
13A32
 10
319.763
 20
-42.8486
 30
7.13227e-14
  70
    32
  0
VERTEX
  8
0
  5
13A33
 10
319.772
 20
-42.8334
 30
7.13246e-14
  70
    32
  0
VERTEX
  8
0
  5
13A34
 10
319.782
 20
-42.8180
 30
7.13264e-14
  70
    32
  0
VERTEX
  8
0
  5
13A35
 10
319.790
 20
-42.8025
 30
7.13282e-14
  70
    32
  0
VERTEX
  8
0
  5
13A36
 10
319.799
 20
-42.7869
 30
7.13300e-14
  70
    32
  0
VERTEX
  8
0
  5
13A37
 10
319.808
 20
-42.7712
 30
7.13317e-14
  70
    32
  0
VERTEX
  8
0
  5
13A38
 10
319.816
 20
-42.7553
 30
7.13334e-14
  70
    32
  0
VERTEX
  8
0
  5
13A39
 10
319.825
 20
-42.7393
 30
7.13350e-14
  70
    32
  0
VERTEX
  8
0
  5
13A3A
 10
319.833
 20
-42.7233
 30
7.13366e-14
  70
    32
  0
VERTEX
  8
0
  5
13A3B
 10
319.841
 20
-42.7071
 30
7.13382e-14
  70
    32
  0
VERTEX
  8
0
  5
13A3C
 10
319.848
 20
-42.6908
 30
7.13398e-14
  70
    32
  0
VERTEX
  8
0
  5
13A3D
 10
319.856
 20
-42.6744
 30
7.13413e-14
  70
    32
  0
VERTEX
  8
0
  5
13A3E
 10
319.863
 20
-42.6579
 30
7.13428e-14
  70
    32
  0
VERTEX
  8
0
  5
13A3F
 10
319.870
 20
-42.6413
 30
7.13442e-14
  70
    32
  0
VERTEX
  8
0
  5
13A40
 10
319.877
 20
-42.6246
 30
7.13456e-14
  70
    32
  0
VERTEX
  8
0
  5
13A41
 10
319.884
 20
-42.6079
 30
7.13469e-14
  70
    32
  0
VERTEX
  8
0
  5
13A42
 10
319.891
 20
-42.5910
 30
7.13483e-14
  70
    32
  0
VERTEX
  8
0
  5
13A43
 10
319.897
 20
-42.5740
 30
7.13496e-14
  70
    32
  0
VERTEX
  8
0
  5
13A44
 10
319.903
 20
-42.5570
 30
7.13508e-14
  70
    32
  0
VERTEX
  8
0
  5
13A45
 10
319.909
 20
-42.5398
 30
7.13520e-14
  70
    32
  0
VERTEX
  8
0
  5
13A46
 10
319.915
 20
-42.5226
 30
7.13532e-14
  70
    32
  0
VERTEX
  8
0
  5
13A47
 10
319.921
 20
-42.5053
 30
7.13543e-14
  70
    32
  0
VERTEX
  8
0
  5
13A48
 10
319.927
 20
-42.4880
 30
7.13554e-14
  70
    32
  0
VERTEX
  8
0
  5
13A49
 10
319.932
 20
-42.4705
 30
7.13565e-14
  70
    32
  0
VERTEX
  8
0
  5
13A4A
 10
319.937
 20
-42.4530
 30
7.13575e-14
  70
    32
  0
VERTEX
  8
0
  5
13A4B
 10
319.942
 20
-42.4354
 30
7.13585e-14
  70
    32
  0
VERTEX
  8
0
  5
13A4C
 10
319.947
 20
-42.4178
 30
7.13594e-14
  70
    32
  0
VERTEX
  8
0
  5
13A4D
 10
319.951
 20
-42.4001
 30
7.13603e-14
  70
    32
  0
VERTEX
  8
0
  5
13A4E
 10
319.955
 20
-42.3823
 30
7.13612e-14
  70
    32
  0
VERTEX
  8
0
  5
13A4F
 10
319.960
 20
-42.3645
 30
7.13620e-14
  70
    32
  0
VERTEX
  8
0
  5
13A50
 10
319.963
 20
-42.3466
 30
7.13628e-14
  70
    32
  0
VERTEX
  8
0
  5
13A51
 10
319.967
 20
-42.3287
 30
7.13636e-14
  70
    32
  0
VERTEX
  8
0
  5
13A52
 10
319.971
 20
-42.3107
 30
7.13643e-14
  70
    32
  0
VERTEX
  8
0
  5
13A53
 10
319.974
 20
-42.2926
 30
7.13649e-14
  70
    32
  0
VERTEX
  8
0
  5
13A54
 10
319.977
 20
-42.2746
 30
7.13656e-14
  70
    32
  0
VERTEX
  8
0
  5
13A55
 10
319.980
 20
-42.2564
 30
7.13661e-14
  70
    32
  0
VERTEX
  8
0
  5
13A56
 10
319.983
 20
-42.2383
 30
7.13667e-14
  70
    32
  0
VERTEX
  8
0
  5
13A57
 10
319.985
 20
-42.2201
 30
7.13672e-14
  70
    32
  0
VERTEX
  8
0
  5
13A58
 10
319.988
 20
-42.2019
 30
7.13677e-14
  70
    32
  0
VERTEX
  8
0
  5
13A59
 10
319.990
 20
-42.1836
 30
7.13681e-14
  70
    32
  0
VERTEX
  8
0
  5
13A5A
 10
319.992
 20
-42.1653
 30
7.13685e-14
  70
    32
  0
VERTEX
  8
0
  5
13A5B
 10
319.993
 20
-42.1470
 30
7.13688e-14
  70
    32
  0
VERTEX
  8
0
  5
13A5C
 10
319.995
 20
-42.1287
 30
7.13691e-14
  70
    32
  0
VERTEX
  8
0
  5
13A5D
 10
319.996
 20
-42.1103
 30
7.13694e-14
  70
    32
  0
VERTEX
  8
0
  5
13A5E
 10
319.997
 20
-42.0920
 30
7.13696e-14
  70
    32
  0
VERTEX
  8
0
  5
13A5F
 10
319.998
 20
-42.0736
 30
7.13698e-14
  70
    32
  0
VERTEX
  8
0
  5
13A60
 10
319.999
 20
-42.0552
 30
7.13699e-14
  70
    32
  0
VERTEX
  8
0
  5
13A61
 10
320.000
 20
-42.0368
 30
7.13700e-14
  70
    32
  0
VERTEX
  8
0
  5
13A62
 10
320.000
 20
-42.0184
 30
7.13701e-14
  70
    32
  0
VERTEX
  8
0
  5
13A63
 10
320.000
 20
-42.0000
 30
7.13701e-14
  70
    32
  0
SEQEND
  8
0
  5
13A64
  0
LINE
  5
13708
  8
0
  6
CONTINUOUS
 62
     3
 10
282.1833398282200847
 20
-43.5000000000000995
 30
0.0000000000000631
 11
318.6493939335533128
 21
-43.5000000000000426
 31
0.0000000000000702
  0
LINE
  5
13709
  8
0
  6
CONTINUOUS
 62
     3
 10
152.2003398282199953
 20
-45.0000000000000711
 30
0.000000000000034
 11
150.6999999999993918
 21
-45.0000000000000711
 31
0.0000000000000336
  0
LINE
  5
1370A
  8
0
  6
CONTINUOUS
 62
     3
 10
150.6999999999993918
 20
-43.5000000000000711
 30
0.0000000000000336
 11
150.6999999999993918
 21
-45.0000000000000782
 31
0.0000000000000336
  0
LINE
  5
1370B
  8
0
  6
CONTINUOUS
 62
     3
 10
150.6999999999993918
 20
-45.0000000000000782
 30
0.0000000000000336
 11
147.6999999999993918
 21
-45.0000000000000782
 31
0.000000000000033
  0
LINE
  5
1370C
  8
0
  6
CONTINUOUS
 62
     3
 10
78.4999999999995453
 20
-43.5000000000001279
 30
0.0000000000000142
 11
81.4999999999995026
 21
-43.5000000000001279
 31
0.0000000000000149
  0
LINE
  5
1370D
  8
0
  6
CONTINUOUS
 62
     3
 10
81.4999999999995453
 20
45.0000000000001279
 30
0.0000000000000213
 11
78.4999999999996021
 21
45.0000000000001279
 31
0.0000000000000206
  0
LINE
  5
1370E
  8
0
  6
CONTINUOUS
 62
     3
 10
81.4999999999995453
 20
43.5000000000001208
 30
0.0000000000000213
 11
78.4999999999996021
 21
43.5000000000001208
 31
0.0000000000000206
  0
LINE
  5
1370F
  8
0
  6
CONTINUOUS
 62
     3
 10
78.4999999999995453
 20
-45.0000000000001421
 30
0.0000000000000142
 11
81.4999999999995026
 21
-45.0000000000001421
 31
0.0000000000000149
  0
LINE
  5
13710
  8
0
  6
CONTINUOUS
 62
     3
 10
320.0000000000001137
 20
41.9999999999999503
 30
0.0000000000000711
 11
320.0000000000001137
 21
-42.0000000000000426
 31
0.0000000000000711
  0
LINE
  5
13711
  8
0
  6
VERDECKT
 62
     1
 10
0.5071419140880119
 20
38.1718923361102185
 30
0.0000000000000001
 11
0.5071419140880074
 21
-38.1718923361101901
 31
0.0000000000000001
  0
ARC
  5
13712
  8
0
  6
VERDECKT
 62
     1
 10
59.4930577797047135
 20
44.4999999999830678
 30
0.0000000000000133
 40
9.1999999999831132
 50
238.6793304115234946
 51
270.0
  0
ARC
  5
13713
  8
0
  6
VERDECKT
 62
     1
 10
59.4930577797046993
 20
-44.4999999999830109
 30
0.0000000000000133
 40
9.1999999999830706
 50
89.9999999999615454
 51
121.3206695884326933
  0
ARC
  5
13714
  8
0
  6
VERDECKT
 62
     1
 10
49.1484939899688911
 20
27.4999999999951292
 30
0.000000000000011
 40
10.7000000000044402
 50
58.6793304115894614
 51
89.999999999989285
  0
ARC
  5
13715
  8
0
  6
VERDECKT
 62
     1
 10
49.14849398996882
 20
-27.4999999999949516
 30
0.000000000000011
 40
10.7000000000046196
 50
270.0000000000110276
 51
301.3206695884102828
  0
LINE
  5
13716
  8
0
  6
VERDECKT
 62
     1
 10
49.1484939899708806
 20
-38.1999999999995907
 30
0.000000000000011
 11
28.8718289426864985
 21
-38.1999999999995907
 31
0.0000000000000064
  0
LINE
  5
13717
  8
0
  6
VERDECKT
 62
     1
 10
49.1484939899708806
 20
38.1999999999995978
 30
0.000000000000011
 11
28.8718289426865091
 21
38.1999999999995978
 31
0.0000000000000064
  0
ARC
  5
13718
  8
0
  6
VERDECKT
 62
     1
 10
28.871828942682491
 20
51.8999999999707313
 30
0.0000000000000064
 40
13.6999999999711299
 50
248.8399832291507039
 51
270.0000000000168257
  0
ARC
  5
13719
  8
0
  6
VERDECKT
 62
     1
 10
28.8718289426825514
 20
-51.8999999999711221
 30
0.0000000000000064
 40
13.6999999999715296
 50
89.9999999999834728
 51
111.1600167708488982
  0
ARC
  5
1371A
  8
0
  6
VERDECKT
 62
     1
 10
15.4262594256527699
 20
16.9941909850668083
 30
0.0000000000000034
 40
23.7058952308685384
 50
68.987587206266852
 51
90.1545266375777317
  0
ARC
  5
1371B
  8
0
  6
VERDECKT
 62
     1
 10
15.4262594256527592
 20
-16.9941909850666697
 30
0.0000000000000034
 40
23.7058952308686592
 50
269.8454733624222968
 51
291.0124127937331195
  0
LINE
  5
1371C
  8
0
  6
VERDECKT
 62
     1
 10
15.3623247367273397
 20
-40.6999999999995694
 30
0.0000000000000034
 11
11.1828497997181202
 21
-40.6999999999995694
 31
0.0000000000000025
  0
LINE
  5
1371D
  8
0
  6
VERDECKT
 62
     1
 10
15.3623247367273503
 20
40.6999999999995978
 30
0.0000000000000034
 11
11.1828497997181309
 21
40.6999999999995978
 31
0.0000000000000025
  0
ARC
  5
1371E
  8
0
  6
VERDECKT
 62
     1
 10
11.1828497997152301
 20
17.0000000000702514
 30
0.0000000000000025
 40
23.69999999992935
 50
89.9999999999930083
 51
115.0000000000439968
  0
ARC
  5
1371F
  8
0
  6
VERDECKT
 62
     1
 10
11.1828497997151199
 20
-17.0000000000706883
 30
0.0000000000000025
 40
23.6999999999288917
 50
244.9999999999483009
 51
270.0
  0
LINE
  5
13720
  8
0
  6
VERDECKT
 62
     1
 10
0.5071419140880119
 20
38.1718923361102185
 30
0.0000000000000001
 11
1.1667969964739771
 21
38.479494552767143
 31
0.0000000000000003
  0
LINE
  5
13721
  8
0
  6
VERDECKT
 62
     1
 10
0.5071419140880071
 20
-38.1718923361101901
 30
0.0000000000000001
 11
1.1667969964739719
 21
-38.4794945527671075
 31
0.0000000000000003
  0
LINE
  5
13722
  8
0
  6
VERDECKT
 62
     1
 10
0.5071419140880509
 20
-38.1718923361102114
 30
0.0000000000000001
 11
-0.000000000000101
 21
-39.25946168055453
 31
0.0
  0
LINE
  5
13723
  8
0
  6
VERDECKT
 62
     1
 10
0.5071419140880556
 20
38.1718923361102398
 30
0.0000000000000001
 11
-0.0000000000000961
 21
39.2594616805545584
 31
0.0
  0
LINE
  5
13724
  8
0
  6
VERDECKT
 62
     1
 10
59.4930577797117266
 20
35.2999999999998977
 30
0.0000000000000133
 11
69.99999999999946
 21
35.2999999999998977
 31
0.0000000000000156
  0
LINE
  5
13725
  8
0
  6
VERDECKT
 62
     1
 10
59.4930577797108811
 20
-35.3000000000000114
 30
0.0000000000000133
 11
69.9999999999994458
 21
-35.3000000000000114
 31
0.0000000000000156
  0
LINE
  5
13726
  8
0
  6
VERDECKT
 62
     1
 10
71.4999999999995453
 20
43.4292893218813632
 30
0.0000000000000142
 11
71.4999999999995737
 21
25.2999999999998586
 31
0.0000000000000142
  0
LINE
  5
13727
  8
0
  6
VERDECKT
 62
     1
 10
69.9999999999995453
 20
43.4292893218812992
 30
0.0000000000000142
 11
71.4999999999995453
 21
43.4292893218812992
 31
0.0000000000000145
  0
LINE
  5
13728
  8
0
  6
VERDECKT
 62
     1
 10
71.4999999999995453
 20
21.7999999999998799
 30
0.0000000000000142
 11
71.4999999999995453
 21
-21.8000000000001002
 31
0.0000000000000142
  0
LINE
  5
13729
  8
0
  6
VERDECKT
 62
     1
 10
71.5707106781187008
 20
43.5000000000001279
 30
0.0000000000000142
 11
71.5707106781187008
 21
45.0000000000001279
 31
0.0000000000000142
  0
LINE
  5
1372A
  8
0
  6
VERDECKT
 62
     1
 10
78.2499999999994458
 20
43.5000000000001279
 30
0.0000000000000142
 11
71.5707106781187008
 21
43.5000000000001279
 31
0.0000000000000127
  0
LINE
  5
1372B
  8
0
  6
VERDECKT
 62
     1
 10
71.4999999999995453
 20
-43.4292893218813276
 30
0.0000000000000142
 11
69.9999999999995168
 21
-43.4292893218813276
 31
0.0000000000000139
  0
LINE
  5
1372C
  8
0
  6
VERDECKT
 62
     1
 10
71.4999999999995453
 20
-25.3000000000000789
 30
0.0000000000000142
 11
71.4999999999995737
 21
-43.4292893218813205
 31
0.0000000000000142
  0
LINE
  5
1372D
  8
0
  6
VERDECKT
 62
     1
 10
71.5707106781186866
 20
-43.5000000000001421
 30
0.0000000000000142
 11
78.2499999999994458
 21
-43.5000000000001421
 31
0.0000000000000157
  0
LINE
  5
1372E
  8
0
  6
VERDECKT
 62
     1
 10
71.5707106781188713
 20
-45.0000000000001421
 30
0.0000000000000142
 11
71.5707106781188713
 21
-43.5000000000001279
 31
0.0000000000000142
  0
LINE
  5
1372F
  8
0
  6
VERDECKT
 62
     1
 10
146.2003398282199953
 20
43.5000000000000426
 30
0.0000000000000326
 11
134.6142135623724982
 21
43.5000000000000426
 31
0.0000000000000301
  0
LINE
  5
13730
  8
0
  6
VERDECKT
 62
     1
 10
134.6142135623724982
 20
-43.5000000000000568
 30
0.00000000000003
 11
146.200339828220109
 21
-43.5000000000000568
 31
0.0000000000000326
  0
LINE
  5
13731
  8
0
  6
VERDECKT
 62
     1
 10
134.6142135623724982
 20
43.5000000000000568
 30
0.00000000000003
 11
133.9071067811860019
 21
43.5000000000000568
 31
0.00000000000003
  0
LINE
  5
13732
  8
0
  6
VERDECKT
 62
     1
 10
133.9071067811860019
 20
-43.5000000000000711
 30
0.00000000000003
 11
134.6142135623724982
 21
-43.5000000000000711
 31
0.00000000000003
  0
LINE
  5
13733
  8
0
  6
VERDECKT
 62
     1
 10
133.9071067811860019
 20
43.5000000000000426
 30
0.00000000000003
 11
89.7857864376264558
 21
43.5000000000001279
 31
0.0000000000000229
  0
LINE
  5
13734
  8
0
  6
VERDECKT
 62
     1
 10
89.7857864376264558
 20
-43.5000000000001421
 30
0.0000000000000213
 11
133.9071067811860019
 21
-43.5000000000000711
 31
0.0000000000000284
  0
LINE
  5
13735
  8
0
  6
VERDECKT
 62
     1
 10
88.3715728752533778
 20
43.5000000000000711
 30
0.0000000000000213
 11
89.7857864376264843
 21
43.5000000000000711
 31
0.0000000000000213
  0
LINE
  5
13736
  8
0
  6
VERDECKT
 62
     1
 10
89.7857864376264558
 20
-43.5000000000000568
 30
0.0000000000000213
 11
88.3715728752533352
 21
-43.5000000000000568
 31
0.0000000000000213
  0
LINE
  5
13737
  8
0
  6
VERDECKT
 62
     1
 10
88.3715728752533778
 20
43.5000000000001421
 30
0.0000000000000213
 11
81.7499999999994458
 21
43.5000000000001421
 31
0.0000000000000198
  0
LINE
  5
13738
  8
0
  6
VERDECKT
 62
     1
 10
81.7499999999994458
 20
-43.5000000000001421
 30
0.0000000000000213
 11
88.3715728752533352
 21
-43.5000000000001421
 31
0.0000000000000228
  0
LINE
  5
13739
  8
0
  6
VERDECKT
 62
     1
 10
270.4333398282199141
 20
43.5000000000000426
 30
0.0000000000000604
 11
152.2003398282199953
 21
43.5000000000000426
 31
0.000000000000034
  0
LINE
  5
1373A
  8
0
  6
VERDECKT
 62
     1
 10
282.1830301394908247
 20
43.5000000000000426
 30
0.0000000000000631
 11
273.9333398282200278
 21
43.5000000000000426
 31
0.0000000000000612
  0
LINE
  5
1373B
  8
0
  6
VERDECKT
 62
     1
 10
282.183030139490711
 20
45.0000000000000284
 30
0.0000000000000631
 11
282.183030139490711
 21
43.5000000000000426
 31
0.0000000000000631
  0
LINE
  5
1373C
  8
0
  6
VERDECKT
 62
     1
 10
282.1833398282200847
 20
43.5000000000000426
 30
0.0000000000000631
 11
282.183030139490711
 21
43.5000000000000426
 31
0.0000000000000631
  0
LINE
  5
1373D
  8
0
  6
VERDECKT
 62
     1
 10
282.183030139490711
 20
-43.5000000000000995
 30
0.0000000000000631
 11
282.1833398282200847
 21
-43.5000000000000995
 31
0.0000000000000631
  0
LINE
  5
1373E
  8
0
  6
VERDECKT
 62
     1
 10
282.183030139490711
 20
-43.5000000000001066
 30
0.0000000000000631
 11
282.183030139490711
 21
-45.0000000000001066
 31
0.0000000000000631
  0
LINE
  5
1373F
  8
0
  6
VERDECKT
 62
     1
 10
273.6830301394908247
 20
-43.5000000000000995
 30
0.0000000000000611
 11
282.183030139490711
 21
-43.5000000000000995
 31
0.000000000000063
  0
LINE
  5
13740
  8
0
  6
VERDECKT
 62
     1
 10
273.6830301394908247
 20
-43.5000000000001066
 30
0.0000000000000611
 11
273.6830301394908247
 21
-45.0000000000001066
 31
0.0000000000000611
  0
LINE
  5
13741
  8
0
  6
VERDECKT
 62
     1
 10
270.6830301394908247
 20
-43.5000000000001066
 30
0.0000000000000604
 11
273.6830301394908247
 21
-43.5000000000001066
 31
0.0000000000000611
  0
LINE
  5
13742
  8
0
  6
VERDECKT
 62
     1
 10
270.6830301394908247
 20
-43.5000000000001066
 30
0.0000000000000604
 11
270.6830301394908247
 21
-45.0000000000001066
 31
0.0000000000000604
  0
LINE
  5
13743
  8
0
  6
VERDECKT
 62
     1
 10
152.2003398282199953
 20
-43.5000000000000711
 30
0.000000000000034
 11
270.6830301394908247
 21
-43.5000000000000995
 31
0.0000000000000604
  0
LINE
  5
13744
  8
0
  6
VERDECKT
 62
     1
 10
73.0000000000000568
 20
-41.9999999999999787
 30
0.0000000000000142
 11
73.0000000000000568
 21
-43.4999999999999716
 31
0.0000000000000142
  0
LINE
  5
13745
  8
0
  6
VERDECKT
 62
     1
 10
73.0000000000000568
 20
41.9999999999999787
 30
0.0000000000000142
 11
73.0000000000000568
 21
43.4999999999999787
 31
0.0000000000000142
  0
LINE
  5
13746
  8
0
  6
VERDECKT
 62
     1
 10
73.0000000000000568
 20
-43.4999999999999716
 30
0.0000000000000142
 11
73.0000000000000568
 21
-44.9999999999999787
 31
0.0000000000000142
  0
LINE
  5
13747
  8
0
  6
VERDECKT
 62
     1
 10
71.4999999999999716
 20
-42.0000000000000071
 30
0.0000000000000142
 11
69.9999999999999858
 21
-42.0000000000000071
 31
0.0000000000000139
  0
LINE
  5
13748
  8
0
  6
VERDECKT
 62
     1
 10
73.0000000000000142
 20
-42.0000000000000071
 30
0.0000000000000142
 11
71.5000000000000142
 21
-42.0000000000000071
 31
0.0000000000000142
  0
LINE
  5
13749
  8
0
  6
VERDECKT
 62
     1
 10
71.5
 20
41.9999999999999929
 30
0.0000000000000142
 11
70.0
 21
41.9999999999999929
 31
0.0000000000000139
  0
LINE
  5
1374A
  8
0
  6
VERDECKT
 62
     1
 10
73.0000000000000426
 20
41.9999999999999929
 30
0.0000000000000142
 11
71.5
 21
41.9999999999999929
 31
0.0000000000000142
  0
LINE
  5
1374B
  8
0
  6
VERDECKT
 62
     1
 10
73.0000000000000568
 20
43.4999999999999574
 30
0.0000000000000142
 11
73.0000000000000568
 21
44.9999999999999787
 31
0.0000000000000142
  0
LINE
  5
1374C
  8
0
  6
VERDECKT
 62
     1
 10
69.9999999999997726
 20
35.0
 30
0.0000000000000156
 11
71.4999999999997726
 21
35.0
 31
0.000000000000016
  0
LINE
  5
1374D
  8
0
  6
VERDECKT
 62
     1
 10
69.9999999999997442
 20
-35.0000000000000071
 30
0.0000000000000156
 11
71.4999999999997584
 21
-35.0000000000000071
 31
0.000000000000016
  0
ENDBLK
  5
1374F
  8
0
  0
BLOCK
  8
0
  2
A$C4E185416
 70
     0
 10
0.0
 20
0.0
 30
0.0
  3
A$C4E185416
  1

  0
LINE
  5
13753
  8
0
  6
CONTINUOUS
 62
     3
 10
88.757359312880169
 20
43.4999999999999289
 30
-0.0000000000000097
 11
81.7499999999994458
 21
43.4999999999998792
 31
-0.0000000000000097
210
0.0
220
1.0
230
-0.0000000000000002
  0
LINE
  5
13754
  8
0
  6
CONTINUOUS
 62
     3
 10
78.2499999999994458
 20
43.4999999999998579
 30
-0.0000000000000097
 11
69.9999999999994742
 21
43.499999999999801
 31
-0.0000000000000097
210
0.0
220
1.0
230
-0.0000000000000002
  0
LINE
  5
13755
  8
0
  6
CONTINUOUS
 62
     3
 10
69.9999999999994742
 20
43.499999999999801
 30
-0.0000000000000097
 11
69.99999999999946
 21
44.999999999999801
 31
-0.00000000000001
210
0.0
220
1.0
230
-0.0000000000000002
  0
LINE
  5
13756
  8
0
  6
CONTINUOUS
 62
     3
 10
152.2003398282199953
 20
0.0033398282204189
 30
0.0
 11
152.2003398282199953
 21
-1.496660171779588
 31
0.0000000000000003
210
0.0
220
1.0
230
-0.0000000000000002
  0
LINE
  5
13757
  8
0
  6
CONTINUOUS
 62
     3
 10
146.2003398282199953
 20
0.0033398282203905
 30
0.0
 11
152.2003398282199953
 21
0.0033398282204118
 31
0.0
210
0.0
220
1.0
230
-0.0000000000000002
  0
LINE
  5
13758
  8
0
  6
CONTINUOUS
 62
     3
 10
152.2003398282199953
 20
-1.4966601717795811
 30
0.0000000000000003
 11
150.6999999999993918
 21
-1.496660171779588
 31
0.0000000000000003
210
0.0
220
1.0
230
-0.0000000000000002
  0
LINE
  5
13759
  8
0
  6
CONTINUOUS
 62
     3
 10
147.6999999999993918
 20
-1.4966601717795951
 30
0.0000000000000003
 11
146.200339828220109
 21
-1.4966601717795951
 31
0.0000000000000003
210
0.0
220
1.0
230
-0.0000000000000002
  0
LINE
  5
1375A
  8
0
  6
CONTINUOUS
 62
     3
 10
146.200339828220109
 20
-1.4966601717796091
 30
0.0000000000000003
 11
146.200339828220109
 21
0.0033398282203976
 31
0.0
210
0.0
220
1.0
230
-0.0000000000000002
  0
LINE
  5
1375B
  8
0
  6
CONTINUOUS
 62
     3
 10
152.2003398282199953
 20
-1.4966601717795951
 30
0.0000000000000003
 11
282.1833398282200278
 21
-1.496660171779183
 31
0.0000000000000003
210
0.0
220
1.0
230
-0.0000000000000002
  0
LINE
  5
1375C
  8
0
  6
CONTINUOUS
 62
     3
 10
282.1833398282200847
 20
0.0033398282207955
 30
0.0
 11
282.1833398282200847
 21
-1.4966601717792041
 31
0.0000000000000003
210
0.0
220
1.0
230
-0.0000000000000002
  0
LINE
  5
1375D
  8
0
  6
CONTINUOUS
 62
     3
 10
152.2003398282199953
 20
0.0033398282202839
 30
0.0
 11
282.1833398282200278
 21
0.0033398282198434
 31
0.0
210
0.0
220
1.0
230
-0.0000000000000002
  0
LINE
  5
1375E
  8
0
  6
CONTINUOUS
 62
     3
 10
135.6179805153392124
 20
0.0033398282203407
 30
0.0
 11
146.200339828220109
 21
0.0033398282203052
 31
0.0
210
0.0
220
1.0
230
-0.0000000000000002
  0
LINE
  5
1375F
  8
0
  6
CONTINUOUS
 62
     3
 10
135.6179805153392124
 20
-1.4966601717796519
 30
0.0000000000000003
 11
146.200339828220109
 21
-1.496660171779616
 31
0.0000000000000003
210
0.0
220
1.0
230
-0.0000000000000002
  0
ARC
  5
13760
  8
0
  6
CONTINUOUS
 62
     3
 10
135.6179805153390987
 20
1.5033398282203261
 30
-0.0000000000000003
 40
2.9999999999999791
 50
225.0
 51
270.0000000000002274
  0
ARC
  5
13761
  8
0
  6
CONTINUOUS
 62
     3
 10
135.6179805153392124
 20
1.5033398282203481
 30
-0.0000000000000003
 40
1.499999999999986
 50
225.000000000000199
 51
270.0000000000006821
  0
LINE
  5
13762
  8
0
  6
CONTINUOUS
 62
     3
 10
89.8180194846600131
 20
43.0606601717797517
 30
-0.0000000000000096
 11
133.4966601717794958
 21
-0.6179805153393617
 31
0.0000000000000001
210
0.0
220
1.0
230
-0.0000000000000002
  0
ARC
  5
13763
  8
0
  6
CONTINUOUS
 62
     3
 10
88.7573593128801832
 20
41.9999999999999432
 30
-0.0000000000000093
 40
2.999999999999984
 50
45.0000000000000071
 51
90.0000000000002842
  0
LINE
  5
13764
  8
0
  6
CONTINUOUS
 62
     3
 10
134.5573203435592973
 20
0.4426796564404826
 30
-0.0000000000000001
 11
90.8786796564398429
 21
44.1213203435595815
 31
-0.0000000000000098
210
0.0
220
1.0
230
-0.0000000000000002
  0
ARC
  5
13765
  8
0
  6
CONTINUOUS
 62
     3
 10
-88.7573593128801832
 20
41.9999999999999289
 30
0.0
 40
1.5
210
0.0
220
-0.0000000000000002
230
-1.0
 50
90.0
 51
134.9999999999996021
  0
LINE
  5
13766
  8
0
  6
CONTINUOUS
 62
     3
 10
88.757359312880169
 20
44.9999999999999218
 30
-0.00000000000001
 11
81.7499999999994458
 21
44.9999999999998792
 31
-0.00000000000001
210
0.0
220
1.0
230
-0.0000000000000002
  0
LINE
  5
13767
  8
0
  6
CONTINUOUS
 62
     3
 10
81.7499999999994458
 20
43.4999999999998792
 30
-0.0000000000000097
 11
81.7499999999994316
 21
44.9999999999998792
 31
-0.00000000000001
210
0.0
220
1.0
230
-0.0000000000000002
  0
LINE
  5
13768
  8
0
  6
CONTINUOUS
 62
     3
 10
78.2499999999994458
 20
44.9999999999998508
 30
-0.00000000000001
 11
69.9999999999994742
 21
44.999999999999801
 31
-0.00000000000001
210
0.0
220
1.0
230
-0.0000000000000002
  0
LINE
  5
13769
  8
0
  6
CONTINUOUS
 62
     3
 10
81.7499999999994458
 20
44.9999999999998792
 30
-0.00000000000001
 11
81.4999999999994742
 21
44.9999999999998792
 31
-0.00000000000001
210
0.0
220
1.0
230
-0.0000000000000002
  0
LINE
  5
1376A
  8
0
  6
CONTINUOUS
 62
     3
 10
78.499999999999531
 20
44.9999999999998721
 30
-0.00000000000001
 11
78.2499999999994458
 21
44.9999999999998508
 31
-0.00000000000001
210
0.0
220
1.0
230
-0.0000000000000002
  0
LINE
  5
1376B
  8
0
  6
CONTINUOUS
 62
     3
 10
78.2499999999994458
 20
43.4999999999998579
 30
-0.0000000000000097
 11
78.2499999999994316
 21
44.9999999999998508
 31
-0.00000000000001
210
0.0
220
1.0
230
-0.0000000000000002
  0
LINE
  5
1376C
  8
0
  6
CONTINUOUS
 62
     3
 10
-0.0000000000001397
 20
39.2594616805549919
 30
-0.0000000000000087
 11
-0.0000000000001445
 21
-39.2594616805540682
 31
0.0000000000000087
210
0.0
220
1.0
230
-0.0000000000000002
  0
LINE
  5
1376D
  8
0
  6
CONTINUOUS
 62
     3
 10
-0.0000000000001397
 20
39.2594616805549919
 30
-0.0000000000000087
 11
0.6596550823859129
 21
39.5670638972119377
 31
-0.0000000000000088
210
0.0
220
1.0
230
-0.0000000000000002
  0
LINE
  5
1376E
  8
0
  6
CONTINUOUS
 62
     3
 10
-0.0000000000001659
 20
-39.2594616805540682
 30
0.0000000000000087
 11
0.6596550823858867
 21
-39.5670638972110282
 31
0.0000000000000088
210
0.0
220
1.0
230
-0.0000000000000002
  0
ARC
  5
1376F
  8
0
  6
CONTINUOUS
 62
     3
 10
-11.1828497997148499
 20
17.0000000000726992
 30
0.0
 40
24.8999999999273989
210
0.0
220
-0.0000000000000002
230
-1.0
 50
64.999999999958888
 51
90.0000000000077875
  0
ARC
  5
13770
  8
0
  6
CONTINUOUS
 62
     3
 10
-11.1828497997148197
 20
-17.0000000000718003
 30
0.0
 40
24.8999999999273989
210
0.0
220
-0.0000000000000002
230
-1.0
 50
269.9999999999922125
 51
295.0000000000410978
  0
LINE
  5
13771
  8
0
  6
CONTINUOUS
 62
     3
 10
15.3607265125959298
 20
-41.8999999999991815
 30
0.0000000000000093
 11
11.1828497997182108
 21
-41.8999999999991815
 31
0.0000000000000093
210
0.0
220
1.0
230
-0.0000000000000002
  0
LINE
  5
13772
  8
0
  6
CONTINUOUS
 62
     3
 10
15.36072651259596
 20
41.9000000000000981
 30
-0.0000000000000093
 11
11.1828497997182392
 21
41.9000000000000981
 31
-0.0000000000000093
210
0.0
220
1.0
230
-0.0000000000000002
  0
ARC
  5
13773
  8
0
  6
CONTINUOUS
 62
     3
 10
-15.4262594256517698
 20
16.9941909850614685
 30
0.0
 40
24.9058952308743891
210
0.0
220
-0.0000000000000002
230
-1.0
 50
89.8492419712252257
 51
111.0160940109916936
  0
ARC
  5
13774
  8
0
  6
CONTINUOUS
 62
     3
 10
-15.4262594256517893
 20
-16.9941909850606514
 30
0.0
 40
24.9058952308743002
210
0.0
220
-0.0000000000000002
230
-1.0
 50
248.9839059890082922
 51
270.1507580287748738
  0
ARC
  5
13775
  8
0
  6
CONTINUOUS
 62
     3
 10
-28.8718289426792509
 20
51.899999999966461
 30
0.0
 40
12.4999999999663505
210
0.0
220
-0.0000000000000002
230
-1.0
 50
270.0
 51
291.166852039842297
  0
ARC
  5
13776
  8
0
  6
CONTINUOUS
 62
     3
 10
-28.8718289426792083
 20
-51.8999999999655088
 30
0.0
 40
12.4999999999663096
210
0.0
220
-0.0000000000000002
230
-1.0
 50
68.8331479601883132
 51
90.0000000000307097
  0
LINE
  5
13777
  8
0
  6
CONTINUOUS
 62
     3
 10
49.1484939899708593
 20
-39.3999999999991886
 30
0.0000000000000087
 11
28.8718289426859087
 21
-39.3999999999991886
 31
0.0000000000000087
210
0.0
220
1.0
230
-0.0000000000000002
  0
LINE
  5
13778
  8
0
  6
CONTINUOUS
 62
     3
 10
49.1484939899708806
 20
39.4000000000000981
 30
-0.0000000000000087
 11
28.8718289426859407
 21
39.4000000000000981
 31
-0.0000000000000087
210
0.0
220
1.0
230
-0.0000000000000002
  0
ARC
  5
13779
  8
0
  6
CONTINUOUS
 62
     3
 10
-49.1484939899678466
 20
27.4999999999923901
 30
0.0
 40
11.9000000000077097
210
0.0
220
-0.0000000000000002
230
-1.0
 50
90.000000000014623
 51
121.3206695884062043
  0
ARC
  5
1377A
  8
0
  6
CONTINUOUS
 62
     3
 10
-49.1484939899678395
 20
-27.4999999999914415
 30
0.0
 40
11.9000000000077506
210
0.0
220
-0.0000000000000002
230
-1.0
 50
238.6793304115938952
 51
269.9999999999853912
  0
ARC
  5
1377B
  8
0
  6
CONTINUOUS
 62
     3
 10
-59.4930577797046993
 20
44.4999999999834586
 30
0.0
 40
7.9999999999829958
210
0.0
220
-0.0000000000000002
230
-1.0
 50
270.0
 51
301.3206695884816781
  0
ARC
  5
1377C
  8
0
  6
CONTINUOUS
 62
     3
 10
-59.4930577797046993
 20
-44.4999999999825206
 30
0.0
 40
7.9999999999829701
210
0.0
220
-0.0000000000000002
230
-1.0
 50
58.679330411562681
 51
90.0000000000444231
  0
LINE
  5
1377D
  8
0
  6
CONTINUOUS
 62
     3
 10
59.4930577797109379
 20
36.5000000000004619
 30
-0.0000000000000081
 11
69.99999999999946
 21
36.5000000000004619
 31
-0.0000000000000081
210
0.0
220
1.0
230
-0.0000000000000002
  0
LINE
  5
1377E
  8
0
  6
CONTINUOUS
 62
     3
 10
59.4930577797109024
 20
-36.4999999999995524
 30
0.0000000000000081
 11
69.99999999999946
 21
-36.4999999999995524
 31
0.0000000000000081
210
0.0
220
1.0
230
-0.0000000000000002
  0
LINE
  5
1377F
  8
0
  6
CONTINUOUS
 62
     3
 10
78.499999999999531
 20
43.4999999999998721
 30
-0.0000000000000097
 11
71.5707106781186724
 21
43.4999999999998224
 31
-0.0000000000000097
210
0.0
220
1.0
230
-0.0000000000000002
  0
LINE
  5
13780
  8
0
  6
CONTINUOUS
 62
     3
 10
78.499999999999531
 20
45.0000000000000426
 30
-0.00000000000001
 11
78.499999999999531
 21
43.4999999999998721
 31
-0.0000000000000097
210
0.0
220
1.0
230
-0.0000000000000002
  0
LINE
  5
13781
  8
0
  6
CONTINUOUS
 62
     3
 10
147.6999999999993918
 20
-1.499999999999978
 30
0.0000000000000003
 11
134.6142135623724982
 21
-1.4999999999999929
 31
0.0000000000000003
210
0.0
220
1.0
230
-0.0000000000000002
  0
ARC
  5
13782
  8
0
  6
CONTINUOUS
 62
     3
 10
-134.6142135623724982
 20
-0.4999999999999859
 30
0.0
 40
0.9999999999999928
210
0.0
220
-0.0000000000000002
230
-1.0
 50
270.0
 51
315.0000000000002842
  0
LINE
  5
13783
  8
0
  6
CONTINUOUS
 62
     3
 10
147.6999999999993918
 20
0.0000000000000213
 30
0.0
 11
147.6999999999993918
 21
-1.499999999999978
 31
0.0000000000000003
210
0.0
220
1.0
230
-0.0000000000000002
  0
LINE
  5
13784
  8
0
  6
CONTINUOUS
 62
     3
 10
133.9071067811860019
 20
-1.2071067811865319
 30
0.0000000000000003
 11
89.7857864376264558
 21
42.9142135623730283
 31
-0.0000000000000095
210
0.0
220
1.0
230
-0.0000000000000002
  0
ARC
  5
13785
  8
0
  6
CONTINUOUS
 62
     3
 10
88.3715728752533352
 20
41.4999999999998792
 30
-0.0000000000000092
 40
2.000000000000036
 50
45.0000000000005898
 51
90.0000000000000284
  0
LINE
  5
13786
  8
0
  6
CONTINUOUS
 62
     3
 10
88.3715728752533352
 20
43.4999999999998934
 30
-0.0000000000000097
 11
81.4999999999995026
 21
43.4999999999998792
 31
-0.0000000000000097
210
0.0
220
1.0
230
-0.0000000000000002
  0
LINE
  5
13787
  8
0
  6
CONTINUOUS
 62
     3
 10
81.4999999999995026
 20
43.4999999999998934
 30
-0.0000000000000097
 11
81.4999999999994742
 21
45.0000000000000426
 31
-0.00000000000001
210
0.0
220
1.0
230
-0.0000000000000002
  0
LINE
  5
13788
  8
0
  6
CONTINUOUS
 62
     3
 10
318.6493939335533128
 20
-41.9999999999999218
 30
0.0000000000000093
 11
282.183030139490711
 21
-1.4999999999999569
 31
0.0000000000000003
210
0.0
220
1.0
230
-0.0000000000000002
  0
LINE
  5
13789
  8
0
  6
CONTINUOUS
 62
     3
 10
318.6493939335533128
 20
-41.9999999999999076
 30
0.0000000000000093
 11
320.0000000000001137
 21
-43.4999999999999005
 31
0.0000000000000097
210
0.0
220
1.0
230
-0.0000000000000002
  0
LINE
  5
1378A
  8
0
  6
CONTINUOUS
 62
     3
 10
282.183030139490711
 20
-1.4999999999999569
 30
0.0000000000000003
 11
273.6830301394908247
 21
-1.4999999999999569
 31
0.0000000000000003
210
0.0
220
1.0
230
-0.0000000000000002
  0
LINE
  5
1378B
  8
0
  6
CONTINUOUS
 62
     3
 10
273.6830301394908247
 20
-1.4999999999999569
 30
0.0000000000000003
 11
273.6830301394908247
 21
0.0000000000000426
 31
0.0
210
0.0
220
1.0
230
-0.0000000000000002
  0
LINE
  5
1378C
  8
0
  6
CONTINUOUS
 62
     3
 10
273.6830301394908247
 20
0.0000000000000426
 30
0.0
 11
270.6830301394908247
 21
0.0000000000000426
 31
0.0
210
0.0
220
1.0
230
-0.0000000000000002
  0
LINE
  5
1378D
  8
0
  6
CONTINUOUS
 62
     3
 10
270.6830301394908247
 20
0.0000000000000497
 30
0.0
 11
270.6830301394908247
 21
-1.49999999999995
 31
0.0000000000000003
210
0.0
220
1.0
230
-0.0000000000000002
  0
LINE
  5
1378E
  8
0
  6
CONTINUOUS
 62
     3
 10
270.6830301394908247
 20
-1.499999999999964
 30
0.0000000000000003
 11
150.6999999999993918
 21
-1.499999999999964
 31
0.0000000000000003
210
0.0
220
1.0
230
-0.0000000000000002
  0
LINE
  5
1378F
  8
0
  6
CONTINUOUS
 62
     3
 10
150.6999999999993918
 20
-1.499999999999964
 30
0.0000000000000003
 11
150.6999999999993918
 21
0.0000000000000213
 31
0.0
210
0.0
220
1.0
230
-0.0000000000000002
  0
LINE
  5
13790
  8
0
  6
CONTINUOUS
 62
     3
 10
150.6999999999993918
 20
0.0000000000000355
 30
0.0
 11
147.6999999999993918
 21
0.0000000000000213
 31
0.0
210
0.0
220
1.0
230
-0.0000000000000002
  0
LINE
  5
13791
  8
0
  6
CONTINUOUS
 62
     3
 10
71.5707106781186866
 20
-41.9999999999999503
 30
0.0000000000000093
 11
71.5707106781186724
 21
43.4999999999998579
 31
-0.0000000000000097
210
0.0
220
1.0
230
-0.0000000000000002
  0
LINE
  5
13792
  8
0
  6
CONTINUOUS
 62
     3
 10
69.9999999999995168
 20
43.4999999999998224
 30
-0.0000000000000097
 11
70.0
 21
-42.0000000000000071
 31
0.0000000000000093
210
0.0
220
1.0
230
-0.0000000000000002
  0
LINE
  5
13793
  8
0
  6
CONTINUOUS
 62
     3
 10
73.0000000000000711
 20
-41.9999999999999503
 30
0.0000000000000093
 11
73.0000000000000711
 21
-44.9999999999999787
 31
0.00000000000001
210
0.0
220
1.0
230
-0.0000000000000002
  0
LINE
  5
13794
  8
0
  6
CONTINUOUS
 62
     3
 10
320.0000000000001137
 20
-44.9999999999999218
 30
0.00000000000001
 11
73.0000000000000568
 21
-44.9999999999999716
 31
0.00000000000001
210
0.0
220
1.0
230
-0.0000000000000002
  0
LINE
  5
13795
  8
0
  6
CONTINUOUS
 62
     3
 10
320.0000000000001137
 20
-44.9999999999999218
 30
0.00000000000001
 11
320.0000000000001137
 21
-43.4999999999999076
 31
0.0000000000000097
210
0.0
220
1.0
230
-0.0000000000000002
  0
LINE
  5
13796
  8
0
  6
CONTINUOUS
 62
     3
 10
73.0000000000000711
 20
-41.9999999999999503
 30
0.0000000000000093
 11
71.5707106781188855
 21
-41.9999999999999503
 31
0.0000000000000093
210
0.0
220
1.0
230
-0.0000000000000002
  0
LINE
  5
13797
  8
0
  6
CONTINUOUS
 62
     3
 10
78.499999999999531
 20
45.0000000000000426
 30
-0.00000000000001
 11
81.4999999999994742
 21
45.0000000000000426
 31
-0.00000000000001
210
0.0
220
1.0
230
-0.0000000000000002
  0
ARC
  5
13798
  8
0
  6
CONTINUOUS
 62
     3
 10
73.0000000000000426
 20
-41.9999999999999574
 30
0.0000000000000093
 40
3.0000000000000422
 50
180.0000000000009948
 51
269.9999999999997726
  0
LINE
  5
13799
  8
0
  6
CONTINUOUS
 62
     3
 10
71.5000000000000142
 20
-42.0000000000000071
 30
0.0000000000000093
 11
71.499999999999531
 21
43.4999999999998366
 31
-0.0000000000000097
210
0.0
220
1.0
230
-0.0000000000000002
  0
LINE
  5
1379A
  8
0
  6
CONTINUOUS
 62
     3
 10
71.5000000000000142
 20
-42.0000000000000071
 30
0.0000000000000093
 11
70.0000000000000142
 21
-42.0000000000000071
 31
0.0000000000000093
210
0.0
220
1.0
230
-0.0000000000000002
  0
ARC
  5
1379B
  8
0
  6
CONTINUOUS
 62
     3
 10
-73.0000000000000426
 20
-41.9999999999999574
 30
0.0
 40
1.5000000000000071
210
0.0
220
-0.0000000000000002
230
-1.0
 50
270.0
 51
359.9999999999974989
  0
LINE
  5
1379C
  8
0
  6
VERDECKT
 62
     1
 10
71.4999999999996305
 20
43.4999999999997726
 30
-0.0000000000000097
 11
71.4999999999996305
 21
44.999999999999801
 31
-0.00000000000001
210
0.0
220
1.0
230
-0.0000000000000002
  0
LINE
  5
1379D
  8
0
  6
VERDECKT
 62
     1
 10
81.4999999999995026
 20
43.4999999999998792
 30
-0.0000000000000097
 11
78.499999999999531
 21
43.4999999999998721
 31
-0.0000000000000097
210
0.0
220
1.0
230
-0.0000000000000002
  0
LINE
  5
1379E
  8
0
  6
VERDECKT
 62
     1
 10
150.6999999999993918
 20
-1.496660171779588
 30
0.0000000000000003
 11
147.6999999999993918
 21
-1.4966601717795951
 31
0.0000000000000003
210
0.0
220
1.0
230
-0.0000000000000002
  0
LINE
  5
1379F
  8
0
  6
VERDECKT
 62
     1
 10
273.9333398282200278
 20
0.0033398282207671
 30
0.0
 11
273.9333398282200278
 21
-1.4966601717792329
 31
0.0000000000000003
210
0.0
220
1.0
230
-0.0000000000000002
  0
LINE
  5
137A0
  8
0
  6
VERDECKT
 62
     1
 10
270.4333398282200278
 20
0.00333982822076
 30
0.0
 11
270.4333398282200278
 21
-1.4966601717792469
 31
0.0000000000000003
210
0.0
220
1.0
230
-0.0000000000000002
  0
LINE
  5
137A1
  8
0
  6
VERDECKT
 62
     1
 10
0.5071419140880119
 20
38.1718923361109006
 30
-0.0000000000000085
 11
0.5071419140880074
 21
-38.1718923361099769
 31
0.0000000000000085
210
0.0
220
1.0
230
-0.0000000000000002
  0
ARC
  5
137A2
  8
0
  6
VERDECKT
 62
     1
 10
-59.4930577797046567
 20
44.499999999983352
 30
0.0
 40
9.1999999999829356
210
0.0
220
-0.0000000000000002
230
-1.0
 50
270.0
 51
301.3206695884770738
  0
ARC
  5
137A3
  8
0
  6
VERDECKT
 62
     1
 10
-59.4930577797046922
 20
-44.4999999999824993
 30
0.0
 40
9.1999999999829942
210
0.0
220
-0.0000000000000002
230
-1.0
 50
58.6793304115669017
 51
90.0000000000438405
  0
ARC
  5
137A4
  8
0
  6
VERDECKT
 62
     1
 10
-49.1484939899687916
 20
27.4999999999953317
 30
0.0
 40
10.7000000000047102
210
0.0
220
-0.0000000000000002
230
-1.0
 50
90.0000000000111982
 51
121.3206695884101975
  0
ARC
  5
137A5
  8
0
  6
VERDECKT
 62
     1
 10
-49.1484939899688484
 20
-27.4999999999945892
 30
0.0
 40
10.7000000000045308
210
0.0
220
-0.0000000000000002
230
-1.0
 50
238.6793304115896035
 51
269.9999999999891998
  0
LINE
  5
137A6
  8
0
  6
VERDECKT
 62
     1
 10
49.1484939899708593
 20
-38.1999999999991502
 30
0.0000000000000085
 11
28.8718289426864807
 21
-38.1999999999991502
 31
0.0000000000000085
210
0.0
220
1.0
230
-0.0000000000000002
  0
LINE
  5
137A7
  8
0
  6
VERDECKT
 62
     1
 10
49.1484939899708806
 20
38.2000000000000526
 30
-0.0000000000000085
 11
28.8718289426865091
 21
38.2000000000000526
 31
-0.0000000000000085
210
0.0
220
1.0
230
-0.0000000000000002
  0
ARC
  5
137A8
  8
0
  6
VERDECKT
 62
     1
 10
-28.871828942682491
 20
51.8999999999712003
 30
0.0
 40
13.6999999999711406
210
0.0
220
-0.0000000000000002
230
-1.0
 50
269.9999999999831175
 51
291.1600167708493245
  0
ARC
  5
137A9
  8
0
  6
VERDECKT
 62
     1
 10
-28.8718289426825017
 20
-51.89999999997044
 30
0.0
 40
13.6999999999712898
210
0.0
220
-0.0000000000000002
230
-1.0
 50
68.8399832291504339
 51
90.0000000000165983
  0
ARC
  5
137AA
  8
0
  6
VERDECKT
 62
     1
 10
-15.4262594256527699
 20
16.9941909850673305
 30
0.0
 40
23.7058952308684709
210
0.0
220
-0.0000000000000002
230
-1.0
 50
89.8454733624222683
 51
111.0124127937331053
  0
ARC
  5
137AB
  8
0
  6
VERDECKT
 62
     1
 10
-15.4262594256527894
 20
-16.9941909850664494
 30
0.0
 40
23.7058952308684496
210
0.0
220
-0.0000000000000002
230
-1.0
 50
248.9875872062671078
 51
270.1545266375778169
  0
LINE
  5
137AC
  8
0
  6
VERDECKT
 62
     1
 10
15.3623247367273201
 20
-40.6999999999991431
 30
0.000000000000009
 11
11.1828497997181007
 21
-40.6999999999991431
 31
0.000000000000009
210
0.0
220
1.0
230
-0.0000000000000002
  0
LINE
  5
137AD
  8
0
  6
VERDECKT
 62
     1
 10
15.3623247367273503
 20
40.7000000000000526
 30
-0.000000000000009
 11
11.1828497997181309
 21
40.7000000000000526
 31
-0.000000000000009
210
0.0
220
1.0
230
-0.0000000000000002
  0
ARC
  5
137AE
  8
0
  6
VERDECKT
 62
     1
 10
-11.1828497997151697
 20
17.0000000000709406
 30
0.0
 40
23.6999999999291084
210
0.0
220
-0.0000000000000002
230
-1.0
 50
64.9999999999557758
 51
90.0000000000071338
  0
ARC
  5
137AF
  8
0
  6
VERDECKT
 62
     1
 10
-11.1828497997151199
 20
-17.0000000000702798
 30
0.0
 40
23.6999999999288598
210
0.0
220
-0.0000000000000002
230
-1.0
 50
270.0
 51
295.0000000000511022
  0
LINE
  5
137B0
  8
0
  6
VERDECKT
 62
     1
 10
0.5071419140880119
 20
38.1718923361106732
 30
-0.0000000000000085
 11
1.1667969964739771
 21
38.4794945527675765
 31
-0.0000000000000085
210
0.0
220
1.0
230
-0.0000000000000002
  0
LINE
  5
137B1
  8
0
  6
VERDECKT
 62
     1
 10
0.5071419140880729
 20
-38.1718923361097779
 30
0.0000000000000085
 11
1.1667969964741249
 21
-38.4794945527667522
 31
0.0000000000000085
210
0.0
220
1.0
230
-0.0000000000000002
  0
LINE
  5
137B2
  8
0
  6
VERDECKT
 62
     1
 10
0.5071419140879591
 20
-38.1718923361099769
 30
0.0000000000000085
 11
-0.0000000000001056
 21
-39.2594616805541108
 31
0.0000000000000087
210
0.0
220
1.0
230
-0.0000000000000002
  0
LINE
  5
137B3
  8
0
  6
VERDECKT
 62
     1
 10
0.5071419140880556
 20
38.1718923361106874
 30
-0.0000000000000085
 11
-0.0000000000000961
 21
39.2594616805550132
 31
-0.0000000000000087
210
0.0
220
1.0
230
-0.0000000000000002
  0
LINE
  5
137B4
  8
0
  6
VERDECKT
 62
     1
 10
59.4930577797117266
 20
35.3000000000004235
 30
-0.0000000000000078
 11
69.99999999999946
 21
35.3000000000004235
 31
-0.0000000000000078
210
0.0
220
1.0
230
-0.0000000000000002
  0
LINE
  5
137B5
  8
0
  6
VERDECKT
 62
     1
 10
59.4930577797117266
 20
-35.2999999999995069
 30
0.0000000000000078
 11
69.99999999999946
 21
-35.2999999999995069
 31
0.0000000000000078
210
0.0
220
1.0
230
-0.0000000000000002
  0
LINE
  5
137B6
  8
0
  6
VERDECKT
 62
     1
 10
73.0000000000000568
 20
-43.4999999999999574
 30
0.0000000000000097
 11
320.0000000000001137
 21
-43.4999999999999076
 31
0.0000000000000097
210
0.0
220
1.0
230
-0.0000000000000002
  0
LINE
  5
137B7
  8
0
  6
VERDECKT
 62
     1
 10
69.9999999999995737
 20
35.0
 30
-0.0000000000000078
 11
71.4999999999995737
 21
35.0000000000000071
 31
-0.0000000000000078
210
0.0
220
1.0
230
-0.0000000000000002
  0
LINE
  5
137B8
  8
0
  6
VERDECKT
 62
     1
 10
69.9999999999999716
 20
-35.0000000000000213
 30
0.0000000000000078
 11
71.4999999999999716
 21
-35.0000000000000071
 31
0.0000000000000078
210
0.0
220
1.0
230
-0.0000000000000002
  0
ENDBLK
  5
137BA
  8
0
  0
BLOCK
  8
0
  2
A$CE9D553FE
 70
     0
 10
0.0
 20
0.0
 30
0.0
  3
A$CE9D553FE
  1

  0
LINE
  5
137BE
  8
0
  6
CONTINUOUS
 62
     3
 10
-25.2999999999998799
 20
43.4999999999997797
 30
-0.0000000000000097
 11
-25.2999999999998799
 21
44.9999999999998082
 31
-0.00000000000001
210
-0.0000000000000002
220
1.0
230
-0.0000000000000002
  0
LINE
  5
137BF
  8
0
  6
CONTINUOUS
 62
     3
 10
-25.2999999999998799
 20
44.9999999999998224
 30
-0.00000000000001
 11
-25.0499999999999794
 21
44.9999999999998224
 31
-0.00000000000001
210
-0.0000000000000002
220
1.0
230
-0.0000000000000002
  0
LINE
  5
137C0
  8
0
  6
CONTINUOUS
 62
     3
 10
-22.0500000000000185
 20
44.9999999999998224
 30
-0.00000000000001
 11
-21.7999999999998906
 21
44.9999999999998224
 31
-0.00000000000001
210
-0.0000000000000002
220
1.0
230
-0.0000000000000002
  0
LINE
  5
137C1
  8
0
  6
CONTINUOUS
 62
     3
 10
-21.7999999999998906
 20
44.9999999999998082
 30
-0.00000000000001
 11
-21.7999999999998906
 21
43.4999999999997797
 31
-0.0000000000000097
210
-0.0000000000000002
220
1.0
230
-0.0000000000000002
  0
LINE
  5
137C2
  8
0
  6
CONTINUOUS
 62
     3
 10
21.8000000000000895
 20
43.4999999999997868
 30
-0.0000000000000097
 11
21.8000000000000895
 21
44.9999999999998224
 31
-0.00000000000001
210
-0.0000000000000002
220
1.0
230
-0.0000000000000002
  0
LINE
  5
137C3
  8
0
  6
CONTINUOUS
 62
     3
 10
21.8000000000000895
 20
44.9999999999998366
 30
-0.00000000000001
 11
22.0499999999999901
 21
44.9999999999998366
 31
-0.00000000000001
210
-0.0000000000000002
220
1.0
230
-0.0000000000000002
  0
LINE
  5
137C4
  8
0
  6
CONTINUOUS
 62
     3
 10
25.049999999999951
 20
44.9999999999998366
 30
-0.00000000000001
 11
25.3000000000000789
 21
44.9999999999998366
 31
-0.00000000000001
210
-0.0000000000000002
220
1.0
230
-0.0000000000000002
  0
LINE
  5
137C5
  8
0
  6
CONTINUOUS
 62
     3
 10
25.3000000000000789
 20
44.9999999999998224
 30
-0.00000000000001
 11
25.3000000000000789
 21
43.4999999999997868
 31
-0.0000000000000097
210
-0.0000000000000002
220
1.0
230
-0.0000000000000002
  0
LINE
  5
137C6
  8
0
  6
CONTINUOUS
 62
     3
 10
-25.2999999999998799
 20
43.499999999999801
 30
-0.0000000000000097
 11
-45.0
 21
43.499999999999801
 31
-0.0000000000000097
210
-0.0000000000000002
220
1.0
230
-0.0000000000000002
  0
LINE
  5
137C7
  8
0
  6
CONTINUOUS
 62
     3
 10
45.0
 20
43.4999999999998224
 30
-0.0000000000000097
 11
25.3000000000000789
 21
43.4999999999998224
 31
-0.0000000000000097
210
-0.0000000000000002
220
1.0
230
-0.0000000000000002
  0
LINE
  5
137C8
  8
0
  6
CONTINUOUS
 62
     3
 10
21.8000000000000895
 20
43.4999999999998224
 30
-0.0000000000000097
 11
-21.7999999999998906
 21
43.499999999999801
 31
-0.0000000000000097
210
-0.0000000000000002
220
1.0
230
-0.0000000000000002
  0
LINE
  5
137C9
  8
0
  6
CONTINUOUS
 62
     3
 10
-25.2999999999998799
 20
44.9999999999998082
 30
-0.00000000000001
 11
-45.0
 21
44.9999999999998082
 31
-0.00000000000001
210
-0.0000000000000002
220
1.0
230
-0.0000000000000002
  0
LINE
  5
137CA
  8
0
  6
CONTINUOUS
 62
     3
 10
-45.0
 20
43.499999999999801
 30
-0.0000000000000097
 11
-45.0
 21
44.9999999999998082
 31
-0.00000000000001
210
-0.0000000000000002
220
1.0
230
-0.0000000000000002
  0
LINE
  5
137CB
  8
0
  6
CONTINUOUS
 62
     3
 10
45.0
 20
43.4999999999998224
 30
-0.0000000000000097
 11
45.0
 21
44.9999999999998224
 31
-0.00000000000001
210
-0.0000000000000002
220
1.0
230
-0.0000000000000002
  0
LINE
  5
137CC
  8
0
  6
CONTINUOUS
 62
     3
 10
45.0
 20
44.9999999999998224
 30
-0.00000000000001
 11
25.3000000000000789
 21
44.9999999999998224
 31
-0.00000000000001
210
-0.0000000000000002
220
1.0
230
-0.0000000000000002
  0
LINE
  5
137CD
  8
0
  6
CONTINUOUS
 62
     3
 10
43.5000000000000497
 20
-1.496660171779628
 30
0.0000000000000003
 11
43.4292893218813276
 21
-1.4966601717796291
 31
0.0000000000000003
210
-0.0000000000000002
220
1.0
230
-0.0000000000000002
  0
LINE
  5
137CE
  8
0
  6
CONTINUOUS
 62
     3
 10
34.9679854771505205
 20
-1.49666017177963
 30
0.0000000000000003
 11
-34.9679854771505205
 21
-1.4966601717796459
 31
0.0000000000000003
210
-0.0000000000000002
220
1.0
230
-0.0000000000000002
  0
LINE
  5
137CF
  8
0
  6
CONTINUOUS
 62
     3
 10
-43.4292893218813205
 20
-1.4966601717796479
 30
0.0000000000000003
 11
-43.5000000000000497
 21
-1.4966601717796479
 31
0.0000000000000003
210
-0.0000000000000002
220
1.0
230
-0.0000000000000002
  0
LINE
  5
137D0
  8
0
  6
CONTINUOUS
 62
     3
 10
21.8000000000000895
 20
44.9999999999998224
 30
-0.00000000000001
 11
-21.7999999999998906
 21
44.9999999999998082
 31
-0.00000000000001
210
-0.0000000000000002
220
1.0
230
-0.0000000000000002
  0
CIRCLE
  5
137D1
  8
0
  6
CONTINUOUS
 62
     3
 10
-0.0000000000000116
 20
0.0000000000004547
 30
0.0
 40
39.25946168055453
  0
CIRCLE
  5
137D2
  8
0
  6
CONTINUOUS
 62
     3
 10
-0.0000000000000109
 20
0.0000000000004547
 30
0.0
 40
41.8999999999996433
  0
CIRCLE
  5
137D3
  8
0
  6
CONTINUOUS
 62
     3
 10
-0.0000000000000079
 20
0.0000000000004547
 30
0.0
 40
35.2999999999999616
  0
CIRCLE
  5
137D4
  8
0
  6
CONTINUOUS
 62
     3
 10
-0.0000000000000116
 20
0.0000000000004547
 30
0.0
 40
38.1718923361102114
  0
CIRCLE
  5
137D5
  8
0
  6
CONTINUOUS
 62
     3
 10
0.0000000000000106
 20
0.0000000000004547
 30
0.0
 40
41.9000862159354028
210
0.0
220
-0.0000000000000002
230
-1.0
  0
LINE
  5
137D6
  8
0
  6
CONTINUOUS
 62
     3
 10
-22.0500000000000185
 20
45.0
 30
-0.00000000000001
 11
-25.0499999999999794
 21
45.0
 31
-0.00000000000001
210
-0.0000000000000002
220
1.0
230
-0.0000000000000002
  0
LINE
  5
137D7
  8
0
  6
CONTINUOUS
 62
     3
 10
-25.0499999999999794
 20
43.499999999999801
 30
-0.0000000000000097
 11
-25.0499999999999794
 21
45.0
 31
-0.00000000000001
210
-0.0000000000000002
220
1.0
230
-0.0000000000000002
  0
LINE
  5
137D8
  8
0
  6
CONTINUOUS
 62
     3
 10
-22.0500000000000185
 20
43.499999999999801
 30
-0.0000000000000097
 11
-22.0500000000000185
 21
45.0
 31
-0.00000000000001
210
-0.0000000000000002
220
1.0
230
-0.0000000000000002
  0
LINE
  5
137D9
  8
0
  6
CONTINUOUS
 62
     3
 10
-25.0499999999999794
 20
43.4999999999998224
 30
-0.0000000000000097
 11
-43.4292893218813205
 21
43.4999999999998224
 31
-0.0000000000000097
210
-0.0000000000000002
220
1.0
230
-0.0000000000000002
  0
LINE
  5
137DA
  8
0
  6
CONTINUOUS
 62
     3
 10
25.049999999999951
 20
45.0000000000000213
 30
-0.00000000000001
 11
22.0499999999999901
 21
45.0000000000000213
 31
-0.00000000000001
210
-0.0000000000000002
220
1.0
230
-0.0000000000000002
  0
LINE
  5
137DB
  8
0
  6
CONTINUOUS
 62
     3
 10
22.0499999999999901
 20
43.4999999999998224
 30
-0.0000000000000097
 11
22.0499999999999901
 21
45.0000000000000213
 31
-0.00000000000001
210
-0.0000000000000002
220
1.0
230
-0.0000000000000002
  0
LINE
  5
137DC
  8
0
  6
CONTINUOUS
 62
     3
 10
25.049999999999951
 20
43.4999999999998224
 30
-0.0000000000000097
 11
25.049999999999951
 21
45.0000000000000213
 31
-0.00000000000001
210
-0.0000000000000002
220
1.0
230
-0.0000000000000002
  0
LINE
  5
137DD
  8
0
  6
CONTINUOUS
 62
     3
 10
22.0499999999999901
 20
43.4999999999998295
 30
-0.0000000000000097
 11
-22.0500000000000185
 21
43.4999999999998224
 31
-0.0000000000000097
210
-0.0000000000000002
220
1.0
230
-0.0000000000000002
  0
LINE
  5
137DE
  8
0
  6
CONTINUOUS
 62
     3
 10
43.4292893218813276
 20
43.4999999999998295
 30
-0.0000000000000097
 11
25.049999999999951
 21
43.4999999999998295
 31
-0.0000000000000097
210
-0.0000000000000002
220
1.0
230
-0.0000000000000002
  0
LINE
  5
137DF
  8
0
  6
CONTINUOUS
 62
     3
 10
43.4999999999999929
 20
-41.9999999999999574
 30
0.0000000000000093
 11
43.5000000000001279
 21
43.4999999999998792
 31
-0.0000000000000097
210
-0.0000000000000002
220
1.0
230
-0.0000000000000002
  0
LINE
  5
137E0
  8
0
  6
CONTINUOUS
 62
     3
 10
43.4999999999999929
 20
-41.9999999999999574
 30
0.0000000000000093
 11
44.9999999999999929
 21
-41.9999999999999574
 31
0.0000000000000093
210
-0.0000000000000002
220
1.0
230
-0.0000000000000002
  0
LINE
  5
137E1
  8
0
  6
CONTINUOUS
 62
     3
 10
44.9999999999999929
 20
-41.9999999999999574
 30
0.0000000000000093
 11
45.0000000000001279
 21
43.4999999999998792
 31
-0.0000000000000097
210
-0.0000000000000002
220
1.0
230
-0.0000000000000002
  0
LINE
  5
137E2
  8
0
  6
CONTINUOUS
 62
     3
 10
-43.4292893218813632
 20
-42.0000000000000284
 30
0.0000000000000093
 11
-43.4292893218813703
 21
43.4999999999998295
 31
-0.0000000000000097
210
-0.0000000000000002
220
1.0
230
-0.0000000000000002
  0
LINE
  5
137E3
  8
0
  6
CONTINUOUS
 62
     3
 10
-41.9999999999999929
 20
-42.0000000000000284
 30
0.0000000000000093
 11
-43.4292893218812992
 21
-42.0000000000000284
 31
0.0000000000000093
210
-0.0000000000000002
220
1.0
230
-0.0000000000000002
  0
LINE
  5
137E4
  8
0
  6
CONTINUOUS
 62
     3
 10
43.4292893218813489
 20
-42.0000000000000071
 30
0.0000000000000093
 11
42.0000000000000284
 21
-42.0000000000000071
 31
0.0000000000000093
210
-0.0000000000000002
220
1.0
230
-0.0000000000000002
  0
LINE
  5
137E5
  8
0
  6
CONTINUOUS
 62
     3
 10
43.4292893218813205
 20
43.4999999999998508
 30
-0.0000000000000097
 11
43.4292893218813276
 21
-42.0000000000000071
 31
0.0000000000000093
210
-0.0000000000000002
220
1.0
230
-0.0000000000000002
  0
CIRCLE
  5
137E6
  8
0
  6
CONTINUOUS
 62
     3
 10
-0.0000000000000055
 20
-0.0000000000000071
 30
0.0
 40
35.0000000000000071
210
0.0
220
-0.0000000000000002
230
-1.0
  0
LINE
  5
137E7
  8
0
  6
CONTINUOUS
 62
     3
 10
-45.0000000000001492
 20
43.4999999999998579
 30
-0.0000000000000097
 11
-44.9999999999999787
 21
-41.9999999999999787
 31
0.0000000000000093
210
-0.0000000000000002
220
1.0
230
-0.0000000000000002
  0
ARC
  5
137E8
  8
0
  6
CONTINUOUS
 62
     3
 10
41.9999999999999787
 20
-41.9999999999999574
 30
0.0000000000000093
 40
1.500000000000014
 50
270.0
 51
359.9999999999996021
  0
ARC
  5
137E9
  8
0
  6
CONTINUOUS
 62
     3
 10
-41.9999999999999787
 20
-41.9999999999999787
 30
0.0000000000000093
 40
2.9999999999999929
 50
179.999999999999801
 51
270.0
  0
ARC
  5
137EA
  8
0
  6
CONTINUOUS
 62
     3
 10
41.9999999999999929
 20
-42.0
 30
0.0
 40
1.499999999999996
210
0.0
220
-0.0000000000000002
230
-1.0
 50
270.0
 51
0.000000000001145
  0
ARC
  5
137EB
  8
0
  6
CONTINUOUS
 62
     3
 10
41.9999999999999787
 20
-41.9999999999999716
 30
0.0000000000000093
 40
3.0000000000000111
 50
270.0000000000002274
 51
0.0000000000001514
  0
LINE
  5
137EC
  8
0
  6
CONTINUOUS
 62
     3
 10
-41.9999999999999929
 20
-42.0000000000000284
 30
0.0000000000000093
 11
-41.9999999999999929
 21
-44.9999999999999929
 31
0.00000000000001
210
-0.0000000000000002
220
1.0
230
-0.0000000000000002
  0
LINE
  5
137ED
  8
0
  6
CONTINUOUS
 62
     3
 10
41.9999999999999929
 20
-44.9999999999999787
 30
0.00000000000001
 11
-42.0000000000000071
 21
-44.9999999999999929
 31
0.00000000000001
210
-0.0000000000000002
220
1.0
230
-0.0000000000000002
  0
LINE
  5
137EE
  8
0
  6
CONTINUOUS
 62
     3
 10
42.0000000000000071
 20
-45.0000000000000071
 30
0.00000000000001
 11
42.0000000000000071
 21
-42.0000000000000213
 31
0.0000000000000093
210
-0.0000000000000002
220
1.0
230
-0.0000000000000002
  0
LINE
  5
137EF
  8
0
  6
CONTINUOUS
 62
     3
 10
-43.4999999999999574
 20
-41.9999999999999787
 30
0.0000000000000093
 11
-43.5000000000001421
 21
43.4999999999998579
 31
-0.0000000000000097
210
-0.0000000000000002
220
1.0
230
-0.0000000000000002
  0
LINE
  5
137F0
  8
0
  6
CONTINUOUS
 62
     3
 10
-43.4999999999999574
 20
-41.9999999999999787
 30
0.0000000000000093
 11
-44.9999999999999787
 21
-41.9999999999999787
 31
0.0000000000000093
210
-0.0000000000000002
220
1.0
230
-0.0000000000000002
  0
LINE
  5
137F1
  8
0
  6
VERDECKT
 62
     1
 10
-22.0500000000000185
 20
43.4999999999998224
 30
-0.0000000000000097
 11
-25.0499999999999794
 21
43.4999999999998224
 31
-0.0000000000000097
210
-0.0000000000000002
220
1.0
230
-0.0000000000000002
  0
LINE
  5
137F2
  8
0
  6
VERDECKT
 62
     1
 10
25.049999999999951
 20
43.4999999999998295
 30
-0.0000000000000097
 11
22.0499999999999901
 21
43.4999999999998295
 31
-0.0000000000000097
210
-0.0000000000000002
220
1.0
230
-0.0000000000000002
  0
LINE
  5
137F3
  8
0
  6
VERDECKT
 62
     1
 10
-44.9999999999999929
 20
0.0033398282203592
 30
0.0
 11
45.0000000000000213
 21
0.0033398282203792
 31
0.0
210
-0.0000000000000002
220
1.0
230
-0.0000000000000002
  0
LINE
  5
137F4
  8
0
  6
VERDECKT
 62
     1
 10
45.0000000000000213
 20
-1.496660171779628
 30
0.0000000000000003
 11
43.5000000000000497
 21
-1.496660171779628
 31
0.0000000000000003
210
-0.0000000000000002
220
1.0
230
-0.0000000000000002
  0
LINE
  5
137F5
  8
0
  6
VERDECKT
 62
     1
 10
43.4292893218813276
 20
-1.4966601717796291
 30
0.0000000000000003
 11
34.9679854771505205
 21
-1.49666017177963
 31
0.0000000000000003
210
-0.0000000000000002
220
1.0
230
-0.0000000000000002
  0
LINE
  5
137F6
  8
0
  6
VERDECKT
 62
     1
 10
-34.9679854771505134
 20
-1.4966601717796459
 30
0.0000000000000003
 11
-43.4292893218813205
 21
-1.4966601717796479
 31
0.0000000000000003
210
-0.0000000000000002
220
1.0
230
-0.0000000000000002
  0
LINE
  5
137F7
  8
0
  6
VERDECKT
 62
     1
 10
-43.5000000000000497
 20
-1.4966601717796479
 30
0.0000000000000003
 11
-45.0000000000000071
 21
-1.4966601717796479
 31
0.0000000000000003
210
-0.0000000000000002
220
1.0
230
-0.0000000000000002
  0
LINE
  5
137F8
  8
0
  6
VERDECKT
 62
     1
 10
43.5
 20
43.4999999999998792
 30
-0.0000000000000097
 11
43.5
 21
44.9999999999998792
 31
-0.00000000000001
210
-0.0000000000000002
220
1.0
230
-0.0000000000000002
  0
LINE
  5
137F9
  8
0
  6
VERDECKT
 62
     1
 10
-43.5000000000000213
 20
43.4999999999998579
 30
-0.0000000000000097
 11
-43.5000000000000213
 21
44.9999999999998579
 31
-0.00000000000001
210
-0.0000000000000002
220
1.0
230
-0.0000000000000002
  0
CIRCLE
  5
137FA
  8
0
  6
VERDECKT
 62
     1
 10
-0.0000000000000098
 20
0.0000000000004547
 30
0.0
 40
39.3999999999996433
  0
CIRCLE
  5
137FB
  8
0
  6
VERDECKT
 62
     1
 10
-0.0000000000000079
 20
0.0000000000004547
 30
0.0
 40
36.5000000000000071
  0
CIRCLE
  5
137FC
  8
0
  6
VERDECKT
 62
     1
 10
-0.0000000000000098
 20
0.0000000000004547
 30
0.0
 40
38.1999999999995978
  0
CIRCLE
  5
137FD
  8
0
  6
VERDECKT
 62
     1
 10
-0.0000000000000109
 20
0.0000000000004547
 30
0.0
 40
40.6999999999995978
  0
CIRCLE
  5
137FE
  8
0
  6
VERDECKT
 62
     1
 10
0.0000000000000106
 20
0.0000000000004547
 30
0.0
 40
40.7000862159353503
210
0.0
220
-0.0000000000000002
230
-1.0
  0
LINE
  5
137FF
  8
0
  6
VERDECKT
 62
     1
 10
-45.0000000000000568
 20
-1.5000000000000031
 30
0.0000000000000003
 11
-43.5000000000000568
 21
-1.5000000000000031
 31
0.0000000000000003
210
-0.0000000000000002
220
1.0
230
-0.0000000000000002
  0
LINE
  5
13800
  8
0
  6
VERDECKT
 62
     1
 10
43.5000000000000711
 20
-1.4999999999999829
 30
0.0000000000000003
 11
45.0000000000000782
 21
-1.4999999999999829
 31
0.0000000000000003
210
-0.0000000000000002
220
1.0
230
-0.0000000000000002
  0
LINE
  5
13801
  8
0
  6
VERDECKT
 62
     1
 10
-45.0000000000000497
 20
0.0000000000000113
 30
0.0
 11
-43.5000000000000497
 21
0.0000000000000117
 31
0.0
210
-0.0000000000000002
220
1.0
230
-0.0000000000000002
  0
LINE
  5
13802
  8
0
  6
VERDECKT
 62
     1
 10
43.5000000000000782
 20
0.000000000000031
 30
0.0
 11
45.0000000000000924
 21
0.0000000000000313
 31
0.0
210
-0.0000000000000002
220
1.0
230
-0.0000000000000002
  0
LINE
  5
13803
  8
0
  6
VERDECKT
 62
     1
 10
-44.5980762113532592
 20
-43.5000000000000071
 30
0.0000000000000097
 11
-41.9999999999999574
 21
-43.5000000000000071
 31
0.0000000000000097
210
-0.0000000000000002
220
1.0
230
-0.0000000000000002
  0
LINE
  5
13804
  8
0
  6
VERDECKT
 62
     1
 10
42.0000000000000497
 20
-43.5
 30
0.0000000000000097
 11
44.5980762113533586
 21
-43.5
 31
0.0000000000000097
210
-0.0000000000000002
220
1.0
230
-0.0000000000000002
  0
LINE
  5
13805
  8
0
  6
VERDECKT
 62
     1
 10
-42.0000000000000071
 20
-43.4999999999999929
 30
0.0000000000000097
 11
41.9999999999999929
 21
-43.4999999999999716
 31
0.0000000000000097
210
-0.0000000000000002
220
1.0
230
-0.0000000000000002
  0
ENDBLK
  5
13807
  8
0
  0
ENDSEC
  0
SECTION
  2
ENTITIES
  0
INSERT
  5
48E5
  8
ADSK_ASSOC_ENTITY_BACKUPS
  2
*S0
 10
0.0
 20
0.0
 30
0.0
  0
INSERT
  5
13750
  8
STEMPEL
  2
A$C39E6E8B8
 10
0.0
 20
-120.0
 30
0.0
  0
INSERT
  5
137BB
  8
STEMPEL
  2
A$C4E185416
 10
0.0
 20
0.0
 30
0.0
  0
INSERT
  5
13808
  8
STEMPEL
  2
A$CE9D553FE
 10
400.0
 20
0.0
 30
0.0
  0
VIEWPORT
  5
3E7B
 67
     1
  8
0
 10
143.4805465455702915
 20
84.0200524726618738
 30
0.0
 40
9.4724799949123728
 41
5.025772917008708
 68
     1
 69
     1
1001
ACAD
1000
MVIEW
1002
{
1070
    16
1010
0.0
1020
0.0
1030
0.0
1010
0.0
1020
0.0
1030
1.0
1040
0.0
1040
5.025772917008708
1040
143.4805465455702915
1040
84.0200524726618738
1040
50.0
1040
0.0
1040
0.0
1070
     0
1070
  1500
1070
     1
1070
     1
1070
     0
1070
     0
1070
     0
1070
     2
1040
0.0
1040
0.0
1040
0.0
1040
10.0
1040
10.0
1040
10.0
1040
10.0
1070
     0
1002
{
1002
}
1002
}
  0
CIRCLE
  5
12190
 67
     1
  8
INDEX
 62
   152
 10
143.4805469849063115
 20
84.0200526585217631
 30
0.0
 40
2.5
  0
TEXT
  5
12191
 67
     1
  8
INDEX
 62
   152
 10
142.6805469849063002
 20
82.5200526585217631
 30
0.0
 40
3.0
  1
D
 41
0.8
 72
     4
 11
143.4805469849063115
 21
84.0200526585217631
 31
0.0
  0
ENDSEC
  0
EOF
