  0
SECTION
  2
HEADER
  9
$ACADVER
  1
AC1009
  9
$INSBASE
 10
0.0
 20
0.0
 30
0.0
  9
$EXTMIN
 10
-209.3938644525293
 20
45.9247446457168422
 30
19.8119978228497295
  9
$EXTMAX
 10
206.2939478053037874
 20
210.2399375609805077
 30
19.8119978228498006
  9
$LIMMIN
 10
0.0
 20
0.0
  9
$LIMMAX
 10
839.9999999999997726
 20
594.0000000000001137
  9
$ORTHOMODE
 70
     1
  9
$REGENMODE
 70
     1
  9
$FILLMODE
 70
     1
  9
$QTEXTMODE
 70
     0
  9
$MIRRTEXT
 70
     1
  9
$DRAGMODE
 70
     2
  9
$LTSCALE
 40
10.0
  9
$OSMODE
 70
  2495
  9
$ATTMODE
 70
     1
  9
$TEXTSIZE
 40
2.5
  9
$TRACEWID
 40
0.5
  9
$TEXTSTYLE
  7
GREEKS
  9
$CLAYER
  8
STEMPEL
  9
$CELTYPE
  6
BYLAYER
  9
$CECOLOR
 62
   256
  9
$DIMSCALE
 40
1.0
  9
$DIMASZ
 40
3.5
  9
$DIMEXO
 40
1.0
  9
$DIMDLI
 40
1.0
  9
$DIMRND
 40
0.0
  9
$DIMDLE
 40
0.0
  9
$DIMEXE
 40
1.0
  9
$DIMTP
 40
0.0
  9
$DIMTM
 40
2.0
  9
$DIMTXT
 40
3.5
  9
$DIMCEN
 40
0.09
  9
$DIMTSZ
 40
0.0
  9
$DIMTOL
 70
     0
  9
$DIMLIM
 70
     0
  9
$DIMTIH
 70
     0
  9
$DIMTOH
 70
     0
  9
$DIMSE1
 70
     0
  9
$DIMSE2
 70
     0
  9
$DIMTAD
 70
     1
  9
$DIMZIN
 70
     8
  9
$DIMBLK
  1

  9
$DIMASO
 70
     1
  9
$DIMSHO
 70
     0
  9
$DIMPOST
  1

  9
$DIMAPOST
  1

  9
$DIMALT
 70
     0
  9
$DIMALTD
 70
     2
  9
$DIMALTF
 40
25.3999999999999986
  9
$DIMLFAC
 40
1.0
  9
$DIMTOFL
 70
     1
  9
$DIMTVP
 40
0.0
  9
$DIMTIX
 70
     0
  9
$DIMSOXD
 70
     0
  9
$DIMSAH
 70
     0
  9
$DIMBLK1
  1

  9
$DIMBLK2
  1

  9
$DIMSTYLE
  2
STANDARD
  9
$DIMCLRD
 70
   256
  9
$DIMCLRE
 70
     0
  9
$DIMCLRT
 70
     1
  9
$DIMTFAC
 40
0.5
  9
$DIMGAP
 40
1.1999999999999991
  9
$LUNITS
 70
     2
  9
$LUPREC
 70
     2
  9
$SKETCHINC
 40
1.0
  9
$FILLETRAD
 40
5.0
  9
$AUNITS
 70
     0
  9
$AUPREC
 70
     0
  9
$MENU
  1
ACAD
  9
$ELEVATION
 40
0.0
  9
$PELEVATION
 40
0.0
  9
$THICKNESS
 40
0.0
  9
$LIMCHECK
 70
     0
  9
$BLIPMODE
 70
     0
  9
$CHAMFERA
 40
0.0
  9
$CHAMFERB
 40
0.0
  9
$SKPOLY
 70
     0
  9
$TDCREATE
 40
2452806.2369097219780087
  9
$TDUPDATE
 40
2459550.4359837961383164
  9
$TDINDWG
 40
2.2259054976999999
  9
$TDUSRTIMER
 40
2.2259054976999999
  9
$USRTIMER
 70
     1
  9
$ANGBASE
 50
0.0
  9
$ANGDIR
 70
     0
  9
$PDMODE
 70
     0
  9
$PDSIZE
 40
0.0
  9
$PLINEWID
 40
0.0
  9
$COORDS
 70
     1
  9
$SPLFRAME
 70
     0
  9
$SPLINETYPE
 70
     6
  9
$SPLINESEGS
 70
     8
  9
$ATTDIA
 70
     1
  9
$ATTREQ
 70
     1
  9
$HANDLING
 70
     1
  9
$HANDSEED
  5
14706
  9
$SURFTAB1
 70
     6
  9
$SURFTAB2
 70
     6
  9
$SURFTYPE
 70
     6
  9
$SURFU
 70
     6
  9
$SURFV
 70
     6
  9
$UCSNAME
  2

  9
$UCSORG
 10
0.0
 20
0.0
 30
0.0
  9
$UCSXDIR
 10
1.0
 20
0.0
 30
0.0
  9
$UCSYDIR
 10
0.0
 20
1.0
 30
0.0
  9
$PUCSNAME
  2

  9
$PUCSORG
 10
0.0
 20
0.0
 30
0.0
  9
$PUCSXDIR
 10
1.0
 20
0.0
 30
0.0
  9
$PUCSYDIR
 10
0.0
 20
1.0
 30
0.0
  9
$USERI1
 70
     0
  9
$USERI2
 70
     0
  9
$USERI3
 70
     0
  9
$USERI4
 70
     0
  9
$USERI5
 70
     0
  9
$USERR1
 40
0.0
  9
$USERR2
 40
0.0
  9
$USERR3
 40
0.0
  9
$USERR4
 40
0.0
  9
$USERR5
 40
0.0
  9
$WORLDVIEW
 70
     1
  9
$SHADEDGE
 70
     3
  9
$SHADEDIF
 70
    70
  9
$TILEMODE
 70
     1
  9
$MAXACTVP
 70
    16
  9
$PLIMCHECK
 70
     0
  9
$PEXTMIN
 10
1.0000000000000000E+20
 20
1.0000000000000000E+20
 30
1.0000000000000000E+20
  9
$PEXTMAX
 10
-1.0000000000000000E+20
 20
-1.0000000000000000E+20
 30
-1.0000000000000000E+20
  9
$PLIMMIN
 10
-3.7022047443144852
 20
-1.657820922983773
  9
$PLIMMAX
 10
416.2977952556855143
 20
295.3421790770162261
  9
$UNITMODE
 70
     0
  9
$VISRETAIN
 70
     0
  9
$PLINEGEN
 70
     0
  9
$PSLTSCALE
 70
     0
  0
ENDSEC
  0
SECTION
  2
TABLES
  0
TABLE
  2
VPORT
 70
     1
  0
VPORT
  2
*ACTIVE
 70
     0
 10
0.0
 20
0.0
 11
1.0
 21
1.0
 12
52.177003872598867
 22
-62.6636704862690479
 13
0.0
 23
0.0
 14
1.0
 24
1.0
 15
10.0
 25
10.0
 16
0.0000000000001847
 26
0.0
 36
846.9026053447985305
 17
-53.726962196211673
 27
190.7460115896176944
 37
-27.3766946620547706
 40
233.7846474856766861
 41
1.7852028639618129
 42
50.0000000000000071
 43
0.0
 44
0.0
 50
0.0
 51
0.0
 71
     0
 72
  1500
 73
     1
 74
     0
 75
     0
 76
     0
 77
     0
 78
     0
  0
ENDTAB
  0
TABLE
  2
LTYPE
 70
     6
  0
LTYPE
  2
CONTINUOUS
 70
     0
  3
Solid line
 72
    65
 73
     0
 40
0.0
  0
LTYPE
  2
STRICHPUNKT
 70
     0
  3
__ . __ . __ . __ . __ . __ . __ . __ . __ . __
 72
    65
 73
     4
 40
1.0
 49
0.5
 49
-0.25
 49
0.0
 49
-0.25
  0
LTYPE
  2
AUSGEZOGEN
 70
     0
  3
Ausgezogene Linie
 72
    65
 73
     0
 40
0.0
  0
LTYPE
  2
VERDECKT
 70
     0
  3
Verdeckt __ __ __ __ __ __ __ __ __ __ __ __ __
 72
    65
 73
     2
 40
0.375
 49
0.25
 49
-0.125
  0
ENDTAB
  0
TABLE
  2
LAYER
 70
    14
  0
LAYER
  2
0
 70
     0
 62
     7
  6
AUSGEZOGEN
  0
LAYER
  2
STEMPEL
 70
     0
 62
     3
  6
AUSGEZOGEN
  0
LAYER
  2
DEFPOINTS
 70
     0
 62
     7
  6
AUSGEZOGEN
  0
LAYER
  2
ADSK_ASSOC_ENTITY_BACKUPS
 70
     0
 62
     7
  6
CONTINUOUS
  0
ENDTAB
  0
TABLE
  2
STYLE
 70
     4
  0
STYLE
  2
STANDARD
 70
     0
 40
0.0
 41
0.8
 50
0.0
 71
     0
 42
3.5
  3
simplex.shx
  4

  0
STYLE
  2
GREEKS
 70
     0
 40
0.0
 41
0.8
 50
0.0
 71
     0
 42
2.5
  3
SIMPLEX.shx
  4

  0
ENDTAB
  0
TABLE
  2
VIEW
 70
     1
  0
ENDTAB
  0
TABLE
  2
UCS
 70
     0
  0
ENDTAB
  0
TABLE
  2
APPID
 70
    29
  0
APPID
  2
ACAD
 70
     0
  0
APPID
  2
ACAD_PSEXT
 70
     0
  0
APPID
  2
ACAD_NAV_VCDISPLAY
 70
     0
  0
APPID
  2
GRADIENTCOLOR1ACI
 70
     0
  0
APPID
  2
GRADIENTCOLOR2ACI
 70
     0
  0
APPID
  2
ACAD_EXEMPT_FROM_CAD_STANDARDS
 70
     0
  0
APPID
  2
ACAD_MLEADERVER
 70
     0
  0
APPID
  2
ACAD_OBJECT_CHANGE_GUID
 70
     0
  0
APPID
  2
ACAECLAYERSTANDARD
 70
     0
  0
APPID
  2
ACCMTRANSPARENCY
 70
     0
  0
APPID
  2
ACAD_STEPID
 70
     0
  0
APPID
  2
ACSYNERGY
 70
     0
  0
APPID
  2
SYNERGY_BODY_TBR_ID
 70
     0
  0
APPID
  2
ACAD_VIEW_EDGE_ID
 70
     0
  0
APPID
  2
ACSYNERGYSKETCH
 70
     0
  0
APPID
  2
SYNERGY_EXCLUDED_FROM_SNAPSHOT
 70
     0
  0
APPID
  2
ACAD_MODELDOC_XFORM
 70
     0
  0
APPID
  2
ACADANNOMONITORALERTICONDI
 70
     0
  0
APPID
  2
ACADANNOTATIVE
 70
     0
  0
APPID
  2
ACAD_DSTYLE_DIMJAG
 70
     0
  0
APPID
  2
ACAD_DSTYLE_DIMTALN
 70
     0
  0
APPID
  2
ACDBDYNAMICBLOCKGUID
 70
     0
  0
APPID
  2
ACAD_DIMASSOC_CALC_DIMLFAC
 70
     0
  0
APPID
  2
ACAD_DIMASSOC_DIMLFAC
 70
     0
  0
APPID
  2
ACAD_DIMASSOC_OVERRIDDEN_D
 70
     0
  0
APPID
  2
ACAD_DSTYLE_DIMRADIAL_EXTENSION
 70
     0
  0
APPID
  2
ACADANNOPO
 70
     0
  0
APPID
  2
ACAD_ASSOCPERSSUBENTMANAGER
 70
     0
  0
APPID
  2
AcDbAttr
 70
     0
  0
ENDTAB
  0
TABLE
  2
DIMSTYLE
 70
     2
  0
DIMSTYLE
  2
STANDARD
 70
     0
  3

  4

  5

  6

  7

 40
1.0
 41
3.5
 42
1.0
 43
1.0
 44
1.0
 45
0.0
 46
0.0
 47
0.0
 48
2.0
140
3.5
141
0.09
142
0.0
143
25.3999999999999986
144
1.0
145
0.0
146
0.5
147
1.1999999999999991
 71
     0
 72
     0
 73
     0
 74
     0
 75
     0
 76
     0
 77
     1
 78
     8
170
     0
171
     2
172
     1
173
     0
174
     0
175
     0
176
   256
177
     0
178
     1
  0
ENDTAB
  0
ENDSEC
  0
SECTION
  2
BLOCKS
  0
BLOCK
  8
0
  2
$MODEL_SPACE
 70
     0
 10
0.0
 20
0.0
 30
0.0
  3
$MODEL_SPACE
  1

  0
ENDBLK
  5
1098
  8
0
  0
BLOCK
 67
     1
  8
0
  2
$PAPER_SPACE
 70
     0
 10
0.0
 20
0.0
 30
0.0
  3
$PAPER_SPACE
  1

  0
ENDBLK
  5
1096
 67
     1
  8
0
  0
BLOCK
  8
0
  2
*S0
 70
     1
 10
0.0
 20
0.0
 30
0.0
  3
*S0
  1

  0
ENDBLK
  5
48E3
  8
0
  0
BLOCK
  8
0
  2
A$C51DFAA53
 70
     0
 10
0.0
 20
0.0
 30
0.0
  3
A$C51DFAA53
  1

  0
LINE
  5
14365
  8
0
 10
-214.999999999999801
 20
75.9490859118841968
 30
-0.0000000000000462
 11
-214.9999999999998863
 21
134.0509140881152916
 31
-0.0000000000000462
  0
LINE
  5
14366
  8
0
 10
-206.617498657339695
 20
135.9999993179339981
 30
-0.0000000000000462
 11
-205.2024677987604946
 21
135.9999993179339981
 31
-0.0000000000000459
  0
LINE
  5
14367
  8
0
 10
-206.617498657339695
 20
74.0000006820654903
 30
-0.0000000000000462
 11
-205.2024677987604093
 21
74.0000006820654903
 31
-0.0000000000000459
  0
ARC
  5
14368
  8
0
 10
-205.1620000000004893
 20
98.5000000000007674
 30
-0.0000000000000462
 40
24.5000320571290686
 50
269.9053619552814212
 51
289.4630994446897034
  0
ARC
  5
14369
  8
0
 10
-205.1620000000006883
 20
111.4999999999979963
 30
-0.0000000000000462
 40
24.5000320571298182
 50
70.5369005553106945
 51
90.0946380447185078
  0
ARC
  5
1436A
  8
0
 10
-193.5000000000007958
 20
65.5000000000005684
 30
-0.0000000000000426
 40
10.49999999999919
 50
89.9999999999979963
 51
109.4630994446849996
  0
ARC
  5
1436B
  8
0
 10
-193.5000000000007958
 20
144.4999999999992042
 30
-0.0000000000000426
 40
10.4999999999994298
 50
250.5369005553135935
 51
270.0
  0
LINE
  5
1436C
  8
0
 10
-193.5000000000005116
 20
133.999999999999801
 30
-0.0000000000000426
 11
-182.4083269131965892
 21
133.999999999999801
 31
-0.0000000000000402
  0
LINE
  5
1436D
  8
0
 10
-193.5000000000005116
 20
75.9999999999997726
 30
-0.0000000000000426
 11
-182.4083269131965892
 21
75.9999999999997726
 31
-0.0000000000000402
  0
ARC
  5
1436E
  8
0
 10
-182.4083269131967029
 20
87.4999999999996874
 30
-0.0000000000000391
 40
11.5
 50
270.0000000000007958
 51
299.3321101677053093
  0
ARC
  5
1436F
  8
0
 10
-182.4083269131969018
 20
122.4999999999992042
 30
-0.0000000000000391
 40
11.5000000000006093
 50
60.6678898322960123
 51
89.9999999999988773
  0
ARC
  5
14370
  8
0
 10
-172.8558403259251861
 20
70.4999999999997158
 30
-0.0000000000000391
 40
8.0000000000000782
 50
89.9999999999995879
 51
119.3321101677020977
  0
ARC
  5
14371
  8
0
 10
-172.8558403259254135
 20
139.4999999999994884
 30
-0.0000000000000391
 40
7.9999999999996581
 50
240.6678898322959128
 51
270.0
  0
LINE
  5
14372
  8
0
 10
-172.8558403259251861
 20
131.4999999999998863
 30
-0.0000000000000391
 11
-155.0000000000005969
 21
131.4999999999998863
 31
-0.0000000000000352
  0
LINE
  5
14373
  8
0
 10
-172.8558403259251008
 20
78.4999999999997726
 30
-0.0000000000000391
 11
-155.0000000000005116
 21
78.4999999999997726
 31
-0.0000000000000352
  0
ARC
  5
14374
  8
0
 10
-206.6174986573396097
 20
93.0000000000003411
 30
-0.0000000000000462
 40
19.0000000000004512
 50
243.8205326270926889
 51
270.0
  0
ARC
  5
14375
  8
0
 10
-206.6174986573396097
 20
116.9999999999994031
 30
-0.0000000000000462
 40
19.0000000000002487
 50
90.0000000000001847
 51
116.1794673729078937
  0
LINE
  5
14376
  8
0
 10
-145.9300000000004047
 20
138.249999999999801
 30
-0.0000000000000355
 11
-145.9300000000004047
 21
139.249999999999801
 31
-0.0000000000000355
  0
LINE
  5
14377
  8
0
 10
-142.9300000000004047
 20
138.249999999999801
 30
-0.0000000000000284
 11
-145.9300000000004047
 21
138.249999999999801
 31
-0.0000000000000291
  0
LINE
  5
14378
  8
0
 10
-142.9300000000004047
 20
139.249999999999801
 30
-0.0000000000000284
 11
-142.9300000000004047
 21
138.249999999999801
 31
-0.0000000000000284
  0
LINE
  5
14379
  8
0
 10
-145.9300000000004047
 20
139.249999999999801
 30
-0.0000000000000355
 11
-154.2500000000003979
 21
139.249999999999801
 31
-0.0000000000000374
  0
LINE
  5
1437A
  8
0
 10
57.5614811756186171
 20
138.249999999999801
 30
0.0000000000000142
 11
54.5614811756186171
 21
138.249999999999801
 31
0.0000000000000136
  0
LINE
  5
1437B
  8
0
 10
54.5614811756186171
 20
138.249999999999801
 30
0.0000000000000107
 11
54.5614811756186171
 21
139.249999999999801
 31
0.0000000000000107
  0
LINE
  5
1437C
  8
0
 10
57.5614811756186171
 20
139.249999999999801
 30
0.0000000000000142
 11
57.5614811756186171
 21
138.249999999999801
 31
0.0000000000000142
  0
LINE
  5
1437D
  8
0
 10
63.960929116237601
 20
139.249999999999801
 30
0.0000000000000142
 11
57.5614811756186171
 21
139.249999999999801
 31
0.0000000000000128
  0
LINE
  5
1437E
  8
0
 10
54.5614811756186171
 20
139.249999999999801
 30
0.0000000000000107
 11
-98.9637532387990859
 21
139.249999999999801
 31
-0.000000000000023
  0
LINE
  5
1437F
  8
0
 10
-135.4135028842545125
 20
139.249999999999801
 30
-0.0000000000000284
 11
-142.9300000000004047
 21
139.249999999999801
 31
-0.0000000000000301
  0
LINE
  5
14380
  8
0
 10
-135.4135028842545125
 20
139.249999999999801
 30
-0.0000000000000284
 11
-133.6457359312881863
 21
139.249999999999801
 31
-0.0000000000000284
  0
LINE
  5
14381
  8
0
 10
-99.6708600199852413
 20
139.249999999999801
 30
-0.0000000000000213
 11
-133.6457359312881863
 21
139.249999999999801
 31
-0.0000000000000284
  0
LINE
  5
14382
  8
0
 10
-98.9637532387990859
 20
139.249999999999801
 30
-0.0000000000000213
 11
-99.6708600199853123
 21
139.249999999999801
 31
-0.0000000000000213
  0
LINE
  5
14383
  8
0
 10
54.5614811756186171
 20
70.7499999999998437
 30
0.0000000000000107
 11
-98.9637532387990859
 21
70.7499999999998437
 31
-0.000000000000023
  0
LINE
  5
14384
  8
0
 10
-98.9637532387990859
 20
70.7499999999998437
 30
-0.0000000000000213
 11
-99.6708600199853123
 21
70.7499999999998437
 31
-0.0000000000000213
  0
LINE
  5
14385
  8
0
 10
-99.6708600199853123
 20
70.7499999999998437
 30
-0.0000000000000213
 11
-133.6457359312881863
 21
70.7499999999998437
 31
-0.0000000000000284
  0
LINE
  5
14386
  8
0
 10
-135.4135028842545125
 20
70.7499999999998437
 30
-0.0000000000000284
 11
-133.6457359312881863
 21
70.7499999999998437
 31
-0.0000000000000284
  0
LINE
  5
14387
  8
0
 10
-135.4135028842545125
 20
70.7499999999998437
 30
-0.0000000000000284
 11
-142.9300000000004047
 21
70.7499999999998437
 31
-0.0000000000000301
  0
LINE
  5
14388
  8
0
 10
63.960929116237601
 20
70.7499999999998437
 30
0.0000000000000142
 11
57.5614811756186171
 21
70.7499999999998437
 31
0.0000000000000128
  0
LINE
  5
14389
  8
0
 10
54.5614811756186171
 20
70.7499999999998437
 30
0.0000000000000107
 11
54.5614811756186171
 21
71.7499999999998579
 31
0.0000000000000107
  0
LINE
  5
1438A
  8
0
 10
57.5614811756186171
 20
71.7499999999998579
 30
0.0000000000000142
 11
57.5614811756186171
 21
70.7499999999998437
 31
0.0000000000000142
  0
LINE
  5
1438B
  8
0
 10
54.5614811756186171
 20
71.7499999999998579
 30
0.0000000000000107
 11
57.5614811756186171
 21
71.7499999999998579
 31
0.0000000000000113
  0
LINE
  5
1438C
  8
0
 10
-145.9300000000004047
 20
70.7499999999998437
 30
-0.0000000000000355
 11
-154.2500000000003979
 21
70.7499999999998437
 31
-0.0000000000000374
  0
LINE
  5
1438D
  8
0
 10
-142.9300000000004047
 20
71.7499999999998579
 30
-0.0000000000000284
 11
-142.9300000000004047
 21
70.7499999999998437
 31
-0.0000000000000284
  0
LINE
  5
1438E
  8
0
 10
-145.9300000000004047
 20
71.7499999999998579
 30
-0.0000000000000355
 11
-142.9300000000004047
 21
71.7499999999998579
 31
-0.0000000000000349
  0
LINE
  5
1438F
  8
0
 10
-145.9300000000004047
 20
70.7499999999998437
 30
-0.0000000000000355
 11
-145.9300000000004047
 21
71.7499999999998579
 31
-0.0000000000000355
  0
LINE
  5
14390
  8
0
 10
63.960929116237601
 20
139.249999999999801
 30
0.0000000000000142
 11
63.960929116237601
 21
70.7499999999998437
 31
0.0000000000000142
  0
LINE
  5
14391
  8
0
 10
-154.2500000000003979
 20
139.249999999999801
 30
-0.0000000000000355
 11
-154.2500000000003979
 21
70.7499999999998437
 31
-0.0000000000000355
  0
LINE
  5
14392
  8
0
 10
-100.731520191765199
 20
139.999999999999801
 30
-0.0000000000000213
 11
-98.9637532387994412
 21
139.999999999999801
 31
-0.0000000000000213
  0
LINE
  5
14393
  8
0
 10
55.0614811756186171
 20
138.499999999999801
 30
0.0000000000000107
 11
54.5614811756186171
 21
138.499999999999801
 31
0.0000000000000105
  0
LINE
  5
14394
  8
0
 10
55.0614811756186171
 20
139.999999999999801
 30
0.0000000000000107
 11
-98.9637532387993133
 21
139.999999999999801
 31
-0.0000000000000231
  0
LINE
  5
14395
  8
0
 10
63.9609291162385105
 20
139.999999999999801
 30
0.0000000000000142
 11
67.6766532436254238
 21
139.999999999999801
 31
0.0000000000000142
  0
LINE
  5
14396
  8
0
 10
63.9609291162385105
 20
138.499999999999801
 30
0.0000000000000142
 11
67.6766532436254238
 21
138.499999999999801
 31
0.0000000000000142
  0
LINE
  5
14397
  8
0
 10
63.9609291162383897
 20
139.999999999999801
 30
0.0000000000000142
 11
57.0614811756186171
 21
139.999999999999801
 31
0.0000000000000127
  0
LINE
  5
14398
  8
0
 10
57.5614811756186171
 20
138.499999999999801
 30
0.0000000000000142
 11
57.0614811756186171
 21
138.499999999999801
 31
0.0000000000000141
  0
LINE
  5
14399
  8
0
 10
57.0614811756186171
 20
139.999999999999801
 30
0.0000000000000142
 11
57.0614811756186171
 21
138.499999999999801
 31
0.0000000000000142
  0
LINE
  5
1439A
  8
0
 10
57.0614811756186171
 20
139.999999999999801
 30
0.0000000000000142
 11
55.0614811756186171
 21
139.999999999999801
 31
0.0000000000000138
  0
LINE
  5
1439B
  8
0
 10
55.0614811756186171
 20
139.999999999999801
 30
0.0000000000000107
 11
55.0614811756186171
 21
138.499999999999801
 31
0.0000000000000107
  0
LINE
  5
1439C
  8
0
 10
57.0614811756186171
 20
138.499999999999801
 30
0.0000000000000142
 11
55.0614811756186171
 21
138.499999999999801
 31
0.0000000000000138
  0
LINE
  5
1439D
  8
0
 10
94.0995959556995558
 20
139.999999999999801
 30
0.0000000000000213
 11
67.6766532436253101
 21
139.999999999999801
 31
0.0000000000000142
  0
LINE
  5
1439E
  8
0
 10
94.0995959556995558
 20
138.499999999999801
 30
0.0000000000000213
 11
67.6766532436253101
 21
138.499999999999801
 31
0.0000000000000142
  0
POLYLINE
  5
1439F
  8
0
 10
94.9999999999975273
 20
137.499999999999801
 30
0.0000000000000215
 66
     1
 70
     8
  0
VERTEX
  8
0
  5
144FE
 10
95.0000
 20
137.500
 30
2.14801e-14
  70
    32
  0
VERTEX
  8
0
  5
144FF
 10
94.9999
 20
137.512
 30
2.14801e-14
  70
    32
  0
VERTEX
  8
0
  5
14500
 10
94.9997
 20
137.525
 30
2.14800e-14
  70
    32
  0
VERTEX
  8
0
  5
14501
 10
94.9994
 20
137.537
 30
2.14800e-14
  70
    32
  0
VERTEX
  8
0
  5
14502
 10
94.9989
 20
137.549
 30
2.14799e-14
  70
    32
  0
VERTEX
  8
0
  5
14503
 10
94.9983
 20
137.561
 30
2.14797e-14
  70
    32
  0
VERTEX
  8
0
  5
14504
 10
94.9976
 20
137.574
 30
2.14796e-14
  70
    32
  0
VERTEX
  8
0
  5
14505
 10
94.9967
 20
137.586
 30
2.14794e-14
  70
    32
  0
VERTEX
  8
0
  5
14506
 10
94.9957
 20
137.598
 30
2.14792e-14
  70
    32
  0
VERTEX
  8
0
  5
14507
 10
94.9945
 20
137.610
 30
2.14790e-14
  70
    32
  0
VERTEX
  8
0
  5
14508
 10
94.9932
 20
137.622
 30
2.14787e-14
  70
    32
  0
VERTEX
  8
0
  5
14509
 10
94.9918
 20
137.635
 30
2.14784e-14
  70
    32
  0
VERTEX
  8
0
  5
1450A
 10
94.9903
 20
137.647
 30
2.14781e-14
  70
    32
  0
VERTEX
  8
0
  5
1450B
 10
94.9886
 20
137.659
 30
2.14778e-14
  70
    32
  0
VERTEX
  8
0
  5
1450C
 10
94.9867
 20
137.671
 30
2.14774e-14
  70
    32
  0
VERTEX
  8
0
  5
1450D
 10
94.9848
 20
137.683
 30
2.14770e-14
  70
    32
  0
VERTEX
  8
0
  5
1450E
 10
94.9827
 20
137.695
 30
2.14766e-14
  70
    32
  0
VERTEX
  8
0
  5
1450F
 10
94.9805
 20
137.707
 30
2.14762e-14
  70
    32
  0
VERTEX
  8
0
  5
14510
 10
94.9781
 20
137.719
 30
2.14757e-14
  70
    32
  0
VERTEX
  8
0
  5
14511
 10
94.9756
 20
137.731
 30
2.14752e-14
  70
    32
  0
VERTEX
  8
0
  5
14512
 10
94.9730
 20
137.743
 30
2.14747e-14
  70
    32
  0
VERTEX
  8
0
  5
14513
 10
94.9703
 20
137.755
 30
2.14741e-14
  70
    32
  0
VERTEX
  8
0
  5
14514
 10
94.9674
 20
137.767
 30
2.14736e-14
  70
    32
  0
VERTEX
  8
0
  5
14515
 10
94.9644
 20
137.779
 30
2.14730e-14
  70
    32
  0
VERTEX
  8
0
  5
14516
 10
94.9612
 20
137.790
 30
2.14723e-14
  70
    32
  0
VERTEX
  8
0
  5
14517
 10
94.9580
 20
137.802
 30
2.14717e-14
  70
    32
  0
VERTEX
  8
0
  5
14518
 10
94.9546
 20
137.814
 30
2.14710e-14
  70
    32
  0
VERTEX
  8
0
  5
14519
 10
94.9510
 20
137.825
 30
2.14703e-14
  70
    32
  0
VERTEX
  8
0
  5
1451A
 10
94.9474
 20
137.837
 30
2.14696e-14
  70
    32
  0
VERTEX
  8
0
  5
1451B
 10
94.9436
 20
137.848
 30
2.14688e-14
  70
    32
  0
VERTEX
  8
0
  5
1451C
 10
94.9397
 20
137.860
 30
2.14680e-14
  70
    32
  0
VERTEX
  8
0
  5
1451D
 10
94.9356
 20
137.871
 30
2.14672e-14
  70
    32
  0
VERTEX
  8
0
  5
1451E
 10
94.9315
 20
137.883
 30
2.14664e-14
  70
    32
  0
VERTEX
  8
0
  5
1451F
 10
94.9272
 20
137.894
 30
2.14655e-14
  70
    32
  0
VERTEX
  8
0
  5
14520
 10
94.9228
 20
137.905
 30
2.14646e-14
  70
    32
  0
VERTEX
  8
0
  5
14521
 10
94.9182
 20
137.916
 30
2.14637e-14
  70
    32
  0
VERTEX
  8
0
  5
14522
 10
94.9136
 20
137.928
 30
2.14628e-14
  70
    32
  0
VERTEX
  8
0
  5
14523
 10
94.9088
 20
137.939
 30
2.14618e-14
  70
    32
  0
VERTEX
  8
0
  5
14524
 10
94.9039
 20
137.950
 30
2.14609e-14
  70
    32
  0
VERTEX
  8
0
  5
14525
 10
94.8988
 20
137.961
 30
2.14598e-14
  70
    32
  0
VERTEX
  8
0
  5
14526
 10
94.8937
 20
137.971
 30
2.14588e-14
  70
    32
  0
VERTEX
  8
0
  5
14527
 10
94.8884
 20
137.982
 30
2.14578e-14
  70
    32
  0
VERTEX
  8
0
  5
14528
 10
94.8830
 20
137.993
 30
2.14567e-14
  70
    32
  0
VERTEX
  8
0
  5
14529
 10
94.8775
 20
138.004
 30
2.14556e-14
  70
    32
  0
VERTEX
  8
0
  5
1452A
 10
94.8719
 20
138.014
 30
2.14545e-14
  70
    32
  0
VERTEX
  8
0
  5
1452B
 10
94.8662
 20
138.025
 30
2.14533e-14
  70
    32
  0
VERTEX
  8
0
  5
1452C
 10
94.8603
 20
138.035
 30
2.14521e-14
  70
    32
  0
VERTEX
  8
0
  5
1452D
 10
94.8543
 20
138.045
 30
2.14509e-14
  70
    32
  0
VERTEX
  8
0
  5
1452E
 10
94.8483
 20
138.056
 30
2.14497e-14
  70
    32
  0
VERTEX
  8
0
  5
1452F
 10
94.8421
 20
138.066
 30
2.14485e-14
  70
    32
  0
VERTEX
  8
0
  5
14530
 10
94.8358
 20
138.076
 30
2.14472e-14
  70
    32
  0
VERTEX
  8
0
  5
14531
 10
94.8293
 20
138.086
 30
2.14459e-14
  70
    32
  0
VERTEX
  8
0
  5
14532
 10
94.8228
 20
138.096
 30
2.14446e-14
  70
    32
  0
VERTEX
  8
0
  5
14533
 10
94.8162
 20
138.106
 30
2.14433e-14
  70
    32
  0
VERTEX
  8
0
  5
14534
 10
94.8094
 20
138.115
 30
2.14420e-14
  70
    32
  0
VERTEX
  8
0
  5
14535
 10
94.8026
 20
138.125
 30
2.14406e-14
  70
    32
  0
VERTEX
  8
0
  5
14536
 10
94.7956
 20
138.134
 30
2.14392e-14
  70
    32
  0
VERTEX
  8
0
  5
14537
 10
94.7886
 20
138.144
 30
2.14378e-14
  70
    32
  0
VERTEX
  8
0
  5
14538
 10
94.7814
 20
138.153
 30
2.14364e-14
  70
    32
  0
VERTEX
  8
0
  5
14539
 10
94.7741
 20
138.162
 30
2.14349e-14
  70
    32
  0
VERTEX
  8
0
  5
1453A
 10
94.7668
 20
138.172
 30
2.14334e-14
  70
    32
  0
VERTEX
  8
0
  5
1453B
 10
94.7593
 20
138.181
 30
2.14319e-14
  70
    32
  0
VERTEX
  8
0
  5
1453C
 10
94.7517
 20
138.190
 30
2.14304e-14
  70
    32
  0
VERTEX
  8
0
  5
1453D
 10
94.7440
 20
138.198
 30
2.14289e-14
  70
    32
  0
VERTEX
  8
0
  5
1453E
 10
94.7363
 20
138.207
 30
2.14273e-14
  70
    32
  0
VERTEX
  8
0
  5
1453F
 10
94.7284
 20
138.216
 30
2.14258e-14
  70
    32
  0
VERTEX
  8
0
  5
14540
 10
94.7205
 20
138.224
 30
2.14242e-14
  70
    32
  0
VERTEX
  8
0
  5
14541
 10
94.7124
 20
138.233
 30
2.14226e-14
  70
    32
  0
VERTEX
  8
0
  5
14542
 10
94.7043
 20
138.241
 30
2.14209e-14
  70
    32
  0
VERTEX
  8
0
  5
14543
 10
94.6960
 20
138.249
 30
2.14193e-14
  70
    32
  0
VERTEX
  8
0
  5
14544
 10
94.6877
 20
138.257
 30
2.14176e-14
  70
    32
  0
VERTEX
  8
0
  5
14545
 10
94.6793
 20
138.265
 30
2.14159e-14
  70
    32
  0
VERTEX
  8
0
  5
14546
 10
94.6708
 20
138.273
 30
2.14142e-14
  70
    32
  0
VERTEX
  8
0
  5
14547
 10
94.6622
 20
138.281
 30
2.14125e-14
  70
    32
  0
VERTEX
  8
0
  5
14548
 10
94.6536
 20
138.288
 30
2.14108e-14
  70
    32
  0
VERTEX
  8
0
  5
14549
 10
94.6448
 20
138.296
 30
2.14090e-14
  70
    32
  0
VERTEX
  8
0
  5
1454A
 10
94.6360
 20
138.303
 30
2.14073e-14
  70
    32
  0
VERTEX
  8
0
  5
1454B
 10
94.6271
 20
138.310
 30
2.14055e-14
  70
    32
  0
VERTEX
  8
0
  5
1454C
 10
94.6181
 20
138.318
 30
2.14037e-14
  70
    32
  0
VERTEX
  8
0
  5
1454D
 10
94.6090
 20
138.325
 30
2.14019e-14
  70
    32
  0
VERTEX
  8
0
  5
1454E
 10
94.5998
 20
138.331
 30
2.14000e-14
  70
    32
  0
VERTEX
  8
0
  5
1454F
 10
94.5906
 20
138.338
 30
2.13982e-14
  70
    32
  0
VERTEX
  8
0
  5
14550
 10
94.5813
 20
138.345
 30
2.13963e-14
  70
    32
  0
VERTEX
  8
0
  5
14551
 10
94.5719
 20
138.351
 30
2.13945e-14
  70
    32
  0
VERTEX
  8
0
  5
14552
 10
94.5625
 20
138.358
 30
2.13926e-14
  70
    32
  0
VERTEX
  8
0
  5
14553
 10
94.5530
 20
138.364
 30
2.13907e-14
  70
    32
  0
VERTEX
  8
0
  5
14554
 10
94.5434
 20
138.370
 30
2.13888e-14
  70
    32
  0
VERTEX
  8
0
  5
14555
 10
94.5338
 20
138.376
 30
2.13868e-14
  70
    32
  0
VERTEX
  8
0
  5
14556
 10
94.5240
 20
138.382
 30
2.13849e-14
  70
    32
  0
VERTEX
  8
0
  5
14557
 10
94.5143
 20
138.388
 30
2.13829e-14
  70
    32
  0
VERTEX
  8
0
  5
14558
 10
94.5044
 20
138.393
 30
2.13810e-14
  70
    32
  0
VERTEX
  8
0
  5
14559
 10
94.4945
 20
138.399
 30
2.13790e-14
  70
    32
  0
VERTEX
  8
0
  5
1455A
 10
94.4846
 20
138.404
 30
2.13770e-14
  70
    32
  0
VERTEX
  8
0
  5
1455B
 10
94.4746
 20
138.409
 30
2.13750e-14
  70
    32
  0
VERTEX
  8
0
  5
1455C
 10
94.4645
 20
138.414
 30
2.13730e-14
  70
    32
  0
VERTEX
  8
0
  5
1455D
 10
94.4543
 20
138.419
 30
2.13710e-14
  70
    32
  0
VERTEX
  8
0
  5
1455E
 10
94.4442
 20
138.424
 30
2.13689e-14
  70
    32
  0
VERTEX
  8
0
  5
1455F
 10
94.4339
 20
138.429
 30
2.13669e-14
  70
    32
  0
VERTEX
  8
0
  5
14560
 10
94.4236
 20
138.433
 30
2.13648e-14
  70
    32
  0
VERTEX
  8
0
  5
14561
 10
94.4133
 20
138.437
 30
2.13627e-14
  70
    32
  0
VERTEX
  8
0
  5
14562
 10
94.4029
 20
138.442
 30
2.13607e-14
  70
    32
  0
VERTEX
  8
0
  5
14563
 10
94.3925
 20
138.446
 30
2.13586e-14
  70
    32
  0
VERTEX
  8
0
  5
14564
 10
94.3820
 20
138.450
 30
2.13565e-14
  70
    32
  0
VERTEX
  8
0
  5
14565
 10
94.3715
 20
138.453
 30
2.13544e-14
  70
    32
  0
VERTEX
  8
0
  5
14566
 10
94.3610
 20
138.457
 30
2.13523e-14
  70
    32
  0
VERTEX
  8
0
  5
14567
 10
94.3504
 20
138.460
 30
2.13502e-14
  70
    32
  0
VERTEX
  8
0
  5
14568
 10
94.3397
 20
138.464
 30
2.13480e-14
  70
    32
  0
VERTEX
  8
0
  5
14569
 10
94.3291
 20
138.467
 30
2.13459e-14
  70
    32
  0
VERTEX
  8
0
  5
1456A
 10
94.3184
 20
138.470
 30
2.13438e-14
  70
    32
  0
VERTEX
  8
0
  5
1456B
 10
94.3076
 20
138.473
 30
2.13416e-14
  70
    32
  0
VERTEX
  8
0
  5
1456C
 10
94.2969
 20
138.476
 30
2.13395e-14
  70
    32
  0
VERTEX
  8
0
  5
1456D
 10
94.2861
 20
138.478
 30
2.13373e-14
  70
    32
  0
VERTEX
  8
0
  5
1456E
 10
94.2753
 20
138.481
 30
2.13351e-14
  70
    32
  0
VERTEX
  8
0
  5
1456F
 10
94.2644
 20
138.483
 30
2.13330e-14
  70
    32
  0
VERTEX
  8
0
  5
14570
 10
94.2535
 20
138.485
 30
2.13308e-14
  70
    32
  0
VERTEX
  8
0
  5
14571
 10
94.2426
 20
138.487
 30
2.13286e-14
  70
    32
  0
VERTEX
  8
0
  5
14572
 10
94.2317
 20
138.489
 30
2.13264e-14
  70
    32
  0
VERTEX
  8
0
  5
14573
 10
94.2208
 20
138.491
 30
2.13242e-14
  70
    32
  0
VERTEX
  8
0
  5
14574
 10
94.2098
 20
138.492
 30
2.13220e-14
  70
    32
  0
VERTEX
  8
0
  5
14575
 10
94.1988
 20
138.494
 30
2.13198e-14
  70
    32
  0
VERTEX
  8
0
  5
14576
 10
94.1879
 20
138.495
 30
2.13177e-14
  70
    32
  0
VERTEX
  8
0
  5
14577
 10
94.1768
 20
138.496
 30
2.13155e-14
  70
    32
  0
VERTEX
  8
0
  5
14578
 10
94.1658
 20
138.497
 30
2.13132e-14
  70
    32
  0
VERTEX
  8
0
  5
14579
 10
94.1548
 20
138.498
 30
2.13110e-14
  70
    32
  0
VERTEX
  8
0
  5
1457A
 10
94.1438
 20
138.499
 30
2.13088e-14
  70
    32
  0
VERTEX
  8
0
  5
1457B
 10
94.1327
 20
138.499
 30
2.13066e-14
  70
    32
  0
VERTEX
  8
0
  5
1457C
 10
94.1217
 20
138.500
 30
2.13044e-14
  70
    32
  0
VERTEX
  8
0
  5
1457D
 10
94.1106
 20
138.500
 30
2.13022e-14
  70
    32
  0
VERTEX
  8
0
  5
1457E
 10
94.0996
 20
138.500
 30
2.13000e-14
  70
    32
  0
SEQEND
  8
0
  5
1457F
  0
LINE
  5
143A0
  8
0
 10
94.9999999999996589
 20
139.791287847477804
 30
0.0000000000000213
 11
94.9999999999996589
 21
137.499999999999801
 31
0.0000000000000213
  0
POLYLINE
  5
143A1
  8
0
 10
94.0995959556995558
 20
139.999999999999801
 30
0.0000000000000213
 66
     1
 70
     8
  0
VERTEX
  8
0
  5
14580
 10
94.0996
 20
140.000
 30
2.13000e-14
  70
    32
  0
VERTEX
  8
0
  5
14581
 10
94.1068
 20
140.000
 30
2.13014e-14
  70
    32
  0
VERTEX
  8
0
  5
14582
 10
94.1141
 20
140.000
 30
2.13029e-14
  70
    32
  0
VERTEX
  8
0
  5
14583
 10
94.1213
 20
140.000
 30
2.13043e-14
  70
    32
  0
VERTEX
  8
0
  5
14584
 10
94.1285
 20
140.000
 30
2.13058e-14
  70
    32
  0
VERTEX
  8
0
  5
14585
 10
94.1358
 20
140.000
 30
2.13072e-14
  70
    32
  0
VERTEX
  8
0
  5
14586
 10
94.1430
 20
140.000
 30
2.13087e-14
  70
    32
  0
VERTEX
  8
0
  5
14587
 10
94.1503
 20
139.999
 30
2.13101e-14
  70
    32
  0
VERTEX
  8
0
  5
14588
 10
94.1575
 20
139.999
 30
2.13116e-14
  70
    32
  0
VERTEX
  8
0
  5
14589
 10
94.1647
 20
139.999
 30
2.13130e-14
  70
    32
  0
VERTEX
  8
0
  5
1458A
 10
94.1720
 20
139.999
 30
2.13145e-14
  70
    32
  0
VERTEX
  8
0
  5
1458B
 10
94.1792
 20
139.998
 30
2.13159e-14
  70
    32
  0
VERTEX
  8
0
  5
1458C
 10
94.1864
 20
139.998
 30
2.13174e-14
  70
    32
  0
VERTEX
  8
0
  5
1458D
 10
94.1936
 20
139.998
 30
2.13188e-14
  70
    32
  0
VERTEX
  8
0
  5
1458E
 10
94.2009
 20
139.997
 30
2.13203e-14
  70
    32
  0
VERTEX
  8
0
  5
1458F
 10
94.2081
 20
139.997
 30
2.13217e-14
  70
    32
  0
VERTEX
  8
0
  5
14590
 10
94.2153
 20
139.997
 30
2.13231e-14
  70
    32
  0
VERTEX
  8
0
  5
14591
 10
94.2226
 20
139.996
 30
2.13246e-14
  70
    32
  0
VERTEX
  8
0
  5
14592
 10
94.2298
 20
139.996
 30
2.13260e-14
  70
    32
  0
VERTEX
  8
0
  5
14593
 10
94.2370
 20
139.995
 30
2.13275e-14
  70
    32
  0
VERTEX
  8
0
  5
14594
 10
94.2442
 20
139.995
 30
2.13289e-14
  70
    32
  0
VERTEX
  8
0
  5
14595
 10
94.2515
 20
139.994
 30
2.13304e-14
  70
    32
  0
VERTEX
  8
0
  5
14596
 10
94.2587
 20
139.994
 30
2.13318e-14
  70
    32
  0
VERTEX
  8
0
  5
14597
 10
94.2659
 20
139.993
 30
2.13333e-14
  70
    32
  0
VERTEX
  8
0
  5
14598
 10
94.2731
 20
139.993
 30
2.13347e-14
  70
    32
  0
VERTEX
  8
0
  5
14599
 10
94.2803
 20
139.992
 30
2.13361e-14
  70
    32
  0
VERTEX
  8
0
  5
1459A
 10
94.2875
 20
139.991
 30
2.13376e-14
  70
    32
  0
VERTEX
  8
0
  5
1459B
 10
94.2947
 20
139.991
 30
2.13390e-14
  70
    32
  0
VERTEX
  8
0
  5
1459C
 10
94.3020
 20
139.990
 30
2.13405e-14
  70
    32
  0
VERTEX
  8
0
  5
1459D
 10
94.3092
 20
139.989
 30
2.13419e-14
  70
    32
  0
VERTEX
  8
0
  5
1459E
 10
94.3164
 20
139.988
 30
2.13434e-14
  70
    32
  0
VERTEX
  8
0
  5
1459F
 10
94.3236
 20
139.988
 30
2.13448e-14
  70
    32
  0
VERTEX
  8
0
  5
145A0
 10
94.3308
 20
139.987
 30
2.13462e-14
  70
    32
  0
VERTEX
  8
0
  5
145A1
 10
94.3380
 20
139.986
 30
2.13477e-14
  70
    32
  0
VERTEX
  8
0
  5
145A2
 10
94.3452
 20
139.985
 30
2.13491e-14
  70
    32
  0
VERTEX
  8
0
  5
145A3
 10
94.3524
 20
139.984
 30
2.13506e-14
  70
    32
  0
VERTEX
  8
0
  5
145A4
 10
94.3595
 20
139.983
 30
2.13520e-14
  70
    32
  0
VERTEX
  8
0
  5
145A5
 10
94.3667
 20
139.982
 30
2.13534e-14
  70
    32
  0
VERTEX
  8
0
  5
145A6
 10
94.3739
 20
139.981
 30
2.13549e-14
  70
    32
  0
VERTEX
  8
0
  5
145A7
 10
94.3811
 20
139.980
 30
2.13563e-14
  70
    32
  0
VERTEX
  8
0
  5
145A8
 10
94.3883
 20
139.979
 30
2.13577e-14
  70
    32
  0
VERTEX
  8
0
  5
145A9
 10
94.3955
 20
139.978
 30
2.13592e-14
  70
    32
  0
VERTEX
  8
0
  5
145AA
 10
94.4026
 20
139.977
 30
2.13606e-14
  70
    32
  0
VERTEX
  8
0
  5
145AB
 10
94.4098
 20
139.976
 30
2.13620e-14
  70
    32
  0
VERTEX
  8
0
  5
145AC
 10
94.4170
 20
139.975
 30
2.13635e-14
  70
    32
  0
VERTEX
  8
0
  5
145AD
 10
94.4241
 20
139.974
 30
2.13649e-14
  70
    32
  0
VERTEX
  8
0
  5
145AE
 10
94.4313
 20
139.973
 30
2.13663e-14
  70
    32
  0
VERTEX
  8
0
  5
145AF
 10
94.4384
 20
139.972
 30
2.13678e-14
  70
    32
  0
VERTEX
  8
0
  5
145B0
 10
94.4456
 20
139.970
 30
2.13692e-14
  70
    32
  0
VERTEX
  8
0
  5
145B1
 10
94.4527
 20
139.969
 30
2.13706e-14
  70
    32
  0
VERTEX
  8
0
  5
145B2
 10
94.4599
 20
139.968
 30
2.13721e-14
  70
    32
  0
VERTEX
  8
0
  5
145B3
 10
94.4670
 20
139.966
 30
2.13735e-14
  70
    32
  0
VERTEX
  8
0
  5
145B4
 10
94.4742
 20
139.965
 30
2.13749e-14
  70
    32
  0
VERTEX
  8
0
  5
145B5
 10
94.4813
 20
139.964
 30
2.13763e-14
  70
    32
  0
VERTEX
  8
0
  5
145B6
 10
94.4884
 20
139.962
 30
2.13778e-14
  70
    32
  0
VERTEX
  8
0
  5
145B7
 10
94.4956
 20
139.961
 30
2.13792e-14
  70
    32
  0
VERTEX
  8
0
  5
145B8
 10
94.5027
 20
139.960
 30
2.13806e-14
  70
    32
  0
VERTEX
  8
0
  5
145B9
 10
94.5098
 20
139.958
 30
2.13820e-14
  70
    32
  0
VERTEX
  8
0
  5
145BA
 10
94.5169
 20
139.957
 30
2.13835e-14
  70
    32
  0
VERTEX
  8
0
  5
145BB
 10
94.5240
 20
139.955
 30
2.13849e-14
  70
    32
  0
VERTEX
  8
0
  5
145BC
 10
94.5311
 20
139.954
 30
2.13863e-14
  70
    32
  0
VERTEX
  8
0
  5
145BD
 10
94.5382
 20
139.952
 30
2.13877e-14
  70
    32
  0
VERTEX
  8
0
  5
145BE
 10
94.5453
 20
139.950
 30
2.13891e-14
  70
    32
  0
VERTEX
  8
0
  5
145BF
 10
94.5524
 20
139.949
 30
2.13906e-14
  70
    32
  0
VERTEX
  8
0
  5
145C0
 10
94.5595
 20
139.947
 30
2.13920e-14
  70
    32
  0
VERTEX
  8
0
  5
145C1
 10
94.5666
 20
139.946
 30
2.13934e-14
  70
    32
  0
VERTEX
  8
0
  5
145C2
 10
94.5737
 20
139.944
 30
2.13948e-14
  70
    32
  0
VERTEX
  8
0
  5
145C3
 10
94.5807
 20
139.942
 30
2.13962e-14
  70
    32
  0
VERTEX
  8
0
  5
145C4
 10
94.5878
 20
139.940
 30
2.13976e-14
  70
    32
  0
VERTEX
  8
0
  5
145C5
 10
94.5949
 20
139.939
 30
2.13991e-14
  70
    32
  0
VERTEX
  8
0
  5
145C6
 10
94.6019
 20
139.937
 30
2.14005e-14
  70
    32
  0
VERTEX
  8
0
  5
145C7
 10
94.6090
 20
139.935
 30
2.14019e-14
  70
    32
  0
VERTEX
  8
0
  5
145C8
 10
94.6160
 20
139.933
 30
2.14033e-14
  70
    32
  0
VERTEX
  8
0
  5
145C9
 10
94.6231
 20
139.931
 30
2.14047e-14
  70
    32
  0
VERTEX
  8
0
  5
145CA
 10
94.6301
 20
139.930
 30
2.14061e-14
  70
    32
  0
VERTEX
  8
0
  5
145CB
 10
94.6371
 20
139.928
 30
2.14075e-14
  70
    32
  0
VERTEX
  8
0
  5
145CC
 10
94.6441
 20
139.926
 30
2.14089e-14
  70
    32
  0
VERTEX
  8
0
  5
145CD
 10
94.6512
 20
139.924
 30
2.14103e-14
  70
    32
  0
VERTEX
  8
0
  5
145CE
 10
94.6582
 20
139.922
 30
2.14117e-14
  70
    32
  0
VERTEX
  8
0
  5
145CF
 10
94.6652
 20
139.920
 30
2.14131e-14
  70
    32
  0
VERTEX
  8
0
  5
145D0
 10
94.6722
 20
139.918
 30
2.14145e-14
  70
    32
  0
VERTEX
  8
0
  5
145D1
 10
94.6792
 20
139.916
 30
2.14159e-14
  70
    32
  0
VERTEX
  8
0
  5
145D2
 10
94.6862
 20
139.914
 30
2.14173e-14
  70
    32
  0
VERTEX
  8
0
  5
145D3
 10
94.6932
 20
139.912
 30
2.14187e-14
  70
    32
  0
VERTEX
  8
0
  5
145D4
 10
94.7001
 20
139.909
 30
2.14201e-14
  70
    32
  0
VERTEX
  8
0
  5
145D5
 10
94.7071
 20
139.907
 30
2.14215e-14
  70
    32
  0
VERTEX
  8
0
  5
145D6
 10
94.7141
 20
139.905
 30
2.14229e-14
  70
    32
  0
VERTEX
  8
0
  5
145D7
 10
94.7210
 20
139.903
 30
2.14243e-14
  70
    32
  0
VERTEX
  8
0
  5
145D8
 10
94.7280
 20
139.901
 30
2.14257e-14
  70
    32
  0
VERTEX
  8
0
  5
145D9
 10
94.7349
 20
139.898
 30
2.14271e-14
  70
    32
  0
VERTEX
  8
0
  5
145DA
 10
94.7419
 20
139.896
 30
2.14285e-14
  70
    32
  0
VERTEX
  8
0
  5
145DB
 10
94.7488
 20
139.894
 30
2.14298e-14
  70
    32
  0
VERTEX
  8
0
  5
145DC
 10
94.7557
 20
139.891
 30
2.14312e-14
  70
    32
  0
VERTEX
  8
0
  5
145DD
 10
94.7626
 20
139.889
 30
2.14326e-14
  70
    32
  0
VERTEX
  8
0
  5
145DE
 10
94.7696
 20
139.887
 30
2.14340e-14
  70
    32
  0
VERTEX
  8
0
  5
145DF
 10
94.7765
 20
139.884
 30
2.14354e-14
  70
    32
  0
VERTEX
  8
0
  5
145E0
 10
94.7834
 20
139.882
 30
2.14368e-14
  70
    32
  0
VERTEX
  8
0
  5
145E1
 10
94.7903
 20
139.879
 30
2.14381e-14
  70
    32
  0
VERTEX
  8
0
  5
145E2
 10
94.7971
 20
139.877
 30
2.14395e-14
  70
    32
  0
VERTEX
  8
0
  5
145E3
 10
94.8040
 20
139.874
 30
2.14409e-14
  70
    32
  0
VERTEX
  8
0
  5
145E4
 10
94.8109
 20
139.872
 30
2.14423e-14
  70
    32
  0
VERTEX
  8
0
  5
145E5
 10
94.8177
 20
139.869
 30
2.14436e-14
  70
    32
  0
VERTEX
  8
0
  5
145E6
 10
94.8246
 20
139.867
 30
2.14450e-14
  70
    32
  0
VERTEX
  8
0
  5
145E7
 10
94.8315
 20
139.864
 30
2.14464e-14
  70
    32
  0
VERTEX
  8
0
  5
145E8
 10
94.8383
 20
139.862
 30
2.14477e-14
  70
    32
  0
VERTEX
  8
0
  5
145E9
 10
94.8451
 20
139.859
 30
2.14491e-14
  70
    32
  0
VERTEX
  8
0
  5
145EA
 10
94.8519
 20
139.856
 30
2.14505e-14
  70
    32
  0
VERTEX
  8
0
  5
145EB
 10
94.8588
 20
139.854
 30
2.14518e-14
  70
    32
  0
VERTEX
  8
0
  5
145EC
 10
94.8656
 20
139.851
 30
2.14532e-14
  70
    32
  0
VERTEX
  8
0
  5
145ED
 10
94.8724
 20
139.848
 30
2.14546e-14
  70
    32
  0
VERTEX
  8
0
  5
145EE
 10
94.8792
 20
139.845
 30
2.14559e-14
  70
    32
  0
VERTEX
  8
0
  5
145EF
 10
94.8860
 20
139.842
 30
2.14573e-14
  70
    32
  0
VERTEX
  8
0
  5
145F0
 10
94.8927
 20
139.840
 30
2.14586e-14
  70
    32
  0
VERTEX
  8
0
  5
145F1
 10
94.8995
 20
139.837
 30
2.14600e-14
  70
    32
  0
VERTEX
  8
0
  5
145F2
 10
94.9063
 20
139.834
 30
2.14613e-14
  70
    32
  0
VERTEX
  8
0
  5
145F3
 10
94.9130
 20
139.831
 30
2.14627e-14
  70
    32
  0
VERTEX
  8
0
  5
145F4
 10
94.9198
 20
139.828
 30
2.14640e-14
  70
    32
  0
VERTEX
  8
0
  5
145F5
 10
94.9265
 20
139.825
 30
2.14654e-14
  70
    32
  0
VERTEX
  8
0
  5
145F6
 10
94.9332
 20
139.822
 30
2.14667e-14
  70
    32
  0
VERTEX
  8
0
  5
145F7
 10
94.9399
 20
139.819
 30
2.14681e-14
  70
    32
  0
VERTEX
  8
0
  5
145F8
 10
94.9466
 20
139.816
 30
2.14694e-14
  70
    32
  0
VERTEX
  8
0
  5
145F9
 10
94.9533
 20
139.813
 30
2.14708e-14
  70
    32
  0
VERTEX
  8
0
  5
145FA
 10
94.9600
 20
139.810
 30
2.14721e-14
  70
    32
  0
VERTEX
  8
0
  5
145FB
 10
94.9667
 20
139.807
 30
2.14734e-14
  70
    32
  0
VERTEX
  8
0
  5
145FC
 10
94.9734
 20
139.804
 30
2.14748e-14
  70
    32
  0
VERTEX
  8
0
  5
145FD
 10
94.9801
 20
139.801
 30
2.14761e-14
  70
    32
  0
VERTEX
  8
0
  5
145FE
 10
94.9867
 20
139.798
 30
2.14774e-14
  70
    32
  0
VERTEX
  8
0
  5
145FF
 10
94.9934
 20
139.794
 30
2.14788e-14
  70
    32
  0
VERTEX
  8
0
  5
14600
 10
95.0000
 20
139.791
 30
2.14801e-14
  70
    32
  0
SEQEND
  8
0
  5
14601
  0
LINE
  5
143A2
  8
0
 10
-154.2500000000003979
 20
138.499999999999801
 30
-0.0000000000000355
 11
-155.0000000000005969
 21
138.499999999999801
 31
-0.0000000000000357
  0
LINE
  5
143A3
  8
0
 10
-142.9300000000004047
 20
138.499999999999801
 30
-0.0000000000000284
 11
-143.4292893218814982
 21
138.499999999999801
 31
-0.0000000000000285
  0
LINE
  5
143A4
  8
0
 10
-143.4292893218814982
 20
138.499999999999801
 30
-0.0000000000000284
 11
-145.4292893218814982
 21
138.499999999999801
 31
-0.0000000000000289
  0
LINE
  5
143A5
  8
0
 10
-145.4292893218814982
 20
138.499999999999801
 30
-0.0000000000000284
 11
-145.9300000000004047
 21
138.499999999999801
 31
-0.0000000000000285
  0
LINE
  5
143A6
  8
0
 10
-153.4292893218814129
 20
139.999999999999801
 30
-0.0000000000000355
 11
-153.4292893218814129
 21
139.249999999999801
 31
-0.0000000000000355
  0
LINE
  5
143A7
  8
0
 10
-135.4135028842545125
 20
139.999999999999801
 30
-0.0000000000000284
 11
-143.4292893218814982
 21
139.999999999999801
 31
-0.0000000000000302
  0
LINE
  5
143A8
  8
0
 10
-145.4292893218814982
 20
139.999999999999801
 30
-0.0000000000000284
 11
-153.4292893218814129
 21
139.999999999999801
 31
-0.0000000000000302
  0
LINE
  5
143A9
  8
0
 10
-145.4292893218814982
 20
139.999999999999801
 30
-0.0000000000000284
 11
-145.4292893218814982
 21
138.499999999999801
 31
-0.0000000000000284
  0
LINE
  5
143AA
  8
0
 10
-143.4292893218814982
 20
139.999999999999801
 30
-0.0000000000000284
 11
-145.4292893218814982
 21
139.999999999999801
 31
-0.0000000000000289
  0
LINE
  5
143AB
  8
0
 10
-143.4292893218814982
 20
139.999999999999801
 30
-0.0000000000000284
 11
-143.4292893218814982
 21
138.499999999999801
 31
-0.0000000000000284
  0
LINE
  5
143AC
  8
0
 10
-135.4135028842545125
 20
139.999999999999801
 30
-0.0000000000000284
 11
-134.7063961030679025
 21
139.999999999999801
 31
-0.0000000000000284
  0
LINE
  5
143AD
  8
0
 10
-100.7315201917650995
 20
139.999999999999801
 30
-0.0000000000000213
 11
-134.7063961030679025
 21
139.999999999999801
 31
-0.0000000000000284
  0
LINE
  5
143AE
  8
0
 10
-145.4292893218812992
 20
71.4999999999998579
 30
-0.0000000000000284
 11
-145.9300000000004047
 21
71.4999999999998579
 31
-0.0000000000000285
  0
LINE
  5
143AF
  8
0
 10
-143.4292893218812992
 20
71.4999999999998579
 30
-0.0000000000000284
 11
-145.4292893218812992
 21
71.4999999999998579
 31
-0.0000000000000289
  0
LINE
  5
143B0
  8
0
 10
-142.9300000000004047
 20
71.4999999999998579
 30
-0.0000000000000284
 11
-143.4292893218812992
 21
71.4999999999998579
 31
-0.0000000000000285
  0
LINE
  5
143B1
  8
0
 10
55.0614811756186171
 20
71.4999999999998579
 30
0.0000000000000107
 11
54.5614811756186171
 21
71.4999999999998579
 31
0.0000000000000105
  0
LINE
  5
143B2
  8
0
 10
57.0614811756186171
 20
71.4999999999998579
 30
0.0000000000000142
 11
55.0614811756186171
 21
71.4999999999998579
 31
0.0000000000000138
  0
LINE
  5
143B3
  8
0
 10
57.5614811756186171
 20
71.4999999999998579
 30
0.0000000000000142
 11
57.0614811756186171
 21
71.4999999999998579
 31
0.0000000000000141
  0
LINE
  5
143B4
  8
0
 10
63.9609291162385105
 20
71.4999999999998579
 30
0.0000000000000142
 11
67.6766532436254238
 21
71.4999999999998579
 31
0.0000000000000142
  0
LINE
  5
143B5
  8
0
 10
94.0995959556998969
 20
71.4999999999998579
 30
0.0000000000000213
 11
67.6766532436254238
 21
71.4999999999998579
 31
0.0000000000000142
  0
LINE
  5
143B6
  8
0
 10
-100.7315201917647016
 20
69.9999999999998437
 30
-0.0000000000000213
 11
-134.7063961030677888
 21
69.9999999999998437
 31
-0.0000000000000284
  0
LINE
  5
143B7
  8
0
 10
-134.7063961030679025
 20
69.9999999999998437
 30
-0.0000000000000284
 11
-135.4135028842545125
 21
69.9999999999998437
 31
-0.0000000000000284
  0
LINE
  5
143B8
  8
0
 10
-143.4292893218812992
 20
71.4999999999998579
 30
-0.0000000000000284
 11
-143.4292893218812992
 21
69.9999999999998437
 31
-0.0000000000000284
  0
LINE
  5
143B9
  8
0
 10
-145.4292893218812992
 20
71.4999999999998579
 30
-0.0000000000000284
 11
-145.4292893218812992
 21
69.9999999999998437
 31
-0.0000000000000284
  0
LINE
  5
143BA
  8
0
 10
-143.4292893218812992
 20
69.9999999999998437
 30
-0.0000000000000284
 11
-145.4292893218812992
 21
69.9999999999998437
 31
-0.0000000000000289
  0
LINE
  5
143BB
  8
0
 10
-153.4292893218814129
 20
70.7499999999998437
 30
-0.0000000000000355
 11
-153.4292893218814129
 21
69.9999999999998437
 31
-0.0000000000000355
  0
LINE
  5
143BC
  8
0
 10
-145.4292893218812992
 20
69.9999999999998437
 30
-0.0000000000000284
 11
-153.4292893218814129
 21
69.9999999999998437
 31
-0.0000000000000302
  0
LINE
  5
143BD
  8
0
 10
-135.4135028842545125
 20
69.9999999999998437
 30
-0.0000000000000284
 11
-143.4292893218812992
 21
69.9999999999998437
 31
-0.0000000000000302
  0
LINE
  5
143BE
  8
0
 10
94.0995959556998969
 20
69.9999999999998437
 30
0.0000000000000213
 11
67.6766532436254238
 21
69.9999999999998437
 31
0.0000000000000142
  0
LINE
  5
143BF
  8
0
 10
63.9609291162385105
 20
69.9999999999998437
 30
0.0000000000000142
 11
67.6766532436254238
 21
69.9999999999998437
 31
0.0000000000000142
  0
LINE
  5
143C0
  8
0
 10
63.9609291162385105
 20
69.9999999999998437
 30
0.0000000000000142
 11
57.0614811756186171
 21
69.9999999999998437
 31
0.0000000000000127
  0
LINE
  5
143C1
  8
0
 10
57.0614811756186171
 20
69.9999999999998437
 30
0.0000000000000142
 11
55.0614811756186171
 21
69.9999999999998437
 31
0.0000000000000138
  0
LINE
  5
143C2
  8
0
 10
55.0614811756186171
 20
69.9999999999998437
 30
0.0000000000000107
 11
-98.9637532387994412
 21
69.9999999999998437
 31
-0.0000000000000231
  0
LINE
  5
143C3
  8
0
 10
-98.9637532387994412
 20
69.9999999999998437
 30
-0.0000000000000213
 11
-100.731520191765199
 21
69.9999999999998437
 31
-0.0000000000000213
  0
LINE
  5
143C4
  8
0
 10
-154.2500000000003979
 20
71.4999999999998579
 30
-0.0000000000000355
 11
-155.0000000000005969
 21
71.4999999999998579
 31
-0.0000000000000357
  0
LINE
  5
143C5
  8
0
 10
55.0614811756186171
 20
71.4999999999998579
 30
0.0000000000000107
 11
55.0614811756186171
 21
69.9999999999998437
 31
0.0000000000000107
  0
LINE
  5
143C6
  8
0
 10
57.0614811756186171
 20
71.4999999999998579
 30
0.0000000000000142
 11
57.0614811756186171
 21
69.9999999999998437
 31
0.0000000000000142
  0
POLYLINE
  5
143C7
  8
0
 10
94.9999999999985221
 20
70.2087121525222955
 30
0.0000000000000215
 66
     1
 70
     8
  0
VERTEX
  8
0
  5
14602
 10
95.0000
 20
70.2087
 30
2.14801e-14
  70
    32
  0
VERTEX
  8
0
  5
14603
 10
94.9934
 20
70.2055
 30
2.14788e-14
  70
    32
  0
VERTEX
  8
0
  5
14604
 10
94.9867
 20
70.2023
 30
2.14774e-14
  70
    32
  0
VERTEX
  8
0
  5
14605
 10
94.9801
 20
70.1992
 30
2.14761e-14
  70
    32
  0
VERTEX
  8
0
  5
14606
 10
94.9734
 20
70.1960
 30
2.14748e-14
  70
    32
  0
VERTEX
  8
0
  5
14607
 10
94.9667
 20
70.1929
 30
2.14734e-14
  70
    32
  0
VERTEX
  8
0
  5
14608
 10
94.9600
 20
70.1898
 30
2.14721e-14
  70
    32
  0
VERTEX
  8
0
  5
14609
 10
94.9533
 20
70.1868
 30
2.14708e-14
  70
    32
  0
VERTEX
  8
0
  5
1460A
 10
94.9466
 20
70.1838
 30
2.14694e-14
  70
    32
  0
VERTEX
  8
0
  5
1460B
 10
94.9399
 20
70.1807
 30
2.14681e-14
  70
    32
  0
VERTEX
  8
0
  5
1460C
 10
94.9332
 20
70.1778
 30
2.14667e-14
  70
    32
  0
VERTEX
  8
0
  5
1460D
 10
94.9265
 20
70.1748
 30
2.14654e-14
  70
    32
  0
VERTEX
  8
0
  5
1460E
 10
94.9198
 20
70.1718
 30
2.14640e-14
  70
    32
  0
VERTEX
  8
0
  5
1460F
 10
94.9130
 20
70.1689
 30
2.14627e-14
  70
    32
  0
VERTEX
  8
0
  5
14610
 10
94.9063
 20
70.1660
 30
2.14613e-14
  70
    32
  0
VERTEX
  8
0
  5
14611
 10
94.8995
 20
70.1632
 30
2.14600e-14
  70
    32
  0
VERTEX
  8
0
  5
14612
 10
94.8927
 20
70.1603
 30
2.14586e-14
  70
    32
  0
VERTEX
  8
0
  5
14613
 10
94.8860
 20
70.1575
 30
2.14573e-14
  70
    32
  0
VERTEX
  8
0
  5
14614
 10
94.8792
 20
70.1547
 30
2.14559e-14
  70
    32
  0
VERTEX
  8
0
  5
14615
 10
94.8724
 20
70.1519
 30
2.14546e-14
  70
    32
  0
VERTEX
  8
0
  5
14616
 10
94.8656
 20
70.1492
 30
2.14532e-14
  70
    32
  0
VERTEX
  8
0
  5
14617
 10
94.8588
 20
70.1465
 30
2.14518e-14
  70
    32
  0
VERTEX
  8
0
  5
14618
 10
94.8519
 20
70.1438
 30
2.14505e-14
  70
    32
  0
VERTEX
  8
0
  5
14619
 10
94.8451
 20
70.1411
 30
2.14491e-14
  70
    32
  0
VERTEX
  8
0
  5
1461A
 10
94.8383
 20
70.1384
 30
2.14477e-14
  70
    32
  0
VERTEX
  8
0
  5
1461B
 10
94.8315
 20
70.1358
 30
2.14464e-14
  70
    32
  0
VERTEX
  8
0
  5
1461C
 10
94.8246
 20
70.1332
 30
2.14450e-14
  70
    32
  0
VERTEX
  8
0
  5
1461D
 10
94.8177
 20
70.1306
 30
2.14436e-14
  70
    32
  0
VERTEX
  8
0
  5
1461E
 10
94.8109
 20
70.1281
 30
2.14423e-14
  70
    32
  0
VERTEX
  8
0
  5
1461F
 10
94.8040
 20
70.1256
 30
2.14409e-14
  70
    32
  0
VERTEX
  8
0
  5
14620
 10
94.7971
 20
70.1231
 30
2.14395e-14
  70
    32
  0
VERTEX
  8
0
  5
14621
 10
94.7903
 20
70.1206
 30
2.14381e-14
  70
    32
  0
VERTEX
  8
0
  5
14622
 10
94.7834
 20
70.1181
 30
2.14368e-14
  70
    32
  0
VERTEX
  8
0
  5
14623
 10
94.7765
 20
70.1157
 30
2.14354e-14
  70
    32
  0
VERTEX
  8
0
  5
14624
 10
94.7696
 20
70.1133
 30
2.14340e-14
  70
    32
  0
VERTEX
  8
0
  5
14625
 10
94.7626
 20
70.1109
 30
2.14326e-14
  70
    32
  0
VERTEX
  8
0
  5
14626
 10
94.7557
 20
70.1086
 30
2.14312e-14
  70
    32
  0
VERTEX
  8
0
  5
14627
 10
94.7488
 20
70.1062
 30
2.14298e-14
  70
    32
  0
VERTEX
  8
0
  5
14628
 10
94.7419
 20
70.1039
 30
2.14285e-14
  70
    32
  0
VERTEX
  8
0
  5
14629
 10
94.7349
 20
70.1016
 30
2.14271e-14
  70
    32
  0
VERTEX
  8
0
  5
1462A
 10
94.7280
 20
70.0994
 30
2.14257e-14
  70
    32
  0
VERTEX
  8
0
  5
1462B
 10
94.7210
 20
70.0972
 30
2.14243e-14
  70
    32
  0
VERTEX
  8
0
  5
1462C
 10
94.7141
 20
70.0949
 30
2.14229e-14
  70
    32
  0
VERTEX
  8
0
  5
1462D
 10
94.7071
 20
70.0928
 30
2.14215e-14
  70
    32
  0
VERTEX
  8
0
  5
1462E
 10
94.7001
 20
70.0906
 30
2.14201e-14
  70
    32
  0
VERTEX
  8
0
  5
1462F
 10
94.6932
 20
70.0885
 30
2.14187e-14
  70
    32
  0
VERTEX
  8
0
  5
14630
 10
94.6862
 20
70.0864
 30
2.14173e-14
  70
    32
  0
VERTEX
  8
0
  5
14631
 10
94.6792
 20
70.0843
 30
2.14159e-14
  70
    32
  0
VERTEX
  8
0
  5
14632
 10
94.6722
 20
70.0822
 30
2.14145e-14
  70
    32
  0
VERTEX
  8
0
  5
14633
 10
94.6652
 20
70.0802
 30
2.14131e-14
  70
    32
  0
VERTEX
  8
0
  5
14634
 10
94.6582
 20
70.0782
 30
2.14117e-14
  70
    32
  0
VERTEX
  8
0
  5
14635
 10
94.6512
 20
70.0762
 30
2.14103e-14
  70
    32
  0
VERTEX
  8
0
  5
14636
 10
94.6441
 20
70.0743
 30
2.14089e-14
  70
    32
  0
VERTEX
  8
0
  5
14637
 10
94.6371
 20
70.0723
 30
2.14075e-14
  70
    32
  0
VERTEX
  8
0
  5
14638
 10
94.6301
 20
70.0704
 30
2.14061e-14
  70
    32
  0
VERTEX
  8
0
  5
14639
 10
94.6231
 20
70.0685
 30
2.14047e-14
  70
    32
  0
VERTEX
  8
0
  5
1463A
 10
94.6160
 20
70.0667
 30
2.14033e-14
  70
    32
  0
VERTEX
  8
0
  5
1463B
 10
94.6090
 20
70.0648
 30
2.14019e-14
  70
    32
  0
VERTEX
  8
0
  5
1463C
 10
94.6019
 20
70.0630
 30
2.14005e-14
  70
    32
  0
VERTEX
  8
0
  5
1463D
 10
94.5949
 20
70.0613
 30
2.13991e-14
  70
    32
  0
VERTEX
  8
0
  5
1463E
 10
94.5878
 20
70.0595
 30
2.13976e-14
  70
    32
  0
VERTEX
  8
0
  5
1463F
 10
94.5807
 20
70.0578
 30
2.13962e-14
  70
    32
  0
VERTEX
  8
0
  5
14640
 10
94.5737
 20
70.0561
 30
2.13948e-14
  70
    32
  0
VERTEX
  8
0
  5
14641
 10
94.5666
 20
70.0544
 30
2.13934e-14
  70
    32
  0
VERTEX
  8
0
  5
14642
 10
94.5595
 20
70.0527
 30
2.13920e-14
  70
    32
  0
VERTEX
  8
0
  5
14643
 10
94.5524
 20
70.0511
 30
2.13906e-14
  70
    32
  0
VERTEX
  8
0
  5
14644
 10
94.5453
 20
70.0495
 30
2.13891e-14
  70
    32
  0
VERTEX
  8
0
  5
14645
 10
94.5382
 20
70.0479
 30
2.13877e-14
  70
    32
  0
VERTEX
  8
0
  5
14646
 10
94.5311
 20
70.0464
 30
2.13863e-14
  70
    32
  0
VERTEX
  8
0
  5
14647
 10
94.5240
 20
70.0448
 30
2.13849e-14
  70
    32
  0
VERTEX
  8
0
  5
14648
 10
94.5169
 20
70.0433
 30
2.13835e-14
  70
    32
  0
VERTEX
  8
0
  5
14649
 10
94.5098
 20
70.0419
 30
2.13820e-14
  70
    32
  0
VERTEX
  8
0
  5
1464A
 10
94.5027
 20
70.0404
 30
2.13806e-14
  70
    32
  0
VERTEX
  8
0
  5
1464B
 10
94.4956
 20
70.0390
 30
2.13792e-14
  70
    32
  0
VERTEX
  8
0
  5
1464C
 10
94.4884
 20
70.0376
 30
2.13778e-14
  70
    32
  0
VERTEX
  8
0
  5
1464D
 10
94.4813
 20
70.0362
 30
2.13763e-14
  70
    32
  0
VERTEX
  8
0
  5
1464E
 10
94.4742
 20
70.0349
 30
2.13749e-14
  70
    32
  0
VERTEX
  8
0
  5
1464F
 10
94.4670
 20
70.0335
 30
2.13735e-14
  70
    32
  0
VERTEX
  8
0
  5
14650
 10
94.4599
 20
70.0322
 30
2.13721e-14
  70
    32
  0
VERTEX
  8
0
  5
14651
 10
94.4527
 20
70.0310
 30
2.13706e-14
  70
    32
  0
VERTEX
  8
0
  5
14652
 10
94.4456
 20
70.0297
 30
2.13692e-14
  70
    32
  0
VERTEX
  8
0
  5
14653
 10
94.4384
 20
70.0285
 30
2.13678e-14
  70
    32
  0
VERTEX
  8
0
  5
14654
 10
94.4313
 20
70.0273
 30
2.13663e-14
  70
    32
  0
VERTEX
  8
0
  5
14655
 10
94.4241
 20
70.0261
 30
2.13649e-14
  70
    32
  0
VERTEX
  8
0
  5
14656
 10
94.4170
 20
70.0250
 30
2.13635e-14
  70
    32
  0
VERTEX
  8
0
  5
14657
 10
94.4098
 20
70.0239
 30
2.13620e-14
  70
    32
  0
VERTEX
  8
0
  5
14658
 10
94.4026
 20
70.0228
 30
2.13606e-14
  70
    32
  0
VERTEX
  8
0
  5
14659
 10
94.3955
 20
70.0217
 30
2.13592e-14
  70
    32
  0
VERTEX
  8
0
  5
1465A
 10
94.3883
 20
70.0206
 30
2.13577e-14
  70
    32
  0
VERTEX
  8
0
  5
1465B
 10
94.3811
 20
70.0196
 30
2.13563e-14
  70
    32
  0
VERTEX
  8
0
  5
1465C
 10
94.3739
 20
70.0186
 30
2.13549e-14
  70
    32
  0
VERTEX
  8
0
  5
1465D
 10
94.3667
 20
70.0177
 30
2.13534e-14
  70
    32
  0
VERTEX
  8
0
  5
1465E
 10
94.3595
 20
70.0167
 30
2.13520e-14
  70
    32
  0
VERTEX
  8
0
  5
1465F
 10
94.3524
 20
70.0158
 30
2.13506e-14
  70
    32
  0
VERTEX
  8
0
  5
14660
 10
94.3452
 20
70.0149
 30
2.13491e-14
  70
    32
  0
VERTEX
  8
0
  5
14661
 10
94.3380
 20
70.0141
 30
2.13477e-14
  70
    32
  0
VERTEX
  8
0
  5
14662
 10
94.3308
 20
70.0132
 30
2.13462e-14
  70
    32
  0
VERTEX
  8
0
  5
14663
 10
94.3236
 20
70.0124
 30
2.13448e-14
  70
    32
  0
VERTEX
  8
0
  5
14664
 10
94.3164
 20
70.0116
 30
2.13434e-14
  70
    32
  0
VERTEX
  8
0
  5
14665
 10
94.3092
 20
70.0109
 30
2.13419e-14
  70
    32
  0
VERTEX
  8
0
  5
14666
 10
94.3020
 20
70.0101
 30
2.13405e-14
  70
    32
  0
VERTEX
  8
0
  5
14667
 10
94.2947
 20
70.0094
 30
2.13390e-14
  70
    32
  0
VERTEX
  8
0
  5
14668
 10
94.2875
 20
70.0087
 30
2.13376e-14
  70
    32
  0
VERTEX
  8
0
  5
14669
 10
94.2803
 20
70.0081
 30
2.13361e-14
  70
    32
  0
VERTEX
  8
0
  5
1466A
 10
94.2731
 20
70.0074
 30
2.13347e-14
  70
    32
  0
VERTEX
  8
0
  5
1466B
 10
94.2659
 20
70.0068
 30
2.13333e-14
  70
    32
  0
VERTEX
  8
0
  5
1466C
 10
94.2587
 20
70.0063
 30
2.13318e-14
  70
    32
  0
VERTEX
  8
0
  5
1466D
 10
94.2515
 20
70.0057
 30
2.13304e-14
  70
    32
  0
VERTEX
  8
0
  5
1466E
 10
94.2442
 20
70.0052
 30
2.13289e-14
  70
    32
  0
VERTEX
  8
0
  5
1466F
 10
94.2370
 20
70.0047
 30
2.13275e-14
  70
    32
  0
VERTEX
  8
0
  5
14670
 10
94.2298
 20
70.0042
 30
2.13260e-14
  70
    32
  0
VERTEX
  8
0
  5
14671
 10
94.2226
 20
70.0037
 30
2.13246e-14
  70
    32
  0
VERTEX
  8
0
  5
14672
 10
94.2153
 20
70.0033
 30
2.13231e-14
  70
    32
  0
VERTEX
  8
0
  5
14673
 10
94.2081
 20
70.0029
 30
2.13217e-14
  70
    32
  0
VERTEX
  8
0
  5
14674
 10
94.2009
 20
70.0025
 30
2.13203e-14
  70
    32
  0
VERTEX
  8
0
  5
14675
 10
94.1936
 20
70.0022
 30
2.13188e-14
  70
    32
  0
VERTEX
  8
0
  5
14676
 10
94.1864
 20
70.0019
 30
2.13174e-14
  70
    32
  0
VERTEX
  8
0
  5
14677
 10
94.1792
 20
70.0016
 30
2.13159e-14
  70
    32
  0
VERTEX
  8
0
  5
14678
 10
94.1720
 20
70.0013
 30
2.13145e-14
  70
    32
  0
VERTEX
  8
0
  5
14679
 10
94.1647
 20
70.0010
 30
2.13130e-14
  70
    32
  0
VERTEX
  8
0
  5
1467A
 10
94.1575
 20
70.0008
 30
2.13116e-14
  70
    32
  0
VERTEX
  8
0
  5
1467B
 10
94.1503
 20
70.0006
 30
2.13101e-14
  70
    32
  0
VERTEX
  8
0
  5
1467C
 10
94.1430
 20
70.0005
 30
2.13087e-14
  70
    32
  0
VERTEX
  8
0
  5
1467D
 10
94.1358
 20
70.0003
 30
2.13072e-14
  70
    32
  0
VERTEX
  8
0
  5
1467E
 10
94.1285
 20
70.0002
 30
2.13058e-14
  70
    32
  0
VERTEX
  8
0
  5
1467F
 10
94.1213
 20
70.0001
 30
2.13043e-14
  70
    32
  0
VERTEX
  8
0
  5
14680
 10
94.1141
 20
70.0001
 30
2.13029e-14
  70
    32
  0
VERTEX
  8
0
  5
14681
 10
94.1068
 20
70.0000
 30
2.13014e-14
  70
    32
  0
VERTEX
  8
0
  5
14682
 10
94.0996
 20
70.0000
 30
2.13000e-14
  70
    32
  0
SEQEND
  8
0
  5
14683
  0
POLYLINE
  5
143C8
  8
0
 10
94.9999999999977547
 20
72.4999999999998437
 30
0.0000000000000215
 66
     1
 70
     8
  0
VERTEX
  8
0
  5
14684
 10
95.0000
 20
72.5000
 30
2.14801e-14
  70
    32
  0
VERTEX
  8
0
  5
14685
 10
94.9999
 20
72.4877
 30
2.14801e-14
  70
    32
  0
VERTEX
  8
0
  5
14686
 10
94.9997
 20
72.4755
 30
2.14800e-14
  70
    32
  0
VERTEX
  8
0
  5
14687
 10
94.9994
 20
72.4632
 30
2.14800e-14
  70
    32
  0
VERTEX
  8
0
  5
14688
 10
94.9989
 20
72.4509
 30
2.14799e-14
  70
    32
  0
VERTEX
  8
0
  5
14689
 10
94.9983
 20
72.4387
 30
2.14797e-14
  70
    32
  0
VERTEX
  8
0
  5
1468A
 10
94.9976
 20
72.4264
 30
2.14796e-14
  70
    32
  0
VERTEX
  8
0
  5
1468B
 10
94.9967
 20
72.4142
 30
2.14794e-14
  70
    32
  0
VERTEX
  8
0
  5
1468C
 10
94.9957
 20
72.4020
 30
2.14792e-14
  70
    32
  0
VERTEX
  8
0
  5
1468D
 10
94.9945
 20
72.3898
 30
2.14790e-14
  70
    32
  0
VERTEX
  8
0
  5
1468E
 10
94.9932
 20
72.3776
 30
2.14787e-14
  70
    32
  0
VERTEX
  8
0
  5
1468F
 10
94.9918
 20
72.3654
 30
2.14784e-14
  70
    32
  0
VERTEX
  8
0
  5
14690
 10
94.9903
 20
72.3533
 30
2.14781e-14
  70
    32
  0
VERTEX
  8
0
  5
14691
 10
94.9886
 20
72.3411
 30
2.14778e-14
  70
    32
  0
VERTEX
  8
0
  5
14692
 10
94.9867
 20
72.3290
 30
2.14774e-14
  70
    32
  0
VERTEX
  8
0
  5
14693
 10
94.9848
 20
72.3170
 30
2.14770e-14
  70
    32
  0
VERTEX
  8
0
  5
14694
 10
94.9827
 20
72.3049
 30
2.14766e-14
  70
    32
  0
VERTEX
  8
0
  5
14695
 10
94.9805
 20
72.2929
 30
2.14762e-14
  70
    32
  0
VERTEX
  8
0
  5
14696
 10
94.9781
 20
72.2809
 30
2.14757e-14
  70
    32
  0
VERTEX
  8
0
  5
14697
 10
94.9756
 20
72.2689
 30
2.14752e-14
  70
    32
  0
VERTEX
  8
0
  5
14698
 10
94.9730
 20
72.2570
 30
2.14747e-14
  70
    32
  0
VERTEX
  8
0
  5
14699
 10
94.9703
 20
72.2451
 30
2.14741e-14
  70
    32
  0
VERTEX
  8
0
  5
1469A
 10
94.9674
 20
72.2333
 30
2.14736e-14
  70
    32
  0
VERTEX
  8
0
  5
1469B
 10
94.9644
 20
72.2215
 30
2.14730e-14
  70
    32
  0
VERTEX
  8
0
  5
1469C
 10
94.9612
 20
72.2097
 30
2.14723e-14
  70
    32
  0
VERTEX
  8
0
  5
1469D
 10
94.9580
 20
72.1980
 30
2.14717e-14
  70
    32
  0
VERTEX
  8
0
  5
1469E
 10
94.9546
 20
72.1863
 30
2.14710e-14
  70
    32
  0
VERTEX
  8
0
  5
1469F
 10
94.9510
 20
72.1747
 30
2.14703e-14
  70
    32
  0
VERTEX
  8
0
  5
146A0
 10
94.9474
 20
72.1631
 30
2.14696e-14
  70
    32
  0
VERTEX
  8
0
  5
146A1
 10
94.9436
 20
72.1516
 30
2.14688e-14
  70
    32
  0
VERTEX
  8
0
  5
146A2
 10
94.9397
 20
72.1401
 30
2.14680e-14
  70
    32
  0
VERTEX
  8
0
  5
146A3
 10
94.9356
 20
72.1287
 30
2.14672e-14
  70
    32
  0
VERTEX
  8
0
  5
146A4
 10
94.9315
 20
72.1173
 30
2.14664e-14
  70
    32
  0
VERTEX
  8
0
  5
146A5
 10
94.9272
 20
72.1060
 30
2.14655e-14
  70
    32
  0
VERTEX
  8
0
  5
146A6
 10
94.9228
 20
72.0948
 30
2.14646e-14
  70
    32
  0
VERTEX
  8
0
  5
146A7
 10
94.9182
 20
72.0836
 30
2.14637e-14
  70
    32
  0
VERTEX
  8
0
  5
146A8
 10
94.9136
 20
72.0724
 30
2.14628e-14
  70
    32
  0
VERTEX
  8
0
  5
146A9
 10
94.9088
 20
72.0614
 30
2.14618e-14
  70
    32
  0
VERTEX
  8
0
  5
146AA
 10
94.9039
 20
72.0504
 30
2.14609e-14
  70
    32
  0
VERTEX
  8
0
  5
146AB
 10
94.8988
 20
72.0395
 30
2.14598e-14
  70
    32
  0
VERTEX
  8
0
  5
146AC
 10
94.8937
 20
72.0286
 30
2.14588e-14
  70
    32
  0
VERTEX
  8
0
  5
146AD
 10
94.8884
 20
72.0178
 30
2.14578e-14
  70
    32
  0
VERTEX
  8
0
  5
146AE
 10
94.8830
 20
72.0071
 30
2.14567e-14
  70
    32
  0
VERTEX
  8
0
  5
146AF
 10
94.8775
 20
71.9965
 30
2.14556e-14
  70
    32
  0
VERTEX
  8
0
  5
146B0
 10
94.8719
 20
71.9859
 30
2.14545e-14
  70
    32
  0
VERTEX
  8
0
  5
146B1
 10
94.8662
 20
71.9754
 30
2.14533e-14
  70
    32
  0
VERTEX
  8
0
  5
146B2
 10
94.8603
 20
71.9650
 30
2.14521e-14
  70
    32
  0
VERTEX
  8
0
  5
146B3
 10
94.8543
 20
71.9547
 30
2.14509e-14
  70
    32
  0
VERTEX
  8
0
  5
146B4
 10
94.8483
 20
71.9444
 30
2.14497e-14
  70
    32
  0
VERTEX
  8
0
  5
146B5
 10
94.8421
 20
71.9343
 30
2.14485e-14
  70
    32
  0
VERTEX
  8
0
  5
146B6
 10
94.8358
 20
71.9242
 30
2.14472e-14
  70
    32
  0
VERTEX
  8
0
  5
146B7
 10
94.8293
 20
71.9142
 30
2.14459e-14
  70
    32
  0
VERTEX
  8
0
  5
146B8
 10
94.8228
 20
71.9043
 30
2.14446e-14
  70
    32
  0
VERTEX
  8
0
  5
146B9
 10
94.8162
 20
71.8945
 30
2.14433e-14
  70
    32
  0
VERTEX
  8
0
  5
146BA
 10
94.8094
 20
71.8848
 30
2.14420e-14
  70
    32
  0
VERTEX
  8
0
  5
146BB
 10
94.8026
 20
71.8751
 30
2.14406e-14
  70
    32
  0
VERTEX
  8
0
  5
146BC
 10
94.7956
 20
71.8656
 30
2.14392e-14
  70
    32
  0
VERTEX
  8
0
  5
146BD
 10
94.7886
 20
71.8562
 30
2.14378e-14
  70
    32
  0
VERTEX
  8
0
  5
146BE
 10
94.7814
 20
71.8468
 30
2.14364e-14
  70
    32
  0
VERTEX
  8
0
  5
146BF
 10
94.7741
 20
71.8376
 30
2.14349e-14
  70
    32
  0
VERTEX
  8
0
  5
146C0
 10
94.7668
 20
71.8284
 30
2.14334e-14
  70
    32
  0
VERTEX
  8
0
  5
146C1
 10
94.7593
 20
71.8194
 30
2.14319e-14
  70
    32
  0
VERTEX
  8
0
  5
146C2
 10
94.7517
 20
71.8105
 30
2.14304e-14
  70
    32
  0
VERTEX
  8
0
  5
146C3
 10
94.7440
 20
71.8016
 30
2.14289e-14
  70
    32
  0
VERTEX
  8
0
  5
146C4
 10
94.7363
 20
71.7929
 30
2.14273e-14
  70
    32
  0
VERTEX
  8
0
  5
146C5
 10
94.7284
 20
71.7843
 30
2.14258e-14
  70
    32
  0
VERTEX
  8
0
  5
146C6
 10
94.7205
 20
71.7758
 30
2.14242e-14
  70
    32
  0
VERTEX
  8
0
  5
146C7
 10
94.7124
 20
71.7673
 30
2.14226e-14
  70
    32
  0
VERTEX
  8
0
  5
146C8
 10
94.7043
 20
71.7590
 30
2.14209e-14
  70
    32
  0
VERTEX
  8
0
  5
146C9
 10
94.6960
 20
71.7509
 30
2.14193e-14
  70
    32
  0
VERTEX
  8
0
  5
146CA
 10
94.6877
 20
71.7428
 30
2.14176e-14
  70
    32
  0
VERTEX
  8
0
  5
146CB
 10
94.6793
 20
71.7348
 30
2.14159e-14
  70
    32
  0
VERTEX
  8
0
  5
146CC
 10
94.6708
 20
71.7270
 30
2.14142e-14
  70
    32
  0
VERTEX
  8
0
  5
146CD
 10
94.6622
 20
71.7193
 30
2.14125e-14
  70
    32
  0
VERTEX
  8
0
  5
146CE
 10
94.6536
 20
71.7117
 30
2.14108e-14
  70
    32
  0
VERTEX
  8
0
  5
146CF
 10
94.6448
 20
71.7042
 30
2.14090e-14
  70
    32
  0
VERTEX
  8
0
  5
146D0
 10
94.6360
 20
71.6968
 30
2.14073e-14
  70
    32
  0
VERTEX
  8
0
  5
146D1
 10
94.6271
 20
71.6895
 30
2.14055e-14
  70
    32
  0
VERTEX
  8
0
  5
146D2
 10
94.6181
 20
71.6824
 30
2.14037e-14
  70
    32
  0
VERTEX
  8
0
  5
146D3
 10
94.6090
 20
71.6754
 30
2.14019e-14
  70
    32
  0
VERTEX
  8
0
  5
146D4
 10
94.5998
 20
71.6685
 30
2.14000e-14
  70
    32
  0
VERTEX
  8
0
  5
146D5
 10
94.5906
 20
71.6618
 30
2.13982e-14
  70
    32
  0
VERTEX
  8
0
  5
146D6
 10
94.5813
 20
71.6551
 30
2.13963e-14
  70
    32
  0
VERTEX
  8
0
  5
146D7
 10
94.5719
 20
71.6486
 30
2.13945e-14
  70
    32
  0
VERTEX
  8
0
  5
146D8
 10
94.5625
 20
71.6423
 30
2.13926e-14
  70
    32
  0
VERTEX
  8
0
  5
146D9
 10
94.5530
 20
71.6360
 30
2.13907e-14
  70
    32
  0
VERTEX
  8
0
  5
146DA
 10
94.5434
 20
71.6299
 30
2.13888e-14
  70
    32
  0
VERTEX
  8
0
  5
146DB
 10
94.5338
 20
71.6239
 30
2.13868e-14
  70
    32
  0
VERTEX
  8
0
  5
146DC
 10
94.5240
 20
71.6181
 30
2.13849e-14
  70
    32
  0
VERTEX
  8
0
  5
146DD
 10
94.5143
 20
71.6124
 30
2.13829e-14
  70
    32
  0
VERTEX
  8
0
  5
146DE
 10
94.5044
 20
71.6068
 30
2.13810e-14
  70
    32
  0
VERTEX
  8
0
  5
146DF
 10
94.4945
 20
71.6013
 30
2.13790e-14
  70
    32
  0
VERTEX
  8
0
  5
146E0
 10
94.4846
 20
71.5960
 30
2.13770e-14
  70
    32
  0
VERTEX
  8
0
  5
146E1
 10
94.4746
 20
71.5908
 30
2.13750e-14
  70
    32
  0
VERTEX
  8
0
  5
146E2
 10
94.4645
 20
71.5858
 30
2.13730e-14
  70
    32
  0
VERTEX
  8
0
  5
146E3
 10
94.4543
 20
71.5809
 30
2.13710e-14
  70
    32
  0
VERTEX
  8
0
  5
146E4
 10
94.4442
 20
71.5761
 30
2.13689e-14
  70
    32
  0
VERTEX
  8
0
  5
146E5
 10
94.4339
 20
71.5715
 30
2.13669e-14
  70
    32
  0
VERTEX
  8
0
  5
146E6
 10
94.4236
 20
71.5670
 30
2.13648e-14
  70
    32
  0
VERTEX
  8
0
  5
146E7
 10
94.4133
 20
71.5627
 30
2.13627e-14
  70
    32
  0
VERTEX
  8
0
  5
146E8
 10
94.4029
 20
71.5585
 30
2.13607e-14
  70
    32
  0
VERTEX
  8
0
  5
146E9
 10
94.3925
 20
71.5544
 30
2.13586e-14
  70
    32
  0
VERTEX
  8
0
  5
146EA
 10
94.3820
 20
71.5505
 30
2.13565e-14
  70
    32
  0
VERTEX
  8
0
  5
146EB
 10
94.3715
 20
71.5467
 30
2.13544e-14
  70
    32
  0
VERTEX
  8
0
  5
146EC
 10
94.3610
 20
71.5431
 30
2.13523e-14
  70
    32
  0
VERTEX
  8
0
  5
146ED
 10
94.3504
 20
71.5396
 30
2.13502e-14
  70
    32
  0
VERTEX
  8
0
  5
146EE
 10
94.3397
 20
71.5362
 30
2.13480e-14
  70
    32
  0
VERTEX
  8
0
  5
146EF
 10
94.3291
 20
71.5330
 30
2.13459e-14
  70
    32
  0
VERTEX
  8
0
  5
146F0
 10
94.3184
 20
71.5300
 30
2.13438e-14
  70
    32
  0
VERTEX
  8
0
  5
146F1
 10
94.3076
 20
71.5271
 30
2.13416e-14
  70
    32
  0
VERTEX
  8
0
  5
146F2
 10
94.2969
 20
71.5243
 30
2.13395e-14
  70
    32
  0
VERTEX
  8
0
  5
146F3
 10
94.2861
 20
71.5217
 30
2.13373e-14
  70
    32
  0
VERTEX
  8
0
  5
146F4
 10
94.2753
 20
71.5192
 30
2.13351e-14
  70
    32
  0
VERTEX
  8
0
  5
146F5
 10
94.2644
 20
71.5169
 30
2.13330e-14
  70
    32
  0
VERTEX
  8
0
  5
146F6
 10
94.2535
 20
71.5147
 30
2.13308e-14
  70
    32
  0
VERTEX
  8
0
  5
146F7
 10
94.2426
 20
71.5127
 30
2.13286e-14
  70
    32
  0
VERTEX
  8
0
  5
146F8
 10
94.2317
 20
71.5108
 30
2.13264e-14
  70
    32
  0
VERTEX
  8
0
  5
146F9
 10
94.2208
 20
71.5091
 30
2.13242e-14
  70
    32
  0
VERTEX
  8
0
  5
146FA
 10
94.2098
 20
71.5075
 30
2.13220e-14
  70
    32
  0
VERTEX
  8
0
  5
146FB
 10
94.1988
 20
71.5061
 30
2.13198e-14
  70
    32
  0
VERTEX
  8
0
  5
146FC
 10
94.1879
 20
71.5048
 30
2.13177e-14
  70
    32
  0
VERTEX
  8
0
  5
146FD
 10
94.1768
 20
71.5037
 30
2.13155e-14
  70
    32
  0
VERTEX
  8
0
  5
146FE
 10
94.1658
 20
71.5027
 30
2.13132e-14
  70
    32
  0
VERTEX
  8
0
  5
146FF
 10
94.1548
 20
71.5019
 30
2.13110e-14
  70
    32
  0
VERTEX
  8
0
  5
14700
 10
94.1438
 20
71.5012
 30
2.13088e-14
  70
    32
  0
VERTEX
  8
0
  5
14701
 10
94.1327
 20
71.5007
 30
2.13066e-14
  70
    32
  0
VERTEX
  8
0
  5
14702
 10
94.1217
 20
71.5003
 30
2.13044e-14
  70
    32
  0
VERTEX
  8
0
  5
14703
 10
94.1106
 20
71.5001
 30
2.13022e-14
  70
    32
  0
VERTEX
  8
0
  5
14704
 10
94.0996
 20
71.5000
 30
2.13000e-14
  70
    32
  0
SEQEND
  8
0
  5
14705
  0
LINE
  5
143C9
  8
0
 10
94.9999999999996589
 20
72.4999999999998437
 30
0.0000000000000213
 11
94.9999999999996589
 21
70.2087121525219402
 31
0.0000000000000213
  0
LINE
  5
143CA
  8
0
 10
-155.0000000000005969
 20
138.499999999999801
 30
-0.0000000000000355
 11
-155.0000000000005969
 21
71.4999999999998579
 31
-0.0000000000000355
  0
LINE
  5
143CB
  8
0
 10
94.9999999999996589
 20
137.499999999999801
 30
0.0000000000000213
 11
94.9999999999996589
 21
72.4999999999998437
 31
0.0000000000000213
  0
LINE
  5
143CC
  8
0
  6
VERDECKT
 62
     1
 10
-214.5588157188078924
 20
76.846502442838073
 30
-0.0000000000000462
 11
-214.5588157188080061
 21
133.1534975571615007
 31
-0.0000000000000462
  0
LINE
  5
143CD
  8
0
  6
VERDECKT
 62
     1
 10
-172.8558403259251861
 20
130.4999999999998863
 30
-0.0000000000000391
 11
-155.0000000000005969
 21
130.4999999999998863
 31
-0.0000000000000352
  0
LINE
  5
143CE
  8
0
  6
VERDECKT
 62
     1
 10
-172.8558403259251008
 20
79.4999999999997726
 30
-0.0000000000000391
 11
-155.0000000000005116
 21
79.4999999999997726
 31
-0.0000000000000352
  0
ARC
  5
143CF
  8
0
  6
VERDECKT
 62
     1
 10
-172.8558403259254987
 20
70.5000000000009521
 30
-0.0000000000000391
 40
8.9999999999988436
 50
89.9999999999978542
 51
119.3321101677046983
  0
ARC
  5
143D0
  8
0
  6
VERDECKT
 62
     1
 10
-172.8558403259254987
 20
139.4999999999986926
 30
-0.0000000000000391
 40
8.9999999999988347
 50
240.6678898322930991
 51
270.0
  0
ARC
  5
143D1
  8
0
  6
VERDECKT
 62
     1
 10
-182.4083269131965039
 20
87.4999999999988916
 30
-0.0000000000000391
 40
10.4999999999992006
 50
269.9999999999997158
 51
299.332110167706503
  0
ARC
  5
143D2
  8
0
  6
VERDECKT
 62
     1
 10
-182.4083269131967029
 20
122.4999999999999005
 30
-0.0000000000000391
 40
10.4999999999999698
 50
60.6678898322951383
 51
89.9999999999996874
  0
LINE
  5
143D3
  8
0
  6
VERDECKT
 62
     1
 10
-193.5000000000005116
 20
132.999999999999801
 30
-0.0000000000000426
 11
-182.4083269131965892
 21
132.999999999999801
 31
-0.0000000000000402
  0
LINE
  5
143D4
  8
0
  6
VERDECKT
 62
     1
 10
-193.5000000000005116
 20
76.9999999999997726
 30
-0.0000000000000426
 11
-182.4083269131965892
 21
76.9999999999997726
 31
-0.0000000000000402
  0
ARC
  5
143D5
  8
0
  6
VERDECKT
 62
     1
 10
-193.5000000000011084
 20
65.5000000000020037
 30
-0.0000000000000426
 40
11.4999999999977494
 50
89.9999999999970157
 51
109.4630994446866055
  0
ARC
  5
143D6
  8
0
  6
VERDECKT
 62
     1
 10
-193.5000000000011084
 20
144.4999999999971863
 30
-0.0000000000000426
 40
11.4999999999975007
 50
250.5369005553131956
 51
270.0000000000031264
  0
ARC
  5
143D7
  8
0
  6
VERDECKT
 62
     1
 10
-205.1620000000002051
 20
98.4999999999984936
 30
-0.0000000000000462
 40
23.5000320571268091
 50
269.9053619552806254
 51
289.4630994446908971
  0
ARC
  5
143D8
  8
0
  6
VERDECKT
 62
     1
 10
-205.1620000000002904
 20
111.500000000000199
 30
-0.0000000000000462
 40
23.5000320571276617
 50
70.5369005553097566
 51
90.0946380447193178
  0
LINE
  5
143D9
  8
0
  6
VERDECKT
 62
     1
 10
-206.6174986573398087
 20
134.9999999999996021
 30
-0.0000000000000462
 11
-205.2008160540335098
 21
134.9999999999996021
 31
-0.0000000000000459
  0
LINE
  5
143DA
  8
0
  6
VERDECKT
 62
     1
 10
-206.617498657339695
 20
74.9999999999998863
 30
-0.0000000000000462
 11
-205.2008160540335098
 21
74.9999999999998863
 31
-0.0000000000000459
  0
ARC
  5
143DB
  8
0
  6
VERDECKT
 62
     1
 10
-206.617498657339496
 20
93.0000000000004974
 30
-0.0000000000000462
 40
18.0000000000006111
 50
243.8205326270901878
 51
270.0
  0
ARC
  5
143DC
  8
0
  6
VERDECKT
 62
     1
 10
-206.617498657339496
 20
116.9999999999990052
 30
-0.0000000000000462
 40
18.0000000000006004
 50
90.0000000000006253
 51
116.1794673729103948
  0
LINE
  5
143DD
  8
0
  6
VERDECKT
 62
     1
 10
-214.5588157188078924
 20
76.8465024428380588
 30
-0.0000000000000462
 11
-214.999999999999801
 21
75.9490859118841826
 31
-0.0000000000000463
  0
LINE
  5
143DE
  8
0
  6
VERDECKT
 62
     1
 10
-214.5588157188078924
 20
133.1534975571615007
 30
-0.0000000000000462
 11
-214.999999999999801
 21
134.0509140881152916
 31
-0.0000000000000463
  0
LINE
  5
143DF
  8
0
  6
VERDECKT
 62
     1
 10
-98.9637532387994412
 20
138.499999999999801
 30
-0.0000000000000213
 11
-100.731520191765199
 21
138.499999999999801
 31
-0.0000000000000213
  0
LINE
  5
143E0
  8
0
  6
VERDECKT
 62
     1
 10
54.5614811756186171
 20
138.499999999999801
 30
0.0000000000000107
 11
-98.9637532387994412
 21
138.499999999999801
 31
-0.000000000000023
  0
LINE
  5
143E1
  8
0
  6
VERDECKT
 62
     1
 10
63.9609291162383897
 20
138.499999999999801
 30
0.0000000000000142
 11
57.5614811756186171
 21
138.499999999999801
 31
0.0000000000000128
  0
LINE
  5
143E2
  8
0
  6
VERDECKT
 62
     1
 10
-152.5000000000007105
 20
139.999999999999801
 30
-0.0000000000000338
 11
-152.5000000000007105
 21
138.499999999999801
 31
-0.0000000000000338
  0
LINE
  5
143E3
  8
0
  6
VERDECKT
 62
     1
 10
-152.5000000000007105
 20
137.499999999999801
 30
-0.0000000000000338
 11
-152.5000000000007105
 21
138.499999999999801
 31
-0.0000000000000338
  0
LINE
  5
143E4
  8
0
  6
VERDECKT
 62
     1
 10
-155.0000000000007105
 20
137.499999999999801
 30
-0.0000000000000338
 11
-153.5000000000007105
 21
137.499999999999801
 31
-0.0000000000000334
  0
LINE
  5
143E5
  8
0
  6
VERDECKT
 62
     1
 10
-152.5000000000001137
 20
137.499999999999801
 30
-0.0000000000000338
 11
-153.5000000000007105
 21
137.499999999999801
 31
-0.0000000000000338
  0
LINE
  5
143E6
  8
0
  6
VERDECKT
 62
     1
 10
-153.5000000000007105
 20
138.499999999999801
 30
-0.0000000000000355
 11
-154.2500000000003979
 21
138.499999999999801
 31
-0.0000000000000357
  0
LINE
  5
143E7
  8
0
  6
VERDECKT
 62
     1
 10
-100.7315201917650995
 20
138.499999999999801
 30
-0.0000000000000213
 11
-134.7063961030679025
 21
138.499999999999801
 31
-0.0000000000000284
  0
LINE
  5
143E8
  8
0
  6
VERDECKT
 62
     1
 10
-134.7063961030679025
 20
138.499999999999801
 30
-0.0000000000000284
 11
-135.4135028842545125
 21
138.499999999999801
 31
-0.0000000000000284
  0
LINE
  5
143E9
  8
0
  6
VERDECKT
 62
     1
 10
-135.4135028842545125
 20
138.499999999999801
 30
-0.0000000000000284
 11
-142.9300000000004047
 21
138.499999999999801
 31
-0.0000000000000301
  0
LINE
  5
143EA
  8
0
  6
VERDECKT
 62
     1
 10
-145.9300000000004047
 20
138.499999999999801
 30
-0.0000000000000355
 11
-153.4292893218814129
 21
138.499999999999801
 31
-0.0000000000000372
  0
LINE
  5
143EB
  8
0
  6
VERDECKT
 62
     1
 10
-153.4292893218814129
 20
139.249999999999801
 30
-0.0000000000000355
 11
-153.4292893218814129
 21
138.499999999999801
 31
-0.0000000000000355
  0
LINE
  5
143EC
  8
0
  6
VERDECKT
 62
     1
 10
-145.9300000000004047
 20
71.4999999999998579
 30
-0.0000000000000355
 11
-153.4292893218814129
 21
71.4999999999998579
 31
-0.0000000000000372
  0
LINE
  5
143ED
  8
0
  6
VERDECKT
 62
     1
 10
-135.4135028842545125
 20
71.4999999999998579
 30
-0.0000000000000284
 11
-142.9300000000004047
 21
71.4999999999998579
 31
-0.0000000000000301
  0
LINE
  5
143EE
  8
0
  6
VERDECKT
 62
     1
 10
-135.4135028842545125
 20
71.4999999999998579
 30
-0.0000000000000284
 11
-134.7063961030679025
 21
71.4999999999998579
 31
-0.0000000000000284
  0
LINE
  5
143EF
  8
0
  6
VERDECKT
 62
     1
 10
-100.7315201917647016
 20
71.4999999999998579
 30
-0.0000000000000213
 11
-134.7063961030677888
 21
71.4999999999998579
 31
-0.0000000000000284
  0
LINE
  5
143F0
  8
0
  6
VERDECKT
 62
     1
 10
-100.731520191765199
 20
71.4999999999998579
 30
-0.0000000000000213
 11
-98.9637532387994412
 21
71.4999999999998579
 31
-0.0000000000000213
  0
LINE
  5
143F1
  8
0
  6
VERDECKT
 62
     1
 10
54.5614811756186171
 20
71.4999999999998579
 30
0.0000000000000107
 11
-98.9637532387994412
 21
71.4999999999998579
 31
-0.000000000000023
  0
LINE
  5
143F2
  8
0
  6
VERDECKT
 62
     1
 10
63.9609291162385105
 20
71.4999999999998579
 30
0.0000000000000142
 11
57.5614811756186171
 21
71.4999999999998579
 31
0.0000000000000128
  0
LINE
  5
143F3
  8
0
  6
VERDECKT
 62
     1
 10
-153.4292893218814129
 20
71.4999999999998579
 30
-0.0000000000000355
 11
-153.4292893218814129
 21
70.7499999999998437
 31
-0.0000000000000355
  0
LINE
  5
143F4
  8
0
  6
VERDECKT
 62
     1
 10
-153.5000000000007105
 20
71.4999999999998579
 30
-0.0000000000000355
 11
-154.2500000000003979
 21
71.4999999999998579
 31
-0.0000000000000357
  0
LINE
  5
143F5
  8
0
  6
VERDECKT
 62
     1
 10
-152.5000000000005116
 20
72.4999999999998437
 30
-0.0000000000000338
 11
-152.5000000000005116
 21
71.4999999999998437
 31
-0.0000000000000338
  0
LINE
  5
143F6
  8
0
  6
VERDECKT
 62
     1
 10
-153.5000000000005116
 20
72.4999999999998437
 30
-0.0000000000000338
 11
-155.0000000000005969
 21
72.4999999999998437
 31
-0.0000000000000341
  0
LINE
  5
143F7
  8
0
  6
VERDECKT
 62
     1
 10
-153.5000000000007105
 20
72.4999999999998437
 30
-0.0000000000000338
 11
-152.5000000000001137
 21
72.4999999999998437
 31
-0.0000000000000338
  0
LINE
  5
143F8
  8
0
  6
VERDECKT
 62
     1
 10
-152.5000000000005116
 20
71.4999999999998579
 30
-0.0000000000000338
 11
-152.5000000000005116
 21
69.9999999999998437
 31
-0.0000000000000338
  0
LINE
  5
143F9
  8
0
  6
VERDECKT
 62
     1
 10
-153.5000000000007105
 20
138.499999999999801
 30
-0.0000000000000355
 11
-153.5000000000007105
 21
71.4999999999998579
 31
-0.0000000000000355
  0
LINE
  5
143FA
  8
0
  6
VERDECKT
 62
     1
 10
-153.5000000000005116
 20
79.4999999999998437
 30
-0.000000000000032
 11
-155.0000000000005969
 21
79.4999999999998437
 31
-0.0000000000000323
  0
LINE
  5
143FB
  8
0
  6
VERDECKT
 62
     1
 10
-153.5000000000005116
 20
130.499999999999801
 30
-0.000000000000032
 11
-155.0000000000005969
 21
130.499999999999801
 31
-0.0000000000000323
  0
ENDBLK
  5
143FD
  8
0
  0
BLOCK
  8
0
  2
A$CA46BDA0C
 70
     0
 10
0.0
 20
0.0
 30
0.0
  3
A$CA46BDA0C
  1

  0
LINE
  5
14401
  8
0
 10
-214.999999999999801
 20
-9.2389140881155658
 30
0.0000000000000021
 11
-214.999999999999801
 21
19.8120000000000083
 31
-0.0000000000000044
210
0.0
220
1.0
230
-0.0000000000000002
  0
LINE
  5
14402
  8
0
 10
-214.999999999999801
 20
19.8120000000000189
 30
-0.0000000000000044
 11
-214.999999999999801
 21
48.8629140881156019
 31
-0.0000000000000108
210
0.0
220
1.0
230
-0.0000000000000002
  0
LINE
  5
14403
  8
0
 10
-206.617498657339695
 20
50.8119993179343084
 30
-0.0000000000000113
 11
-205.2024677987604946
 21
50.8119993179343084
 31
-0.0000000000000113
210
0.0
220
1.0
230
-0.0000000000000002
  0
LINE
  5
14404
  8
0
 10
-206.617498657339695
 20
-11.1879993179342705
 30
0.0000000000000025
 11
-205.2024677987604946
 21
-11.1879993179342705
 31
0.0000000000000025
210
0.0
220
1.0
230
-0.0000000000000002
  0
ARC
  5
14405
  8
0
 10
205.1620000000004893
 20
13.3120000000008503
 30
0.0
 40
24.5000320571289194
210
0.0
220
-0.0000000000000002
230
-1.0
 50
250.5369005553102113
 51
270.0946380447188062
  0
ARC
  5
14406
  8
0
 10
205.1620000000004893
 20
26.3119999999991911
 30
0.0
 40
24.5000320571289194
210
0.0
220
-0.0000000000000002
230
-1.0
 50
89.9053619552812364
 51
109.4630994446898029
  0
ARC
  5
14407
  8
0
 10
193.5000000000009095
 20
-19.6879999999989188
 30
0.0
 40
10.4999999999989093
210
0.0
220
-0.0000000000000002
230
-1.0
 50
70.5369005553149435
 51
90.0000000000023164
  0
ARC
  5
14408
  8
0
 10
193.5000000000007958
 20
59.3119999999993794
 30
0.0
 40
10.4999999999993392
210
0.0
220
-0.0000000000000002
230
-1.0
 50
270.0
 51
289.463099444686577
  0
LINE
  5
14409
  8
0
 10
-193.5000000000005116
 20
48.8120000000000331
 30
-0.0000000000000108
 11
-182.4083269131965892
 21
48.8120000000000331
 31
-0.0000000000000108
210
0.0
220
1.0
230
-0.0000000000000002
  0
LINE
  5
1440A
  8
0
 10
-193.5000000000005116
 20
-9.1879999999999882
 30
0.000000000000002
 11
-182.4083269131965892
 21
-9.1879999999999882
 31
0.000000000000002
210
0.0
220
1.0
230
-0.0000000000000002
  0
ARC
  5
1440B
  8
0
 10
182.4083269131967029
 20
2.3119999999999661
 30
0.0
 40
11.5000000000000302
210
0.0
220
-0.0000000000000002
230
-1.0
 50
240.6678898322948896
 51
269.9999999999993747
  0
ARC
  5
1440C
  8
0
 10
182.4083269131967029
 20
37.3120000000000474
 30
0.0
 40
11.5000000000000497
210
0.0
220
-0.0000000000000002
230
-1.0
 50
90.0000000000005542
 51
119.3321101677049967
  0
ARC
  5
1440D
  8
0
 10
172.8558403259251861
 20
-14.6880000000000397
 30
0.0
 40
8.0000000000000124
210
0.0
220
-0.0000000000000002
230
-1.0
 50
60.6678898322980515
 51
90.00000000000081
  0
ARC
  5
1440E
  8
0
 10
172.8558403259251861
 20
54.3120000000000331
 30
0.0
 40
7.9999999999999636
210
0.0
220
-0.0000000000000002
230
-1.0
 50
270.0
 51
299.3321101677029787
  0
LINE
  5
1440F
  8
0
 10
-172.8558403259251008
 20
46.3120000000000687
 30
-0.0000000000000103
 11
-155.0000000000005969
 21
46.3120000000000687
 31
-0.0000000000000103
210
0.0
220
1.0
230
-0.0000000000000002
  0
LINE
  5
14410
  8
0
 10
-172.8558403259251008
 20
-6.6880000000000459
 30
0.0000000000000015
 11
-155.0000000000005969
 21
-6.6880000000000459
 31
0.0000000000000015
210
0.0
220
1.0
230
-0.0000000000000002
  0
ARC
  5
14411
  8
0
 10
206.6174986573396097
 20
7.8120000000007721
 30
0.0
 40
19.0000000000006501
210
0.0
220
-0.0000000000000002
230
-1.0
 50
270.0
 51
296.1794673729070837
  0
ARC
  5
14412
  8
0
 10
206.6174986573396097
 20
31.8119999999993901
 30
0.0
 40
19.0000000000005116
210
0.0
220
-0.0000000000000002
230
-1.0
 50
63.8205326270923976
 51
89.9999999999997584
  0
LINE
  5
14413
  8
0
 10
54.56148117561861
 20
18.3119978228499996
 30
-0.0000000000000041
 11
54.56148117561861
 21
19.8119978228497793
 31
-0.0000000000000044
210
0.0
220
1.0
230
-0.0000000000000002
  0
LINE
  5
14414
  8
0
 10
54.56148117561861
 20
19.8119978228497793
 30
-0.0000000000000044
 11
-98.9637532387990859
 21
19.8119978228497793
 31
-0.0000000000000044
210
0.0
220
1.0
230
-0.0000000000000002
  0
ARC
  5
14415
  8
0
 10
98.9637532387989154
 20
20.8119978228496016
 30
0.0
 40
0.9999999999998151
210
0.0
220
-0.0000000000000002
230
-1.0
 50
270.0
 51
314.9999999999881766
  0
LINE
  5
14416
  8
0
 10
-99.6708600199853123
 20
20.1048910416631692
 30
-0.0000000000000045
 11
-133.6457359312881863
 21
54.0797669529663096
 31
-0.000000000000012
210
0.0
220
1.0
230
-0.0000000000000002
  0
ARC
  5
14417
  8
0
 10
-135.4135028842545978
 20
52.3119999999993084
 30
-0.0000000000000116
 40
2.5000000000004881
 50
45.0000000000089031
 51
89.9999999999973994
  0
LINE
  5
14418
  8
0
 10
-135.4135028842545125
 20
54.8119999999997987
 30
-0.0000000000000122
 11
-142.9300000000004047
 21
54.8119999999999408
 31
-0.0000000000000122
210
0.0
220
1.0
230
-0.0000000000000002
  0
LINE
  5
14419
  8
0
 10
-142.9300000000004047
 20
54.8119999999999479
 30
-0.0000000000000122
 11
-142.9300000000004047
 21
53.3120000000001326
 31
-0.0000000000000118
210
0.0
220
1.0
230
-0.0000000000000002
  0
LINE
  5
1441A
  8
0
 10
57.56148117561861
 20
19.8119978228497793
 30
-0.0000000000000044
 11
57.56148117561861
 21
18.3119978228499996
 31
-0.0000000000000041
210
0.0
220
1.0
230
-0.0000000000000002
  0
LINE
  5
1441B
  8
0
 10
63.9609291162375868
 20
18.3119978228497793
 30
-0.0000000000000041
 11
63.9609291162375868
 21
19.8119978228497793
 31
-0.0000000000000044
210
0.0
220
1.0
230
-0.0000000000000002
  0
LINE
  5
1441C
  8
0
 10
63.9609291162375868
 20
19.8119978228497793
 30
-0.0000000000000044
 11
57.56148117561861
 21
19.8119978228497793
 31
-0.0000000000000044
210
0.0
220
1.0
230
-0.0000000000000002
  0
LINE
  5
1441D
  8
0
 10
54.56148117561861
 20
19.8119978228497793
 30
-0.0000000000000044
 11
55.06148117561861
 21
19.8119978228497793
 31
-0.0000000000000044
210
0.0
220
1.0
230
-0.0000000000000002
  0
LINE
  5
1441E
  8
0
 10
57.06148117561861
 20
19.8119978228497793
 30
-0.0000000000000044
 11
57.56148117561861
 21
19.8119978228497793
 31
-0.0000000000000044
210
0.0
220
1.0
230
-0.0000000000000002
  0
LINE
  5
1441F
  8
0
 10
-145.9300000000004047
 20
53.3120000000001326
 30
-0.0000000000000118
 11
-145.9300000000004047
 21
54.8120000000000118
 31
-0.0000000000000122
210
0.0
220
1.0
230
-0.0000000000000002
  0
LINE
  5
14420
  8
0
 10
-145.9300000000004047
 20
54.8120000000000118
 30
-0.0000000000000122
 11
-154.2500000000003979
 21
54.8120000000001468
 31
-0.0000000000000122
210
0.0
220
1.0
230
-0.0000000000000002
  0
LINE
  5
14421
  8
0
 10
-154.2500000000003979
 20
54.8120000000001468
 30
-0.0000000000000122
 11
-154.2500000000005116
 21
53.3120000000001468
 31
-0.0000000000000118
210
0.0
220
1.0
230
-0.0000000000000002
  0
LINE
  5
14422
  8
0
 10
-154.2500000000005116
 20
53.3120000000001468
 30
-0.0000000000000118
 11
-153.4292893218814129
 21
53.3120000000001326
 31
-0.0000000000000118
210
0.0
220
1.0
230
-0.0000000000000002
  0
LINE
  5
14423
  8
0
 10
-145.9300000000004047
 20
54.8120000000000118
 30
-0.0000000000000122
 11
-145.4292893218812992
 21
54.8119999999999976
 31
-0.0000000000000122
210
0.0
220
1.0
230
-0.0000000000000002
  0
LINE
  5
14424
  8
0
 10
-143.4292893218812992
 20
54.8119999999999621
 30
-0.0000000000000122
 11
-142.9300000000004047
 21
54.8119999999999479
 31
-0.0000000000000122
210
0.0
220
1.0
230
-0.0000000000000002
  0
LINE
  5
14425
  8
0
 10
-100.7315201917647016
 20
19.0442308698834495
 30
-0.0000000000000042
 11
-134.7063961030677888
 21
53.0191067811865793
 31
-0.0000000000000118
210
0.0
220
1.0
230
-0.0000000000000002
  0
ARC
  5
14426
  8
0
 10
135.4135028842547115
 20
52.3119999999993368
 30
0.0
 40
1.0000000000006819
210
0.0
220
-0.0000000000000002
230
-1.0
 50
90.0000000000130314
 51
134.9999999999816112
  0
LINE
  5
14427
  8
0
 10
-143.4292893218812992
 20
53.3120000000000189
 30
-0.0000000000000118
 11
-143.4292893218812992
 21
55.3120000000000189
 31
-0.0000000000000123
210
0.0
220
1.0
230
-0.0000000000000002
  0
LINE
  5
14428
  8
0
 10
-143.4292893218812992
 20
55.3120000000000189
 30
-0.0000000000000123
 11
-145.4292893218812992
 21
55.3120000000000189
 31
-0.0000000000000123
210
0.0
220
1.0
230
-0.0000000000000002
  0
LINE
  5
14429
  8
0
 10
-145.4292893218812992
 20
55.3120000000000189
 30
-0.0000000000000123
 11
-145.4292893218812992
 21
53.3120000000000189
 31
-0.0000000000000118
210
0.0
220
1.0
230
-0.0000000000000002
  0
LINE
  5
1442A
  8
0
 10
-145.4292893218812992
 20
53.3120000000000189
 30
-0.0000000000000118
 11
-153.4292893218814129
 21
53.3120000000000189
 31
-0.0000000000000118
210
0.0
220
1.0
230
-0.0000000000000002
  0
LINE
  5
1442B
  8
0
 10
-135.4135028842545125
 20
53.3120000000000189
 30
-0.0000000000000118
 11
-143.4292893218812992
 21
53.3120000000000189
 31
-0.0000000000000118
210
0.0
220
1.0
230
-0.0000000000000002
  0
LINE
  5
1442C
  8
0
 10
-153.4292893218814129
 20
53.3120000000000189
 30
-0.0000000000000118
 11
-153.4292893218814129
 21
-12.68799999999999
 31
0.0000000000000028
210
0.0
220
1.0
230
-0.0000000000000002
  0
LINE
  5
1442D
  8
0
 10
-153.4292893218812992
 20
-12.68799999999999
 30
0.0000000000000028
 11
-152.5000000000005116
 21
-12.68799999999999
 31
0.0000000000000028
210
0.0
220
1.0
230
-0.0000000000000002
  0
LINE
  5
1442E
  8
0
 10
94.0995959556998969
 20
-12.68799999999999
 30
0.0000000000000028
 11
67.6766532436254238
 21
16.65765085464432
 31
-0.0000000000000037
210
0.0
220
1.0
230
-0.0000000000000002
  0
ARC
  5
1442F
  8
0
 10
63.9609291162386171
 20
13.3119978228502305
 30
-0.000000000000003
 40
4.9999999999997398
 50
41.999999999999531
 51
90.0000000000013358
  0
LINE
  5
14430
  8
0
 10
63.9609291162385034
 20
18.3119978228500102
 30
-0.0000000000000041
 11
57.06148117561861
 21
18.3119978228500102
 31
-0.0000000000000041
210
0.0
220
1.0
230
-0.0000000000000002
  0
LINE
  5
14431
  8
0
 10
57.06148117561861
 20
18.3119978228500102
 30
-0.0000000000000041
 11
57.06148117561861
 21
20.3119978228500102
 31
-0.0000000000000045
210
0.0
220
1.0
230
-0.0000000000000002
  0
LINE
  5
14432
  8
0
 10
57.06148117561861
 20
20.3119978228500102
 30
-0.0000000000000045
 11
55.06148117561861
 21
20.3119978228500102
 31
-0.0000000000000045
210
0.0
220
1.0
230
-0.0000000000000002
  0
LINE
  5
14433
  8
0
 10
55.06148117561861
 20
20.3119978228500102
 30
-0.0000000000000045
 11
55.06148117561861
 21
18.3119978228500102
 31
-0.0000000000000041
210
0.0
220
1.0
230
-0.0000000000000002
  0
LINE
  5
14434
  8
0
 10
55.06148117561861
 20
18.3119978228500102
 30
-0.0000000000000041
 11
-98.9637532387994412
 21
18.3119978228500102
 31
-0.0000000000000041
210
0.0
220
1.0
230
-0.0000000000000002
  0
ARC
  5
14435
  8
0
 10
98.9637532387987449
 20
20.8119978228498894
 30
0.0
 40
2.5000000000001128
210
0.0
220
-0.0000000000000002
230
-1.0
 50
270.0
 51
314.9999999999844249
  0
LINE
  5
14436
  8
0
 10
-155.0000000000005969
 20
53.3120000000001397
 30
-0.0000000000000118
 11
-155.0000000000005969
 21
-12.6879999999995299
 31
0.0000000000000028
210
0.0
220
1.0
230
-0.0000000000000002
  0
LINE
  5
14437
  8
0
 10
-155.0000000000005969
 20
-12.68799999999999
 30
0.0000000000000028
 11
-153.5000000000007105
 21
-12.68799999999999
 31
0.0000000000000028
210
0.0
220
1.0
230
-0.0000000000000002
  0
LINE
  5
14438
  8
0
 10
-153.5000000000005116
 20
-12.6879999999995903
 30
0.0000000000000028
 11
-153.5000000000007105
 21
53.3120000000001397
 31
-0.0000000000000118
210
0.0
220
1.0
230
-0.0000000000000002
  0
LINE
  5
14439
  8
0
 10
-154.2500000000005116
 20
53.3120000000001397
 30
-0.0000000000000118
 11
-155.0000000000005969
 21
53.3120000000001397
 31
-0.0000000000000118
210
0.0
220
1.0
230
-0.0000000000000002
  0
LINE
  5
1443A
  8
0
 10
-152.5000000000005116
 20
-15.1880000000000202
 30
0.0000000000000034
 11
-152.5000000000005116
 21
-12.68799999999999
 31
0.0000000000000028
210
0.0
220
1.0
230
-0.0000000000000002
  0
LINE
  5
1443B
  8
0
 10
-152.500000000000199
 20
-15.18799999999999
 30
0.0000000000000034
 11
94.9999999999996589
 21
-15.18799999999999
 31
0.0000000000000034
210
0.0
220
1.0
230
-0.0000000000000002
  0
LINE
  5
1443C
  8
0
 10
94.9999999999996589
 20
-13.68799999999999
 30
0.000000000000003
 11
94.9999999999996589
 21
-15.18799999999999
 31
0.0000000000000034
210
0.0
220
1.0
230
-0.0000000000000002
  0
LINE
  5
1443D
  8
0
 10
94.0995959556998969
 20
-12.68799999999999
 30
0.0000000000000028
 11
94.9999999999985221
 21
-13.6880000000008408
 31
0.000000000000003
210
0.0
220
1.0
230
-0.0000000000000002
  0
ARC
  5
1443E
  8
0
 10
152.5
 20
-12.6879999999995299
 30
0.0
 40
2.500000000000568
210
0.0
220
-0.0000000000000002
230
-1.0
 50
270.0
 51
359.9999999999844249
  0
ARC
  5
1443F
  8
0
 10
-152.5000000000003126
 20
-12.6879999999995903
 30
0.0000000000000028
 40
1.0000000000003411
 50
180.0000000000227089
 51
270.0000000000130171
  0
LINE
  5
14440
  8
0
  6
VERDECKT
 62
     1
 10
-214.5588157188078924
 20
-8.3414975571616328
 30
0.0000000000000019
 11
-214.5588157188078924
 21
19.8120000000000083
 31
-0.0000000000000044
210
0.0
220
1.0
230
-0.0000000000000002
  0
LINE
  5
14441
  8
0
  6
VERDECKT
 62
     1
 10
-214.5588157188078924
 20
19.8120000000000189
 30
-0.0000000000000044
 11
-214.5588157188078924
 21
47.9654975571617186
 31
-0.0000000000000107
210
0.0
220
1.0
230
-0.0000000000000002
  0
LINE
  5
14442
  8
0
  6
VERDECKT
 62
     1
 10
-172.8558403259251008
 20
45.3120000000000829
 30
-0.0000000000000101
 11
-155.0000000000005969
 21
45.3120000000000829
 31
-0.0000000000000101
210
0.0
220
1.0
230
-0.0000000000000002
  0
LINE
  5
14443
  8
0
  6
VERDECKT
 62
     1
 10
-172.8558403259251008
 20
-5.688000000000045
 30
0.0000000000000013
 11
-155.0000000000005969
 21
-5.688000000000045
 31
0.0000000000000013
210
0.0
220
1.0
230
-0.0000000000000002
  0
ARC
  5
14444
  8
0
  6
VERDECKT
 62
     1
 10
172.8558403259254135
 20
-14.6879999999991195
 30
0.0
 40
8.9999999999990923
210
0.0
220
-0.0000000000000002
230
-1.0
 50
60.667889832295991
 51
90.0000000000019753
  0
ARC
  5
14445
  8
0
  6
VERDECKT
 62
     1
 10
172.8558403259254987
 20
54.3119999999990029
 30
0.0
 40
8.9999999999989413
210
0.0
220
-0.0000000000000002
230
-1.0
 50
269.9999999999977831
 51
299.3321101677042861
  0
ARC
  5
14446
  8
0
  6
VERDECKT
 62
     1
 10
182.4083269131965892
 20
2.3119999999994971
 30
0.0
 40
10.4999999999995701
210
0.0
220
-0.0000000000000002
230
-1.0
 50
240.6678898322940938
 51
270.0
  0
ARC
  5
14447
  8
0
  6
VERDECKT
 62
     1
 10
182.4083269131965892
 20
37.3120000000005376
 30
0.0
 40
10.4999999999995595
210
0.0
220
-0.0000000000000002
230
-1.0
 50
90.0
 51
119.3321101677059062
  0
LINE
  5
14448
  8
0
  6
VERDECKT
 62
     1
 10
-193.5000000000005116
 20
47.8120000000000118
 30
-0.0000000000000106
 11
-182.4083269131965892
 21
47.8120000000000118
 31
-0.0000000000000106
210
0.0
220
1.0
230
-0.0000000000000002
  0
LINE
  5
14449
  8
0
  6
VERDECKT
 62
     1
 10
-193.5000000000005116
 20
-8.1879999999999882
 30
0.0000000000000018
 11
-182.4083269131965892
 21
-8.1879999999999882
 31
0.0000000000000018
210
0.0
220
1.0
230
-0.0000000000000002
  0
ARC
  5
1444A
  8
0
  6
VERDECKT
 62
     1
 10
193.5000000000011084
 20
-19.6879999999974409
 30
0.0
 40
11.4999999999974403
210
0.0
220
-0.0000000000000002
230
-1.0
 50
70.536900555313224
 51
90.0000000000032543
  0
ARC
  5
1444B
  8
0
  6
VERDECKT
 62
     1
 10
193.5000000000011084
 20
59.3119999999975178
 30
0.0
 40
11.4999999999974793
210
0.0
220
-0.0000000000000002
230
-1.0
 50
269.9999999999968168
 51
289.463099444686577
  0
ARC
  5
1444C
  8
0
  6
VERDECKT
 62
     1
 10
205.1620000000002051
 20
13.3119999999986707
 30
0.0
 40
23.5000320571267594
210
0.0
220
-0.0000000000000002
230
-1.0
 50
250.5369005553091029
 51
270.0946380447194883
  0
ARC
  5
1444D
  8
0
  6
VERDECKT
 62
     1
 10
205.1620000000002051
 20
26.3120000000012517
 30
0.0
 40
23.5000320571268695
210
0.0
220
-0.0000000000000002
230
-1.0
 50
89.9053619552805969
 51
109.4630994446907977
  0
LINE
  5
1444E
  8
0
  6
VERDECKT
 62
     1
 10
-206.617498657339695
 20
49.8119999999999123
 30
-0.0000000000000111
 11
-205.2008160540335098
 21
49.8119999999999123
 31
-0.0000000000000111
210
0.0
220
1.0
230
-0.0000000000000002
  0
LINE
  5
1444F
  8
0
  6
VERDECKT
 62
     1
 10
-206.617498657339695
 20
-10.1879999999998692
 30
0.0000000000000023
 11
-205.2008160540335098
 21
-10.1879999999998692
 31
0.0000000000000023
210
0.0
220
1.0
230
-0.0000000000000002
  0
ARC
  5
14450
  8
0
  6
VERDECKT
 62
     1
 10
206.617498657339496
 20
7.812000000000789
 30
0.0
 40
18.0000000000006715
210
0.0
220
-0.0000000000000002
230
-1.0
 50
270.0
 51
296.1794673729096985
  0
ARC
  5
14451
  8
0
  6
VERDECKT
 62
     1
 10
206.617498657339496
 20
31.8119999999991698
 30
0.0
 40
18.000000000000739
210
0.0
220
-0.0000000000000002
230
-1.0
 50
63.8205326270896833
 51
89.9999999999992752
  0
LINE
  5
14452
  8
0
  6
VERDECKT
 62
     1
 10
-214.5588157188078924
 20
-8.3414975571616843
 30
0.0000000000000019
 11
-214.999999999999801
 21
-9.2389140881155765
 31
0.0000000000000021
210
0.0
220
1.0
230
-0.0000000000000002
  0
LINE
  5
14453
  8
0
  6
VERDECKT
 62
     1
 10
-214.5588157188078924
 20
47.9654975571617186
 30
-0.0000000000000107
 11
-214.999999999999801
 21
48.8629140881156232
 31
-0.0000000000000108
210
0.0
220
1.0
230
-0.0000000000000002
  0
LINE
  5
14454
  8
0
  6
VERDECKT
 62
     1
 10
55.06148117561861
 20
19.8119978228497793
 30
-0.0000000000000044
 11
57.06148117561861
 21
19.8119978228497793
 31
-0.0000000000000044
210
0.0
220
1.0
230
-0.0000000000000002
  0
LINE
  5
14455
  8
0
  6
VERDECKT
 62
     1
 10
57.06148117561861
 20
18.3119978228497793
 30
-0.0000000000000041
 11
55.06148117561861
 21
18.3119978228497793
 31
-0.0000000000000041
210
0.0
220
1.0
230
-0.0000000000000002
  0
LINE
  5
14456
  8
0
  6
VERDECKT
 62
     1
 10
-145.4292893218812992
 20
54.8119999999999976
 30
-0.0000000000000122
 11
-143.4292893218812992
 21
54.8119999999999621
 31
-0.0000000000000122
210
0.0
220
1.0
230
-0.0000000000000002
  0
LINE
  5
14457
  8
0
  6
VERDECKT
 62
     1
 10
-143.4292893218812992
 20
53.3119999999999621
 30
-0.0000000000000118
 11
-145.4292893218812992
 21
53.3119999999999905
 31
-0.0000000000000118
210
0.0
220
1.0
230
-0.0000000000000002
  0
LINE
  5
14458
  8
0
  6
VERDECKT
 62
     1
 10
94.9999999999996589
 20
-13.68799999999999
 30
0.000000000000003
 11
-152.5000000000001137
 21
-13.68799999999999
 31
0.000000000000003
210
0.0
220
1.0
230
-0.0000000000000002
  0
LINE
  5
14459
  8
0
  6
VERDECKT
 62
     1
 10
-153.5000000000005116
 20
-5.6879999999999891
 30
0.0000000000000013
 11
-155.0000000000005969
 21
-5.6879999999999891
 31
0.0000000000000013
210
0.0
220
1.0
230
-0.0000000000000002
  0
LINE
  5
1445A
  8
0
  6
VERDECKT
 62
     1
 10
-153.5000000000005969
 20
45.3120000000000118
 30
-0.0000000000000101
 11
-155.0000000000005969
 21
45.3120000000000118
 31
-0.0000000000000101
210
0.0
220
1.0
230
-0.0000000000000002
  0
ENDBLK
  5
1445C
  8
0
  0
BLOCK
  8
0
  2
A$CEA31C3BB
 70
     0
 10
0.0
 20
0.0
 30
0.0
  3
A$CEA31C3BB
  1

  0
CIRCLE
  5
14460
  8
0
 10
104.999999999999801
 20
19.8119999999999905
 30
0.0
 40
30.9999999999999005
210
0.0
220
-0.0000000000000002
230
-1.0
  0
CIRCLE
  5
14461
  8
0
 10
104.999999999999801
 20
19.8119999999999905
 30
0.0
 40
25.5000000000000391
210
0.0
220
-0.0000000000000002
230
-1.0
  0
CIRCLE
  5
14462
  8
0
 10
104.999999999999801
 20
19.8119999999999905
 30
0.0
 40
28.0000000000000213
210
0.0
220
-0.0000000000000002
230
-1.0
  0
CIRCLE
  5
14463
  8
0
 10
104.999999999999801
 20
19.8119999999999905
 30
0.0
 40
28.1534975571616997
210
0.0
220
-0.0000000000000002
230
-1.0
  0
CIRCLE
  5
14464
  8
0
 10
104.999999999999801
 20
19.8119999999999905
 30
0.0
 40
29.0509140881155794
210
0.0
220
-0.0000000000000002
230
-1.0
  0
CIRCLE
  5
14465
  8
0
 10
104.999999999999801
 20
19.8119999999999905
 30
0.0
 40
31.0000320571280916
210
0.0
220
-0.0000000000000002
230
-1.0
  0
LINE
  5
14466
  8
0
 10
-139.2499999999998863
 20
54.8120000000001113
 30
-0.0000000000000122
 11
-139.2499999999998863
 21
53.3120000000001184
 31
-0.0000000000000118
210
-0.0000000000000002
220
1.0
230
-0.0000000000000002
  0
LINE
  5
14467
  8
0
 10
-70.7499999999998863
 20
54.8120000000001397
 30
-0.0000000000000122
 11
-70.7499999999998863
 21
53.3120000000001397
 31
-0.0000000000000118
210
-0.0000000000000002
220
1.0
230
-0.0000000000000002
  0
LINE
  5
14468
  8
0
 10
-130.4558439944256918
 20
18.3119978228497402
 30
-0.0000000000000041
 11
-79.5441560055740666
 21
18.3119978228497509
 31
-0.0000000000000041
210
-0.0000000000000002
220
1.0
230
-0.0000000000000002
  0
LINE
  5
14469
  8
0
 10
-139.2499999999998863
 20
53.3120000000001184
 30
-0.0000000000000118
 11
-138.4999999999998863
 21
53.3120000000001184
 31
-0.0000000000000118
210
-0.0000000000000002
220
1.0
230
-0.0000000000000002
  0
LINE
  5
1446A
  8
0
 10
-71.4999999999998863
 20
53.3120000000001397
 30
-0.0000000000000118
 11
-70.7499999999998863
 21
53.3120000000001397
 31
-0.0000000000000118
210
-0.0000000000000002
220
1.0
230
-0.0000000000000002
  0
LINE
  5
1446B
  8
0
 10
-139.2499999999998863
 20
54.8120000000001113
 30
-0.0000000000000122
 11
-70.7499999999998863
 21
54.8120000000001397
 31
-0.0000000000000122
210
-0.0000000000000002
220
1.0
230
-0.0000000000000002
  0
LINE
  5
1446C
  8
0
 10
-139.9999999999998863
 20
-12.6880000000002493
 30
0.0000000000000028
 11
-138.4999999999998863
 21
-12.6880000000002493
 31
0.0000000000000028
210
-0.0000000000000002
220
1.0
230
-0.0000000000000002
  0
ARC
  5
1446D
  8
0
 10
137.499999999999801
 20
-12.6880000000000202
 30
0.0
 40
2.5
210
0.0
220
-0.0000000000000002
230
-1.0
 50
270.0000000000002274
 51
359.9999999999944862
  0
ARC
  5
1446E
  8
0
 10
137.499999999999801
 20
-12.6880000000000202
 30
0.0
 40
1.000000000000028
210
0.0
220
-0.0000000000000002
230
-1.0
 50
270.0000000000017053
 51
359.999999999986926
  0
LINE
  5
1446F
  8
0
 10
-138.4999999999998863
 20
-12.6879999999995707
 30
0.0000000000000028
 11
-137.4999999999998863
 21
-12.6879999999995707
 31
0.0000000000000028
210
-0.0000000000000002
220
1.0
230
-0.0000000000000002
  0
LINE
  5
14470
  8
0
 10
-137.4999999999998863
 20
-15.1880000000001392
 30
0.0000000000000034
 11
-137.4999999999998863
 21
-12.6880000000002493
 31
0.0000000000000028
210
-0.0000000000000002
220
1.0
230
-0.0000000000000002
  0
LINE
  5
14471
  8
0
 10
-138.4999999999998863
 20
53.3120000000001184
 30
-0.0000000000000118
 11
-138.4999999999998863
 21
-12.6879999999995707
 31
0.0000000000000028
210
-0.0000000000000002
220
1.0
230
-0.0000000000000002
  0
LINE
  5
14472
  8
0
 10
-138.4999999999998863
 20
55.3119999999997702
 30
-0.0000000000000123
 11
-138.4999999999998863
 21
54.8120000000001113
 31
-0.0000000000000122
210
-0.0000000000000002
220
1.0
230
-0.0000000000000002
  0
LINE
  5
14473
  8
0
 10
-139.9999999999998863
 20
53.3119999999997702
 30
-0.0000000000000118
 11
-139.2499999999998863
 21
53.3119999999997702
 31
-0.0000000000000118
210
-0.0000000000000002
220
1.0
230
-0.0000000000000002
  0
LINE
  5
14474
  8
0
 10
-139.9999999999998863
 20
53.3119999999997702
 30
-0.0000000000000118
 11
-139.9999999999998863
 21
-12.6880000000002493
 31
0.0000000000000028
210
-0.0000000000000002
220
1.0
230
-0.0000000000000002
  0
LINE
  5
14475
  8
0
 10
-139.9999999999998863
 20
55.3119999999997702
 30
-0.0000000000000123
 11
-139.9999999999998863
 21
53.3119999999997702
 31
-0.0000000000000118
210
-0.0000000000000002
220
1.0
230
-0.0000000000000002
  0
LINE
  5
14476
  8
0
 10
-139.9999999999998863
 20
55.3119999999997702
 30
-0.0000000000000123
 11
-138.4999999999998863
 21
55.3119999999997702
 31
-0.0000000000000123
210
-0.0000000000000002
220
1.0
230
-0.0000000000000002
  0
LINE
  5
14477
  8
0
 10
-71.4999999999998863
 20
55.3120000000000118
 30
-0.0000000000000123
 11
-71.4999999999998863
 21
54.8120000000001326
 31
-0.0000000000000122
210
-0.0000000000000002
220
1.0
230
-0.0000000000000002
  0
LINE
  5
14478
  8
0
 10
-71.4999999999998863
 20
55.3120000000000118
 30
-0.0000000000000123
 11
-69.9999999999998863
 21
55.3120000000000118
 31
-0.0000000000000123
210
-0.0000000000000002
220
1.0
230
-0.0000000000000002
  0
LINE
  5
14479
  8
0
 10
-69.9999999999998863
 20
55.3120000000000118
 30
-0.0000000000000123
 11
-69.9999999999998863
 21
53.3120000000000189
 31
-0.0000000000000118
210
-0.0000000000000002
220
1.0
230
-0.0000000000000002
  0
LINE
  5
1447A
  8
0
 10
-70.7499999999998863
 20
53.3120000000000189
 30
-0.0000000000000118
 11
-69.9999999999998863
 21
53.3120000000000189
 31
-0.0000000000000118
210
-0.0000000000000002
220
1.0
230
-0.0000000000000002
  0
LINE
  5
1447B
  8
0
 10
-69.9999999999998863
 20
53.3120000000000189
 30
-0.0000000000000118
 11
-69.9999999999998721
 21
-12.6880000000000095
 31
0.0000000000000028
210
-0.0000000000000002
220
1.0
230
-0.0000000000000002
  0
LINE
  5
1447C
  8
0
 10
-71.4999999999998721
 20
-12.6880000000000095
 30
0.0000000000000028
 11
-69.9999999999998721
 21
-12.6880000000000095
 31
0.0000000000000028
210
-0.0000000000000002
220
1.0
230
-0.0000000000000002
  0
LINE
  5
1447D
  8
0
 10
-71.4999999999998863
 20
53.3120000000001326
 30
-0.0000000000000118
 11
-71.4999999999998721
 21
-12.6879999999995494
 31
0.0000000000000028
210
-0.0000000000000002
220
1.0
230
-0.0000000000000002
  0
ARC
  5
1447E
  8
0
 10
72.4999999999998437
 20
-12.6880000000000699
 30
0.0
 40
2.499999999999972
210
0.0
220
-0.0000000000000002
230
-1.0
 50
179.9999999999986073
 51
270.0000000000006253
  0
ARC
  5
1447F
  8
0
 10
-72.4999999999998437
 20
-12.6880000000000095
 30
0.0000000000000028
 40
1.0
 50
269.9999999999992042
 51
0.0
  0
LINE
  5
14480
  8
0
 10
-72.4999999999998721
 20
-12.6879999999995494
 30
0.0000000000000028
 11
-71.4999999999998721
 21
-12.6879999999995494
 31
0.0000000000000028
210
-0.0000000000000002
220
1.0
230
-0.0000000000000002
  0
LINE
  5
14481
  8
0
 10
-72.4999999999998721
 20
-12.6880000000000095
 30
0.0000000000000028
 11
-72.4999999999998721
 21
-15.1880000000001196
 31
0.0000000000000034
210
-0.0000000000000002
220
1.0
230
-0.0000000000000002
  0
LINE
  5
14482
  8
0
 10
-137.4999999999998863
 20
-15.1880000000001392
 30
0.0000000000000034
 11
-72.4999999999998721
 21
-15.1880000000001196
 31
0.0000000000000034
210
-0.0000000000000002
220
1.0
230
-0.0000000000000002
  0
LINE
  5
14483
  8
0
 10
-138.4999999999998863
 20
53.3120000000001184
 30
-0.0000000000000118
 11
-71.4999999999998863
 21
53.3120000000001397
 31
-0.0000000000000118
210
-0.0000000000000002
220
1.0
230
-0.0000000000000002
  0
CIRCLE
  5
14484
  8
0
  6
VERDECKT
 62
     1
 10
104.999999999999801
 20
19.8119999999999905
 30
0.0
 40
30.999998635868689
210
0.0
220
-0.0000000000000002
230
-1.0
  0
CIRCLE
  5
14485
  8
0
  6
VERDECKT
 62
     1
 10
104.999999999999801
 20
19.8119999999999905
 30
0.0
 40
29.0000000000000213
210
0.0
220
-0.0000000000000002
230
-1.0
  0
CIRCLE
  5
14486
  8
0
  6
VERDECKT
 62
     1
 10
104.999999999999801
 20
19.8119999999999905
 30
0.0
 40
26.5000000000000391
210
0.0
220
-0.0000000000000002
230
-1.0
  0
CIRCLE
  5
14487
  8
0
  6
VERDECKT
 62
     1
 10
104.999999999999801
 20
19.8119999999999905
 30
0.0
 40
29.9999999999999005
210
0.0
220
-0.0000000000000002
230
-1.0
  0
CIRCLE
  5
14488
  8
0
  6
VERDECKT
 62
     1
 10
104.999999999999801
 20
19.8119999999999905
 30
0.0
 40
30.0000320571281094
210
0.0
220
-0.0000000000000002
230
-1.0
  0
LINE
  5
14489
  8
0
  6
VERDECKT
 62
     1
 10
-138.2499999999998863
 20
54.8119999999999834
 30
-0.0000000000000122
 11
-138.2499999999998863
 21
53.3119999999999905
 31
-0.0000000000000118
210
-0.0000000000000002
220
1.0
230
-0.0000000000000002
  0
LINE
  5
1448A
  8
0
  6
VERDECKT
 62
     1
 10
-138.2499999999998863
 20
19.8119978228497509
 30
-0.0000000000000044
 11
-138.2499999999998863
 21
18.3119978228497402
 31
-0.0000000000000041
210
-0.0000000000000002
220
1.0
230
-0.0000000000000002
  0
LINE
  5
1448B
  8
0
  6
VERDECKT
 62
     1
 10
-139.2499999999998863
 20
18.3119978228497402
 30
-0.0000000000000041
 11
-139.2499999999998863
 21
19.0442308698833109
 31
-0.0000000000000042
210
-0.0000000000000002
220
1.0
230
-0.0000000000000002
  0
LINE
  5
1448C
  8
0
  6
VERDECKT
 62
     1
 10
-139.2499999999998863
 20
53.0191067811863377
 30
-0.0000000000000118
 11
-139.2499999999998863
 21
19.0442308698833216
 31
-0.0000000000000042
210
-0.0000000000000002
220
1.0
230
-0.0000000000000002
  0
LINE
  5
1448D
  8
0
  6
VERDECKT
 62
     1
 10
-139.2499999999998863
 20
53.3119999999997702
 30
-0.0000000000000118
 11
-139.2499999999998863
 21
53.0191067811863377
 31
-0.0000000000000118
210
-0.0000000000000002
220
1.0
230
-0.0000000000000002
  0
LINE
  5
1448E
  8
0
  6
VERDECKT
 62
     1
 10
-70.7499999999998863
 20
53.3119999999997987
 30
-0.0000000000000118
 11
-70.7499999999998863
 21
53.019106781186359
 31
-0.0000000000000118
210
-0.0000000000000002
220
1.0
230
-0.0000000000000002
  0
LINE
  5
1448F
  8
0
  6
VERDECKT
 62
     1
 10
-70.7499999999998863
 20
53.0191067811863519
 30
-0.0000000000000118
 11
-70.7499999999998721
 21
19.0442308698833287
 31
-0.0000000000000042
210
-0.0000000000000002
220
1.0
230
-0.0000000000000002
  0
LINE
  5
14490
  8
0
  6
VERDECKT
 62
     1
 10
-70.7499999999998721
 20
18.3119978228497615
 30
-0.0000000000000041
 11
-70.7499999999998721
 21
19.0442308698833287
 31
-0.0000000000000042
210
-0.0000000000000002
220
1.0
230
-0.0000000000000002
  0
LINE
  5
14491
  8
0
  6
VERDECKT
 62
     1
 10
-71.7499999999998721
 20
19.8119978228497686
 30
-0.0000000000000044
 11
-71.7499999999998721
 21
18.3119978228499889
 31
-0.0000000000000041
210
-0.0000000000000002
220
1.0
230
-0.0000000000000002
  0
LINE
  5
14492
  8
0
  6
VERDECKT
 62
     1
 10
-71.7499999999998863
 20
54.8119999999999976
 30
-0.0000000000000122
 11
-71.7499999999998863
 21
53.3120000000001326
 31
-0.0000000000000118
210
-0.0000000000000002
220
1.0
230
-0.0000000000000002
  0
LINE
  5
14493
  8
0
  6
VERDECKT
 62
     1
 10
-139.2499999999998863
 20
18.3119978228497402
 30
-0.0000000000000041
 11
-130.4558439944256918
 21
18.3119978228497402
 31
-0.0000000000000041
210
-0.0000000000000002
220
1.0
230
-0.0000000000000002
  0
LINE
  5
14494
  8
0
  6
VERDECKT
 62
     1
 10
-79.5441560055740666
 20
18.3119978228497615
 30
-0.0000000000000041
 11
-70.7499999999998721
 21
18.3119978228497615
 31
-0.0000000000000041
210
-0.0000000000000002
220
1.0
230
-0.0000000000000002
  0
LINE
  5
14495
  8
0
  6
VERDECKT
 62
     1
 10
-139.2499999999998863
 20
19.8119978228497509
 30
-0.0000000000000044
 11
-70.7499999999998721
 21
19.8119978228497686
 31
-0.0000000000000044
210
-0.0000000000000002
220
1.0
230
-0.0000000000000002
  0
LINE
  5
14496
  8
0
  6
VERDECKT
 62
     1
 10
-139.9999999999998863
 20
18.3119978228497509
 30
-0.0000000000000041
 11
-138.4999999999998863
 21
18.3119978228497509
 31
-0.0000000000000041
210
-0.0000000000000002
220
1.0
230
-0.0000000000000002
  0
LINE
  5
14497
  8
0
  6
VERDECKT
 62
     1
 10
-139.9999999999998863
 20
20.3119978228497509
 30
-0.0000000000000045
 11
-138.4999999999998863
 21
20.3119978228497509
 31
-0.0000000000000045
210
-0.0000000000000002
220
1.0
230
-0.0000000000000002
  0
LINE
  5
14498
  8
0
  6
VERDECKT
 62
     1
 10
-139.791287847477804
 20
-13.6880000000000202
 30
0.000000000000003
 11
-137.4999999999998863
 21
-13.6880000000000202
 31
0.000000000000003
210
-0.0000000000000002
220
1.0
230
-0.0000000000000002
  0
LINE
  5
14499
  8
0
  6
VERDECKT
 62
     1
 10
-138.4999999999998863
 20
54.8120000000001113
 30
-0.0000000000000122
 11
-138.4999999999998863
 21
53.3119999999997702
 31
-0.0000000000000118
210
-0.0000000000000002
220
1.0
230
-0.0000000000000002
  0
LINE
  5
1449A
  8
0
  6
VERDECKT
 62
     1
 10
-71.4999999999998863
 20
54.8120000000001326
 30
-0.0000000000000122
 11
-71.4999999999998863
 21
53.3120000000000189
 31
-0.0000000000000118
210
-0.0000000000000002
220
1.0
230
-0.0000000000000002
  0
LINE
  5
1449B
  8
0
  6
VERDECKT
 62
     1
 10
-71.4999999999998721
 20
20.3119978228499996
 30
-0.0000000000000045
 11
-69.9999999999998721
 21
20.3119978228499996
 31
-0.0000000000000045
210
-0.0000000000000002
220
1.0
230
-0.0000000000000002
  0
LINE
  5
1449C
  8
0
  6
VERDECKT
 62
     1
 10
-72.4999999999998721
 20
-13.6880000000000095
 30
0.000000000000003
 11
-70.2087121525219544
 21
-13.6880000000000095
 31
0.000000000000003
210
-0.0000000000000002
220
1.0
230
-0.0000000000000002
  0
LINE
  5
1449D
  8
0
  6
VERDECKT
 62
     1
 10
-71.4999999999998721
 20
18.3119978228497686
 30
-0.0000000000000041
 11
-69.9999999999998721
 21
18.3119978228497686
 31
-0.0000000000000041
210
-0.0000000000000002
220
1.0
230
-0.0000000000000002
  0
LINE
  5
1449E
  8
0
  6
VERDECKT
 62
     1
 10
-137.4999999999998863
 20
-13.6880000000000202
 30
0.000000000000003
 11
-72.4999999999998721
 21
-13.6880000000000006
 31
0.000000000000003
210
-0.0000000000000002
220
1.0
230
-0.0000000000000002
  0
ENDBLK
  5
144A0
  8
0
  0
ENDSEC
  0
SECTION
  2
ENTITIES
  0
INSERT
  5
48E5
  8
ADSK_ASSOC_ENTITY_BACKUPS
  2
*S0
 10
0.0
 20
0.0
 30
0.0
  0
INSERT
  5
143FE
  8
STEMPEL
  2
A$C51DFAA53
 10
5.606135547470557
 20
-24.0752553542830192
 30
19.8119978228497793
  0
INSERT
  5
1445D
  8
STEMPEL
  2
A$CA46BDA0C
 10
5.606135547470557
 20
154.9279353838302029
 30
19.8119978228497402
  0
INSERT
  5
144A1
  8
STEMPEL
  2
A$CEA31C3BB
 10
276.2939478053036169
 20
154.9279375609804106
 30
19.8119978228497402
  0
VIEWPORT
  5
3E7B
 67
     1
  8
0
 10
206.2977952556854859
 20
146.8421790770161977
 30
0.0
 40
533.9969448798290159
 41
299.1239570917758783
 68
     1
 69
     1
1001
ACAD
1000
MVIEW
1002
{
1070
    16
1010
0.0
1020
0.0
1030
0.0
1010
0.0
1020
0.0
1030
1.0
1040
0.0
1040
299.1239570917758783
1040
206.2977952556854859
1040
146.8421790770161977
1040
50.0
1040
0.0
1040
0.0
1070
     0
1070
  1500
1070
     1
1070
     1
1070
     0
1070
     0
1070
     0
1070
     2
1040
0.0
1040
0.0
1040
0.0
1040
10.0
1040
10.0
1040
10.0
1040
10.0
1070
     0
1002
{
1002
}
1002
}
  0
ENDSEC
  0
EOF
