  0
SECTION
  2
HEADER
  9
$ACADVER
  1
AC1009
  9
$INSBASE
 10
0.0
 20
0.0
 30
0.0
  9
$EXTMIN
 10
-203.8685567228112916
 20
158.053163188105799
 30
9.8079785578580641
  9
$EXTMAX
 10
218.757591190320511
 20
322.6050120533968766
 30
9.8146777417363182
  9
$LIMMIN
 10
0.0
 20
0.0
  9
$LIMMAX
 10
839.9999999999997726
 20
594.0000000000001137
  9
$ORTHOMODE
 70
     1
  9
$REGENMODE
 70
     1
  9
$FILLMODE
 70
     1
  9
$QTEXTMODE
 70
     0
  9
$MIRRTEXT
 70
     1
  9
$DRAGMODE
 70
     2
  9
$LTSCALE
 40
10.0
  9
$OSMODE
 70
  2495
  9
$ATTMODE
 70
     1
  9
$TEXTSIZE
 40
2.5
  9
$TRACEWID
 40
0.5
  9
$TEXTSTYLE
  7
GREEKS
  9
$CLAYER
  8
STEMPEL
  9
$CELTYPE
  6
BYLAYER
  9
$CECOLOR
 62
   256
  9
$DIMSCALE
 40
1.0
  9
$DIMASZ
 40
3.5
  9
$DIMEXO
 40
1.0
  9
$DIMDLI
 40
1.0
  9
$DIMRND
 40
0.0
  9
$DIMDLE
 40
0.0
  9
$DIMEXE
 40
1.0
  9
$DIMTP
 40
0.0
  9
$DIMTM
 40
2.0
  9
$DIMTXT
 40
3.5
  9
$DIMCEN
 40
0.09
  9
$DIMTSZ
 40
0.0
  9
$DIMTOL
 70
     0
  9
$DIMLIM
 70
     0
  9
$DIMTIH
 70
     0
  9
$DIMTOH
 70
     0
  9
$DIMSE1
 70
     0
  9
$DIMSE2
 70
     0
  9
$DIMTAD
 70
     1
  9
$DIMZIN
 70
     8
  9
$DIMBLK
  1

  9
$DIMASO
 70
     1
  9
$DIMSHO
 70
     0
  9
$DIMPOST
  1

  9
$DIMAPOST
  1

  9
$DIMALT
 70
     0
  9
$DIMALTD
 70
     2
  9
$DIMALTF
 40
25.3999999999999986
  9
$DIMLFAC
 40
1.0
  9
$DIMTOFL
 70
     1
  9
$DIMTVP
 40
0.0
  9
$DIMTIX
 70
     0
  9
$DIMSOXD
 70
     0
  9
$DIMSAH
 70
     0
  9
$DIMBLK1
  1

  9
$DIMBLK2
  1

  9
$DIMSTYLE
  2
STANDARD
  9
$DIMCLRD
 70
   256
  9
$DIMCLRE
 70
     0
  9
$DIMCLRT
 70
     1
  9
$DIMTFAC
 40
0.5
  9
$DIMGAP
 40
1.1999999999999991
  9
$LUNITS
 70
     2
  9
$LUPREC
 70
     2
  9
$SKETCHINC
 40
1.0
  9
$FILLETRAD
 40
0.875
  9
$AUNITS
 70
     0
  9
$AUPREC
 70
     0
  9
$MENU
  1
ACAD
  9
$ELEVATION
 40
0.0
  9
$PELEVATION
 40
0.0
  9
$THICKNESS
 40
0.0
  9
$LIMCHECK
 70
     0
  9
$BLIPMODE
 70
     0
  9
$CHAMFERA
 40
0.0
  9
$CHAMFERB
 40
0.0
  9
$SKPOLY
 70
     0
  9
$TDCREATE
 40
2452806.2369097219780087
  9
$TDUPDATE
 40
2459550.4326273151673377
  9
$TDINDWG
 40
2.2708939236000001
  9
$TDUSRTIMER
 40
2.2708939236000001
  9
$USRTIMER
 70
     1
  9
$ANGBASE
 50
0.0
  9
$ANGDIR
 70
     0
  9
$PDMODE
 70
     0
  9
$PDSIZE
 40
0.0
  9
$PLINEWID
 40
0.0
  9
$COORDS
 70
     1
  9
$SPLFRAME
 70
     0
  9
$SPLINETYPE
 70
     6
  9
$SPLINESEGS
 70
     8
  9
$ATTDIA
 70
     1
  9
$ATTREQ
 70
     1
  9
$HANDLING
 70
     1
  9
$HANDSEED
  5
14E58
  9
$SURFTAB1
 70
     6
  9
$SURFTAB2
 70
     6
  9
$SURFTYPE
 70
     6
  9
$SURFU
 70
     6
  9
$SURFV
 70
     6
  9
$UCSNAME
  2

  9
$UCSORG
 10
0.0
 20
0.0
 30
0.0
  9
$UCSXDIR
 10
1.0
 20
0.0
 30
0.0
  9
$UCSYDIR
 10
0.0
 20
1.0
 30
0.0
  9
$PUCSNAME
  2

  9
$PUCSORG
 10
0.0
 20
0.0
 30
0.0
  9
$PUCSXDIR
 10
1.0
 20
0.0
 30
0.0
  9
$PUCSYDIR
 10
0.0
 20
1.0
 30
0.0
  9
$USERI1
 70
     0
  9
$USERI2
 70
     0
  9
$USERI3
 70
     0
  9
$USERI4
 70
     0
  9
$USERI5
 70
     0
  9
$USERR1
 40
0.0
  9
$USERR2
 40
0.0
  9
$USERR3
 40
0.0
  9
$USERR4
 40
0.0
  9
$USERR5
 40
0.0
  9
$WORLDVIEW
 70
     1
  9
$SHADEDGE
 70
     3
  9
$SHADEDIF
 70
    70
  9
$TILEMODE
 70
     1
  9
$MAXACTVP
 70
    16
  9
$PLIMCHECK
 70
     0
  9
$PEXTMIN
 10
1.0000000000000000E+20
 20
1.0000000000000000E+20
 30
1.0000000000000000E+20
  9
$PEXTMAX
 10
-1.0000000000000000E+20
 20
-1.0000000000000000E+20
 30
-1.0000000000000000E+20
  9
$PLIMMIN
 10
-3.7022047443144852
 20
-1.657820922983773
  9
$PLIMMAX
 10
416.2977952556855143
 20
295.3421790770162261
  9
$UNITMODE
 70
     0
  9
$VISRETAIN
 70
     0
  9
$PLINEGEN
 70
     0
  9
$PSLTSCALE
 70
     0
  0
ENDSEC
  0
SECTION
  2
TABLES
  0
TABLE
  2
VPORT
 70
     1
  0
VPORT
  2
*ACTIVE
 70
     0
 10
0.0
 20
0.0
 11
1.0
 21
1.0
 12
58.3648721913217017
 22
65.6213114417109011
 13
0.0
 23
0.0
 14
1.0
 24
1.0
 15
10.0
 25
10.0
 16
0.0000000000001847
 26
0.0
 36
820.1405269783563199
 17
-50.9203549575671133
 27
174.707776179040394
 37
-34.0924435189928872
 40
237.6867978674762867
 41
1.7852028639618129
 42
50.0000000000000071
 43
0.0
 44
0.0
 50
0.0
 51
0.0
 71
     0
 72
  1500
 73
     1
 74
     0
 75
     0
 76
     0
 77
     0
 78
     0
  0
ENDTAB
  0
TABLE
  2
LTYPE
 70
     6
  0
LTYPE
  2
CONTINUOUS
 70
     0
  3
Solid line
 72
    65
 73
     0
 40
0.0
  0
LTYPE
  2
STRICHPUNKT
 70
     0
  3
__ . __ . __ . __ . __ . __ . __ . __ . __ . __
 72
    65
 73
     4
 40
1.0
 49
0.5
 49
-0.25
 49
0.0
 49
-0.25
  0
LTYPE
  2
AUSGEZOGEN
 70
     0
  3
Ausgezogene Linie
 72
    65
 73
     0
 40
0.0
  0
LTYPE
  2
VERDECKT
 70
     0
  3
Verdeckt __ __ __ __ __ __ __ __ __ __ __ __ __
 72
    65
 73
     2
 40
0.375
 49
0.25
 49
-0.125
  0
ENDTAB
  0
TABLE
  2
LAYER
 70
    14
  0
LAYER
  2
0
 70
     0
 62
     7
  6
AUSGEZOGEN
  0
LAYER
  2
STEMPEL
 70
     0
 62
     3
  6
AUSGEZOGEN
  0
LAYER
  2
DEFPOINTS
 70
     0
 62
     7
  6
AUSGEZOGEN
  0
LAYER
  2
ADSK_ASSOC_ENTITY_BACKUPS
 70
     0
 62
     7
  6
CONTINUOUS
  0
ENDTAB
  0
TABLE
  2
STYLE
 70
     4
  0
STYLE
  2
STANDARD
 70
     0
 40
0.0
 41
0.8
 50
0.0
 71
     0
 42
3.5
  3
simplex.shx
  4

  0
STYLE
  2
GREEKS
 70
     0
 40
0.0
 41
0.8
 50
0.0
 71
     0
 42
2.5
  3
SIMPLEX.shx
  4

  0
ENDTAB
  0
TABLE
  2
VIEW
 70
     1
  0
ENDTAB
  0
TABLE
  2
UCS
 70
     0
  0
ENDTAB
  0
TABLE
  2
APPID
 70
    29
  0
APPID
  2
ACAD
 70
     0
  0
APPID
  2
ACAD_PSEXT
 70
     0
  0
APPID
  2
ACAD_NAV_VCDISPLAY
 70
     0
  0
APPID
  2
GRADIENTCOLOR1ACI
 70
     0
  0
APPID
  2
GRADIENTCOLOR2ACI
 70
     0
  0
APPID
  2
ACAD_EXEMPT_FROM_CAD_STANDARDS
 70
     0
  0
APPID
  2
ACAD_MLEADERVER
 70
     0
  0
APPID
  2
ACAD_OBJECT_CHANGE_GUID
 70
     0
  0
APPID
  2
ACAECLAYERSTANDARD
 70
     0
  0
APPID
  2
ACCMTRANSPARENCY
 70
     0
  0
APPID
  2
ACAD_STEPID
 70
     0
  0
APPID
  2
ACSYNERGY
 70
     0
  0
APPID
  2
SYNERGY_BODY_TBR_ID
 70
     0
  0
APPID
  2
ACAD_VIEW_EDGE_ID
 70
     0
  0
APPID
  2
ACSYNERGYSKETCH
 70
     0
  0
APPID
  2
SYNERGY_EXCLUDED_FROM_SNAPSHOT
 70
     0
  0
APPID
  2
ACAD_MODELDOC_XFORM
 70
     0
  0
APPID
  2
ACADANNOMONITORALERTICONDI
 70
     0
  0
APPID
  2
ACADANNOTATIVE
 70
     0
  0
APPID
  2
ACAD_DSTYLE_DIMJAG
 70
     0
  0
APPID
  2
ACAD_DSTYLE_DIMTALN
 70
     0
  0
APPID
  2
ACDBDYNAMICBLOCKGUID
 70
     0
  0
APPID
  2
ACAD_DIMASSOC_CALC_DIMLFAC
 70
     0
  0
APPID
  2
ACAD_DIMASSOC_DIMLFAC
 70
     0
  0
APPID
  2
ACAD_DIMASSOC_OVERRIDDEN_D
 70
     0
  0
APPID
  2
ACAD_DSTYLE_DIMRADIAL_EXTENSION
 70
     0
  0
APPID
  2
ACADANNOPO
 70
     0
  0
APPID
  2
ACAD_ASSOCPERSSUBENTMANAGER
 70
     0
  0
APPID
  2
AcDbAttr
 70
     0
  0
ENDTAB
  0
TABLE
  2
DIMSTYLE
 70
     2
  0
DIMSTYLE
  2
STANDARD
 70
     0
  3

  4

  5

  6

  7

 40
1.0
 41
3.5
 42
1.0
 43
1.0
 44
1.0
 45
0.0
 46
0.0
 47
0.0
 48
2.0
140
3.5
141
0.09
142
0.0
143
25.3999999999999986
144
1.0
145
0.0
146
0.5
147
1.1999999999999991
 71
     0
 72
     0
 73
     0
 74
     0
 75
     0
 76
     0
 77
     1
 78
     8
170
     0
171
     2
172
     1
173
     0
174
     0
175
     0
176
   256
177
     0
178
     1
  0
ENDTAB
  0
ENDSEC
  0
SECTION
  2
BLOCKS
  0
BLOCK
  8
0
  2
$MODEL_SPACE
 70
     0
 10
0.0
 20
0.0
 30
0.0
  3
$MODEL_SPACE
  1

  0
ENDBLK
  5
1098
  8
0
  0
BLOCK
 67
     1
  8
0
  2
$PAPER_SPACE
 70
     0
 10
0.0
 20
0.0
 30
0.0
  3
$PAPER_SPACE
  1

  0
ENDBLK
  5
1096
 67
     1
  8
0
  0
BLOCK
  8
0
  2
*S0
 70
     1
 10
0.0
 20
0.0
 30
0.0
  3
*S0
  1

  0
ENDBLK
  5
48E3
  8
0
  0
BLOCK
  8
0
  2
A$C2D3B6C32
 70
     0
 10
0.0
 20
0.0
 30
0.0
  3
A$C2D3B6C32
  1

  0
LINE
  5
14ABA
  8
0
 10
-145.9300000000004047
 20
133.249999999999801
 30
-0.0000000000000355
 11
-145.9300000000004047
 21
134.249999999999801
 31
-0.0000000000000355
  0
LINE
  5
14ABB
  8
0
 10
-142.9300000000004047
 20
133.249999999999801
 30
-0.0000000000000284
 11
-145.9300000000004047
 21
133.249999999999801
 31
-0.0000000000000291
  0
LINE
  5
14ABC
  8
0
 10
-142.9300000000004047
 20
134.249999999999801
 30
-0.0000000000000284
 11
-142.9300000000004047
 21
133.249999999999801
 31
-0.0000000000000284
  0
LINE
  5
14ABD
  8
0
 10
-145.9300000000004047
 20
134.249999999999801
 30
-0.0000000000000355
 11
-154.2500000000003979
 21
134.249999999999801
 31
-0.0000000000000374
  0
LINE
  5
14ABE
  8
0
 10
-145.9300000000004047
 20
75.7499999999998437
 30
-0.0000000000000355
 11
-145.9300000000004047
 21
76.7499999999998579
 31
-0.0000000000000355
  0
LINE
  5
14ABF
  8
0
 10
-145.9300000000004047
 20
76.7499999999998579
 30
-0.0000000000000355
 11
-142.9300000000004047
 21
76.7499999999998579
 31
-0.0000000000000349
  0
LINE
  5
14AC0
  8
0
 10
-142.9300000000004047
 20
76.7499999999998579
 30
-0.0000000000000284
 11
-142.9300000000004047
 21
75.7499999999998437
 31
-0.0000000000000284
  0
LINE
  5
14AC1
  8
0
 10
-145.9300000000004047
 20
75.7499999999998437
 30
-0.0000000000000355
 11
-154.2500000000003979
 21
75.7499999999998437
 31
-0.0000000000000374
  0
LINE
  5
14AC2
  8
0
 10
-98.9637532387990859
 20
75.7499999999998437
 30
-0.0000000000000213
 11
-99.6708600199853123
 21
75.7499999999998437
 31
-0.0000000000000213
  0
LINE
  5
14AC3
  8
0
 10
-98.9637532387990859
 20
134.249999999999801
 30
-0.0000000000000213
 11
-99.6708600199853123
 21
134.249999999999801
 31
-0.0000000000000213
  0
LINE
  5
14AC4
  8
0
 10
-99.6708600199853123
 20
75.7499999999998437
 30
-0.0000000000000213
 11
-133.6457359312881863
 21
75.7499999999998437
 31
-0.0000000000000284
  0
LINE
  5
14AC5
  8
0
 10
-99.6708600199852413
 20
134.249999999999801
 30
-0.0000000000000213
 11
-133.6457359312881863
 21
134.249999999999801
 31
-0.0000000000000284
  0
LINE
  5
14AC6
  8
0
 10
-135.4135028842545125
 20
75.7499999999998437
 30
-0.0000000000000284
 11
-133.6457359312881863
 21
75.7499999999998437
 31
-0.0000000000000284
  0
LINE
  5
14AC7
  8
0
 10
-135.4135028842545125
 20
134.249999999999801
 30
-0.0000000000000284
 11
-133.6457359312881863
 21
134.249999999999801
 31
-0.0000000000000284
  0
LINE
  5
14AC8
  8
0
 10
-154.2500000000003979
 20
134.249999999999801
 30
-0.0000000000000355
 11
-154.2500000000003979
 21
75.7499999999998437
 31
-0.0000000000000355
  0
LINE
  5
14AC9
  8
0
 10
-135.4135028842545125
 20
75.7499999999998437
 30
-0.0000000000000284
 11
-142.9300000000004047
 21
75.7499999999998437
 31
-0.0000000000000301
  0
LINE
  5
14ACA
  8
0
 10
-135.4135028842545125
 20
134.249999999999801
 30
-0.0000000000000284
 11
-142.9300000000004047
 21
134.249999999999801
 31
-0.0000000000000301
  0
LINE
  5
14ACB
  8
0
 10
72.9649695592161152
 20
134.249999999999801
 30
0.000000000000016
 11
72.9649695592161152
 21
75.7499999999998437
 31
0.000000000000016
  0
LINE
  5
14ACC
  8
0
 10
72.9649695592161152
 20
75.7499999999998437
 30
0.000000000000016
 11
66.5655216185971312
 21
75.7499999999998437
 31
0.0000000000000146
  0
LINE
  5
14ACD
  8
0
 10
63.5655216185971312
 20
75.7499999999998437
 30
0.0000000000000142
 11
63.5655216185971312
 21
76.7499999999998579
 31
0.0000000000000142
  0
LINE
  5
14ACE
  8
0
 10
66.5655216185971312
 20
76.7499999999998579
 30
0.0000000000000142
 11
66.5655216185971312
 21
75.7499999999998437
 31
0.0000000000000142
  0
LINE
  5
14ACF
  8
0
 10
63.5655216185971312
 20
76.7499999999998579
 30
0.0000000000000142
 11
66.5655216185971312
 21
76.7499999999998579
 31
0.0000000000000149
  0
LINE
  5
14AD0
  8
0
 10
72.9649695592161152
 20
134.249999999999801
 30
0.000000000000016
 11
66.5655216185971312
 21
134.249999999999801
 31
0.0000000000000146
  0
LINE
  5
14AD1
  8
0
 10
66.5655216185971312
 20
134.249999999999801
 30
0.0000000000000142
 11
66.5655216185971312
 21
133.249999999999801
 31
0.0000000000000142
  0
LINE
  5
14AD2
  8
0
 10
63.5655216185971312
 20
133.249999999999801
 30
0.0000000000000142
 11
63.5655216185971312
 21
134.249999999999801
 31
0.0000000000000142
  0
LINE
  5
14AD3
  8
0
 10
66.5655216185971312
 20
133.249999999999801
 30
0.0000000000000142
 11
63.5655216185971312
 21
133.249999999999801
 31
0.0000000000000136
  0
LINE
  5
14AD4
  8
0
 10
63.5655216185971312
 20
75.7499999999998437
 30
0.0000000000000142
 11
-98.9637532387990859
 21
75.7499999999998437
 31
-0.0000000000000215
  0
LINE
  5
14AD5
  8
0
 10
63.5655216185971312
 20
134.249999999999801
 30
0.0000000000000142
 11
-98.9637532387990859
 21
134.249999999999801
 31
-0.0000000000000215
  0
LINE
  5
14AD6
  8
0
 10
-100.7315201917650995
 20
134.999999999999801
 30
-0.0000000000000213
 11
-134.7063961030679025
 21
134.999999999999801
 31
-0.0000000000000284
  0
LINE
  5
14AD7
  8
0
 10
-135.4135028842545125
 20
134.999999999999801
 30
-0.0000000000000284
 11
-134.7063961030679025
 21
134.999999999999801
 31
-0.0000000000000284
  0
LINE
  5
14AD8
  8
0
 10
-143.4292893218814982
 20
134.999999999999801
 30
-0.0000000000000284
 11
-143.4292893218814982
 21
133.499999999999801
 31
-0.0000000000000284
  0
LINE
  5
14AD9
  8
0
 10
-143.4292893218814982
 20
134.999999999999801
 30
-0.0000000000000284
 11
-145.4292893218814982
 21
134.999999999999801
 31
-0.0000000000000289
  0
LINE
  5
14ADA
  8
0
 10
-145.4292893218814982
 20
134.999999999999801
 30
-0.0000000000000355
 11
-145.4292893218814982
 21
133.499999999999801
 31
-0.0000000000000355
  0
LINE
  5
14ADB
  8
0
 10
-143.4292893218814982
 20
133.499999999999801
 30
-0.0000000000000284
 11
-145.4292893218814982
 21
133.499999999999801
 31
-0.0000000000000289
  0
LINE
  5
14ADC
  8
0
 10
-145.4292893218814982
 20
134.999999999999801
 30
-0.0000000000000355
 11
-153.4292893218814129
 21
134.999999999999801
 31
-0.0000000000000373
  0
LINE
  5
14ADD
  8
0
 10
-153.4292893218814129
 20
134.999999999999801
 30
-0.0000000000000355
 11
-153.4292893218814129
 21
134.249999999999801
 31
-0.0000000000000355
  0
LINE
  5
14ADE
  8
0
 10
-145.4292893218814982
 20
133.499999999999801
 30
-0.0000000000000355
 11
-145.9300000000004047
 21
133.499999999999801
 31
-0.0000000000000356
  0
LINE
  5
14ADF
  8
0
 10
-135.4135028842545125
 20
134.999999999999801
 30
-0.0000000000000284
 11
-143.4292893218814982
 21
134.999999999999801
 31
-0.0000000000000302
  0
LINE
  5
14AE0
  8
0
 10
-142.9300000000004047
 20
133.499999999999801
 30
-0.0000000000000284
 11
-143.4292893218814982
 21
133.499999999999801
 31
-0.0000000000000285
  0
LINE
  5
14AE1
  8
0
 10
-100.731520191765199
 20
134.999999999999801
 30
-0.0000000000000213
 11
-98.9637532387994412
 21
134.999999999999801
 31
-0.0000000000000213
  0
LINE
  5
14AE2
  8
0
 10
72.9649695592170247
 20
134.999999999999801
 30
0.000000000000016
 11
76.680693686603945
 21
134.999999999999801
 31
0.0000000000000169
  0
LINE
  5
14AE3
  8
0
 10
72.9649695592170247
 20
133.499999999999801
 30
0.000000000000016
 11
76.680693686603945
 21
133.499999999999801
 31
0.0000000000000169
  0
LINE
  5
14AE4
  8
0
 10
72.964969559216911
 20
134.999999999999801
 30
0.000000000000016
 11
66.0655216185971312
 21
134.999999999999801
 31
0.0000000000000145
  0
LINE
  5
14AE5
  8
0
 10
66.5655216185971312
 20
133.499999999999801
 30
0.0000000000000142
 11
66.0655216185971312
 21
133.499999999999801
 31
0.0000000000000141
  0
LINE
  5
14AE6
  8
0
 10
66.0655216185971312
 20
134.999999999999801
 30
0.0000000000000142
 11
66.0655216185971312
 21
133.499999999999801
 31
0.0000000000000142
  0
LINE
  5
14AE7
  8
0
 10
66.0655216185971312
 20
134.999999999999801
 30
0.0000000000000142
 11
64.0655216185971312
 21
134.999999999999801
 31
0.0000000000000138
  0
LINE
  5
14AE8
  8
0
 10
64.0655216185971312
 20
134.999999999999801
 30
0.0000000000000142
 11
64.0655216185971312
 21
133.499999999999801
 31
0.0000000000000142
  0
LINE
  5
14AE9
  8
0
 10
66.0655216185971312
 20
133.499999999999801
 30
0.0000000000000142
 11
64.0655216185971312
 21
133.499999999999801
 31
0.0000000000000138
  0
LINE
  5
14AEA
  8
0
 10
64.0655216185971312
 20
133.499999999999801
 30
0.0000000000000142
 11
63.5655216185971312
 21
133.499999999999801
 31
0.0000000000000141
  0
LINE
  5
14AEB
  8
0
 10
64.0655216185971312
 20
134.999999999999801
 30
0.0000000000000142
 11
-98.9637532387993133
 21
134.999999999999801
 31
-0.0000000000000216
  0
LINE
  5
14AEC
  8
0
 10
-98.9637532387994412
 20
74.9999999999998437
 30
-0.0000000000000213
 11
-100.731520191765199
 21
74.9999999999998437
 31
-0.0000000000000213
  0
LINE
  5
14AED
  8
0
 10
-142.9300000000004047
 20
76.4999999999998579
 30
-0.0000000000000284
 11
-143.4292893218812992
 21
76.4999999999998579
 31
-0.0000000000000285
  0
LINE
  5
14AEE
  8
0
 10
-135.4135028842545125
 20
74.9999999999998437
 30
-0.0000000000000284
 11
-143.4292893218812992
 21
74.9999999999998437
 31
-0.0000000000000302
  0
LINE
  5
14AEF
  8
0
 10
-145.4292893218812992
 20
76.4999999999998579
 30
-0.0000000000000355
 11
-145.9300000000004047
 21
76.4999999999998579
 31
-0.0000000000000356
  0
LINE
  5
14AF0
  8
0
 10
-153.4292893218814129
 20
75.7499999999998437
 30
-0.0000000000000355
 11
-153.4292893218814129
 21
74.9999999999998437
 31
-0.0000000000000355
  0
LINE
  5
14AF1
  8
0
 10
-145.4292893218812992
 20
74.9999999999998437
 30
-0.0000000000000355
 11
-153.4292893218814129
 21
74.9999999999998437
 31
-0.0000000000000373
  0
LINE
  5
14AF2
  8
0
 10
-145.4292893218812992
 20
76.4999999999998579
 30
-0.0000000000000355
 11
-145.4292893218812992
 21
74.9999999999998437
 31
-0.0000000000000355
  0
LINE
  5
14AF3
  8
0
 10
-143.4292893218812992
 20
76.4999999999998579
 30
-0.0000000000000284
 11
-145.4292893218812992
 21
76.4999999999998579
 31
-0.0000000000000289
  0
LINE
  5
14AF4
  8
0
 10
-143.4292893218812992
 20
74.9999999999998437
 30
-0.0000000000000284
 11
-145.4292893218812992
 21
74.9999999999998437
 31
-0.0000000000000289
  0
LINE
  5
14AF5
  8
0
 10
-143.4292893218812992
 20
76.4999999999998579
 30
-0.0000000000000284
 11
-143.4292893218812992
 21
74.9999999999998437
 31
-0.0000000000000284
  0
LINE
  5
14AF6
  8
0
 10
-134.7063961030679025
 20
74.9999999999998437
 30
-0.0000000000000284
 11
-135.4135028842545125
 21
74.9999999999998437
 31
-0.0000000000000284
  0
LINE
  5
14AF7
  8
0
 10
-100.7315201917647016
 20
74.9999999999998437
 30
-0.0000000000000213
 11
-134.7063961030677888
 21
74.9999999999998437
 31
-0.0000000000000284
  0
LINE
  5
14AF8
  8
0
 10
64.0655216185971312
 20
76.4999999999998579
 30
0.0000000000000142
 11
64.0655216185971312
 21
74.9999999999998437
 31
0.0000000000000142
  0
LINE
  5
14AF9
  8
0
 10
66.0655216185971312
 20
76.4999999999998579
 30
0.0000000000000142
 11
64.0655216185971312
 21
76.4999999999998579
 31
0.0000000000000138
  0
LINE
  5
14AFA
  8
0
 10
66.0655216185971312
 20
74.9999999999998437
 30
0.0000000000000142
 11
64.0655216185971312
 21
74.9999999999998437
 31
0.0000000000000138
  0
LINE
  5
14AFB
  8
0
 10
66.0655216185971312
 20
76.4999999999998579
 30
0.0000000000000142
 11
66.0655216185971312
 21
74.9999999999998437
 31
0.0000000000000142
  0
LINE
  5
14AFC
  8
0
 10
66.5655216185971312
 20
76.4999999999998579
 30
0.0000000000000142
 11
66.0655216185971312
 21
76.4999999999998579
 31
0.0000000000000141
  0
LINE
  5
14AFD
  8
0
 10
72.9649695592170247
 20
74.9999999999998437
 30
0.000000000000016
 11
66.0655216185971312
 21
74.9999999999998437
 31
0.0000000000000145
  0
LINE
  5
14AFE
  8
0
 10
72.9649695592170247
 20
76.4999999999998579
 30
0.000000000000016
 11
76.680693686603945
 21
76.4999999999998579
 31
0.0000000000000169
  0
LINE
  5
14AFF
  8
0
 10
72.9649695592170247
 20
74.9999999999998437
 30
0.000000000000016
 11
76.680693686603945
 21
74.9999999999998437
 31
0.0000000000000169
  0
LINE
  5
14B00
  8
0
 10
64.0655216185971312
 20
74.9999999999998437
 30
0.0000000000000142
 11
-98.9637532387994412
 21
74.9999999999998437
 31
-0.0000000000000216
  0
LINE
  5
14B01
  8
0
 10
64.0655216185971312
 20
76.4999999999998579
 30
0.0000000000000142
 11
63.5655216185971312
 21
76.4999999999998579
 31
0.0000000000000141
  0
LINE
  5
14B02
  8
0
 10
94.9999999999996589
 20
132.499999999999801
 30
0.0000000000000213
 11
94.9999999999996589
 21
77.4999999999998437
 31
0.0000000000000213
  0
LINE
  5
14B03
  8
0
 10
94.9999999999996589
 20
77.4999999999998437
 30
0.0000000000000213
 11
94.9999999999996589
 21
75.2087121525219402
 31
0.0000000000000213
  0
LINE
  5
14B04
  8
0
 10
94.9999999999996589
 20
134.791287847477804
 30
0.0000000000000213
 11
94.9999999999996589
 21
132.499999999999801
 31
0.0000000000000213
  0
POLYLINE
  5
14B05
  8
0
 10
94.9999999999985221
 20
75.2087121525222955
 30
0.0000000000000215
 66
     1
 70
     8
  0
VERTEX
  8
0
  5
14C50
 10
95.0000
 20
75.2087
 30
2.14801e-14
  70
    32
  0
VERTEX
  8
0
  5
14C51
 10
94.9934
 20
75.2055
 30
2.14788e-14
  70
    32
  0
VERTEX
  8
0
  5
14C52
 10
94.9867
 20
75.2023
 30
2.14774e-14
  70
    32
  0
VERTEX
  8
0
  5
14C53
 10
94.9801
 20
75.1992
 30
2.14761e-14
  70
    32
  0
VERTEX
  8
0
  5
14C54
 10
94.9734
 20
75.1960
 30
2.14748e-14
  70
    32
  0
VERTEX
  8
0
  5
14C55
 10
94.9667
 20
75.1929
 30
2.14734e-14
  70
    32
  0
VERTEX
  8
0
  5
14C56
 10
94.9600
 20
75.1898
 30
2.14721e-14
  70
    32
  0
VERTEX
  8
0
  5
14C57
 10
94.9533
 20
75.1868
 30
2.14708e-14
  70
    32
  0
VERTEX
  8
0
  5
14C58
 10
94.9466
 20
75.1838
 30
2.14694e-14
  70
    32
  0
VERTEX
  8
0
  5
14C59
 10
94.9399
 20
75.1807
 30
2.14681e-14
  70
    32
  0
VERTEX
  8
0
  5
14C5A
 10
94.9332
 20
75.1778
 30
2.14667e-14
  70
    32
  0
VERTEX
  8
0
  5
14C5B
 10
94.9265
 20
75.1748
 30
2.14654e-14
  70
    32
  0
VERTEX
  8
0
  5
14C5C
 10
94.9198
 20
75.1718
 30
2.14640e-14
  70
    32
  0
VERTEX
  8
0
  5
14C5D
 10
94.9130
 20
75.1689
 30
2.14627e-14
  70
    32
  0
VERTEX
  8
0
  5
14C5E
 10
94.9063
 20
75.1660
 30
2.14613e-14
  70
    32
  0
VERTEX
  8
0
  5
14C5F
 10
94.8995
 20
75.1632
 30
2.14600e-14
  70
    32
  0
VERTEX
  8
0
  5
14C60
 10
94.8927
 20
75.1603
 30
2.14586e-14
  70
    32
  0
VERTEX
  8
0
  5
14C61
 10
94.8860
 20
75.1575
 30
2.14573e-14
  70
    32
  0
VERTEX
  8
0
  5
14C62
 10
94.8792
 20
75.1547
 30
2.14559e-14
  70
    32
  0
VERTEX
  8
0
  5
14C63
 10
94.8724
 20
75.1519
 30
2.14546e-14
  70
    32
  0
VERTEX
  8
0
  5
14C64
 10
94.8656
 20
75.1492
 30
2.14532e-14
  70
    32
  0
VERTEX
  8
0
  5
14C65
 10
94.8588
 20
75.1465
 30
2.14518e-14
  70
    32
  0
VERTEX
  8
0
  5
14C66
 10
94.8519
 20
75.1438
 30
2.14505e-14
  70
    32
  0
VERTEX
  8
0
  5
14C67
 10
94.8451
 20
75.1411
 30
2.14491e-14
  70
    32
  0
VERTEX
  8
0
  5
14C68
 10
94.8383
 20
75.1384
 30
2.14477e-14
  70
    32
  0
VERTEX
  8
0
  5
14C69
 10
94.8315
 20
75.1358
 30
2.14464e-14
  70
    32
  0
VERTEX
  8
0
  5
14C6A
 10
94.8246
 20
75.1332
 30
2.14450e-14
  70
    32
  0
VERTEX
  8
0
  5
14C6B
 10
94.8177
 20
75.1306
 30
2.14436e-14
  70
    32
  0
VERTEX
  8
0
  5
14C6C
 10
94.8109
 20
75.1281
 30
2.14423e-14
  70
    32
  0
VERTEX
  8
0
  5
14C6D
 10
94.8040
 20
75.1256
 30
2.14409e-14
  70
    32
  0
VERTEX
  8
0
  5
14C6E
 10
94.7971
 20
75.1231
 30
2.14395e-14
  70
    32
  0
VERTEX
  8
0
  5
14C6F
 10
94.7903
 20
75.1206
 30
2.14381e-14
  70
    32
  0
VERTEX
  8
0
  5
14C70
 10
94.7834
 20
75.1181
 30
2.14368e-14
  70
    32
  0
VERTEX
  8
0
  5
14C71
 10
94.7765
 20
75.1157
 30
2.14354e-14
  70
    32
  0
VERTEX
  8
0
  5
14C72
 10
94.7696
 20
75.1133
 30
2.14340e-14
  70
    32
  0
VERTEX
  8
0
  5
14C73
 10
94.7626
 20
75.1109
 30
2.14326e-14
  70
    32
  0
VERTEX
  8
0
  5
14C74
 10
94.7557
 20
75.1086
 30
2.14312e-14
  70
    32
  0
VERTEX
  8
0
  5
14C75
 10
94.7488
 20
75.1062
 30
2.14298e-14
  70
    32
  0
VERTEX
  8
0
  5
14C76
 10
94.7419
 20
75.1039
 30
2.14285e-14
  70
    32
  0
VERTEX
  8
0
  5
14C77
 10
94.7349
 20
75.1016
 30
2.14271e-14
  70
    32
  0
VERTEX
  8
0
  5
14C78
 10
94.7280
 20
75.0994
 30
2.14257e-14
  70
    32
  0
VERTEX
  8
0
  5
14C79
 10
94.7210
 20
75.0972
 30
2.14243e-14
  70
    32
  0
VERTEX
  8
0
  5
14C7A
 10
94.7141
 20
75.0949
 30
2.14229e-14
  70
    32
  0
VERTEX
  8
0
  5
14C7B
 10
94.7071
 20
75.0928
 30
2.14215e-14
  70
    32
  0
VERTEX
  8
0
  5
14C7C
 10
94.7001
 20
75.0906
 30
2.14201e-14
  70
    32
  0
VERTEX
  8
0
  5
14C7D
 10
94.6932
 20
75.0885
 30
2.14187e-14
  70
    32
  0
VERTEX
  8
0
  5
14C7E
 10
94.6862
 20
75.0864
 30
2.14173e-14
  70
    32
  0
VERTEX
  8
0
  5
14C7F
 10
94.6792
 20
75.0843
 30
2.14159e-14
  70
    32
  0
VERTEX
  8
0
  5
14C80
 10
94.6722
 20
75.0822
 30
2.14145e-14
  70
    32
  0
VERTEX
  8
0
  5
14C81
 10
94.6652
 20
75.0802
 30
2.14131e-14
  70
    32
  0
VERTEX
  8
0
  5
14C82
 10
94.6582
 20
75.0782
 30
2.14117e-14
  70
    32
  0
VERTEX
  8
0
  5
14C83
 10
94.6512
 20
75.0762
 30
2.14103e-14
  70
    32
  0
VERTEX
  8
0
  5
14C84
 10
94.6441
 20
75.0743
 30
2.14089e-14
  70
    32
  0
VERTEX
  8
0
  5
14C85
 10
94.6371
 20
75.0723
 30
2.14075e-14
  70
    32
  0
VERTEX
  8
0
  5
14C86
 10
94.6301
 20
75.0704
 30
2.14061e-14
  70
    32
  0
VERTEX
  8
0
  5
14C87
 10
94.6231
 20
75.0685
 30
2.14047e-14
  70
    32
  0
VERTEX
  8
0
  5
14C88
 10
94.6160
 20
75.0667
 30
2.14033e-14
  70
    32
  0
VERTEX
  8
0
  5
14C89
 10
94.6090
 20
75.0648
 30
2.14019e-14
  70
    32
  0
VERTEX
  8
0
  5
14C8A
 10
94.6019
 20
75.0630
 30
2.14005e-14
  70
    32
  0
VERTEX
  8
0
  5
14C8B
 10
94.5949
 20
75.0613
 30
2.13991e-14
  70
    32
  0
VERTEX
  8
0
  5
14C8C
 10
94.5878
 20
75.0595
 30
2.13976e-14
  70
    32
  0
VERTEX
  8
0
  5
14C8D
 10
94.5807
 20
75.0578
 30
2.13962e-14
  70
    32
  0
VERTEX
  8
0
  5
14C8E
 10
94.5737
 20
75.0561
 30
2.13948e-14
  70
    32
  0
VERTEX
  8
0
  5
14C8F
 10
94.5666
 20
75.0544
 30
2.13934e-14
  70
    32
  0
VERTEX
  8
0
  5
14C90
 10
94.5595
 20
75.0527
 30
2.13920e-14
  70
    32
  0
VERTEX
  8
0
  5
14C91
 10
94.5524
 20
75.0511
 30
2.13906e-14
  70
    32
  0
VERTEX
  8
0
  5
14C92
 10
94.5453
 20
75.0495
 30
2.13891e-14
  70
    32
  0
VERTEX
  8
0
  5
14C93
 10
94.5382
 20
75.0479
 30
2.13877e-14
  70
    32
  0
VERTEX
  8
0
  5
14C94
 10
94.5311
 20
75.0464
 30
2.13863e-14
  70
    32
  0
VERTEX
  8
0
  5
14C95
 10
94.5240
 20
75.0448
 30
2.13849e-14
  70
    32
  0
VERTEX
  8
0
  5
14C96
 10
94.5169
 20
75.0433
 30
2.13835e-14
  70
    32
  0
VERTEX
  8
0
  5
14C97
 10
94.5098
 20
75.0419
 30
2.13820e-14
  70
    32
  0
VERTEX
  8
0
  5
14C98
 10
94.5027
 20
75.0404
 30
2.13806e-14
  70
    32
  0
VERTEX
  8
0
  5
14C99
 10
94.4956
 20
75.0390
 30
2.13792e-14
  70
    32
  0
VERTEX
  8
0
  5
14C9A
 10
94.4884
 20
75.0376
 30
2.13778e-14
  70
    32
  0
VERTEX
  8
0
  5
14C9B
 10
94.4813
 20
75.0362
 30
2.13763e-14
  70
    32
  0
VERTEX
  8
0
  5
14C9C
 10
94.4742
 20
75.0349
 30
2.13749e-14
  70
    32
  0
VERTEX
  8
0
  5
14C9D
 10
94.4670
 20
75.0335
 30
2.13735e-14
  70
    32
  0
VERTEX
  8
0
  5
14C9E
 10
94.4599
 20
75.0322
 30
2.13721e-14
  70
    32
  0
VERTEX
  8
0
  5
14C9F
 10
94.4527
 20
75.0310
 30
2.13706e-14
  70
    32
  0
VERTEX
  8
0
  5
14CA0
 10
94.4456
 20
75.0297
 30
2.13692e-14
  70
    32
  0
VERTEX
  8
0
  5
14CA1
 10
94.4384
 20
75.0285
 30
2.13678e-14
  70
    32
  0
VERTEX
  8
0
  5
14CA2
 10
94.4313
 20
75.0273
 30
2.13663e-14
  70
    32
  0
VERTEX
  8
0
  5
14CA3
 10
94.4241
 20
75.0261
 30
2.13649e-14
  70
    32
  0
VERTEX
  8
0
  5
14CA4
 10
94.4170
 20
75.0250
 30
2.13635e-14
  70
    32
  0
VERTEX
  8
0
  5
14CA5
 10
94.4098
 20
75.0239
 30
2.13620e-14
  70
    32
  0
VERTEX
  8
0
  5
14CA6
 10
94.4026
 20
75.0228
 30
2.13606e-14
  70
    32
  0
VERTEX
  8
0
  5
14CA7
 10
94.3955
 20
75.0217
 30
2.13592e-14
  70
    32
  0
VERTEX
  8
0
  5
14CA8
 10
94.3883
 20
75.0206
 30
2.13577e-14
  70
    32
  0
VERTEX
  8
0
  5
14CA9
 10
94.3811
 20
75.0196
 30
2.13563e-14
  70
    32
  0
VERTEX
  8
0
  5
14CAA
 10
94.3739
 20
75.0186
 30
2.13549e-14
  70
    32
  0
VERTEX
  8
0
  5
14CAB
 10
94.3667
 20
75.0177
 30
2.13534e-14
  70
    32
  0
VERTEX
  8
0
  5
14CAC
 10
94.3595
 20
75.0167
 30
2.13520e-14
  70
    32
  0
VERTEX
  8
0
  5
14CAD
 10
94.3524
 20
75.0158
 30
2.13506e-14
  70
    32
  0
VERTEX
  8
0
  5
14CAE
 10
94.3452
 20
75.0149
 30
2.13491e-14
  70
    32
  0
VERTEX
  8
0
  5
14CAF
 10
94.3380
 20
75.0141
 30
2.13477e-14
  70
    32
  0
VERTEX
  8
0
  5
14CB0
 10
94.3308
 20
75.0132
 30
2.13462e-14
  70
    32
  0
VERTEX
  8
0
  5
14CB1
 10
94.3236
 20
75.0124
 30
2.13448e-14
  70
    32
  0
VERTEX
  8
0
  5
14CB2
 10
94.3164
 20
75.0116
 30
2.13434e-14
  70
    32
  0
VERTEX
  8
0
  5
14CB3
 10
94.3092
 20
75.0109
 30
2.13419e-14
  70
    32
  0
VERTEX
  8
0
  5
14CB4
 10
94.3020
 20
75.0101
 30
2.13405e-14
  70
    32
  0
VERTEX
  8
0
  5
14CB5
 10
94.2947
 20
75.0094
 30
2.13390e-14
  70
    32
  0
VERTEX
  8
0
  5
14CB6
 10
94.2875
 20
75.0087
 30
2.13376e-14
  70
    32
  0
VERTEX
  8
0
  5
14CB7
 10
94.2803
 20
75.0081
 30
2.13361e-14
  70
    32
  0
VERTEX
  8
0
  5
14CB8
 10
94.2731
 20
75.0074
 30
2.13347e-14
  70
    32
  0
VERTEX
  8
0
  5
14CB9
 10
94.2659
 20
75.0068
 30
2.13333e-14
  70
    32
  0
VERTEX
  8
0
  5
14CBA
 10
94.2587
 20
75.0063
 30
2.13318e-14
  70
    32
  0
VERTEX
  8
0
  5
14CBB
 10
94.2515
 20
75.0057
 30
2.13304e-14
  70
    32
  0
VERTEX
  8
0
  5
14CBC
 10
94.2442
 20
75.0052
 30
2.13289e-14
  70
    32
  0
VERTEX
  8
0
  5
14CBD
 10
94.2370
 20
75.0047
 30
2.13275e-14
  70
    32
  0
VERTEX
  8
0
  5
14CBE
 10
94.2298
 20
75.0042
 30
2.13260e-14
  70
    32
  0
VERTEX
  8
0
  5
14CBF
 10
94.2226
 20
75.0037
 30
2.13246e-14
  70
    32
  0
VERTEX
  8
0
  5
14CC0
 10
94.2153
 20
75.0033
 30
2.13231e-14
  70
    32
  0
VERTEX
  8
0
  5
14CC1
 10
94.2081
 20
75.0029
 30
2.13217e-14
  70
    32
  0
VERTEX
  8
0
  5
14CC2
 10
94.2009
 20
75.0025
 30
2.13203e-14
  70
    32
  0
VERTEX
  8
0
  5
14CC3
 10
94.1936
 20
75.0022
 30
2.13188e-14
  70
    32
  0
VERTEX
  8
0
  5
14CC4
 10
94.1864
 20
75.0019
 30
2.13174e-14
  70
    32
  0
VERTEX
  8
0
  5
14CC5
 10
94.1792
 20
75.0016
 30
2.13159e-14
  70
    32
  0
VERTEX
  8
0
  5
14CC6
 10
94.1720
 20
75.0013
 30
2.13145e-14
  70
    32
  0
VERTEX
  8
0
  5
14CC7
 10
94.1647
 20
75.0010
 30
2.13130e-14
  70
    32
  0
VERTEX
  8
0
  5
14CC8
 10
94.1575
 20
75.0008
 30
2.13116e-14
  70
    32
  0
VERTEX
  8
0
  5
14CC9
 10
94.1503
 20
75.0006
 30
2.13101e-14
  70
    32
  0
VERTEX
  8
0
  5
14CCA
 10
94.1430
 20
75.0005
 30
2.13087e-14
  70
    32
  0
VERTEX
  8
0
  5
14CCB
 10
94.1358
 20
75.0003
 30
2.13072e-14
  70
    32
  0
VERTEX
  8
0
  5
14CCC
 10
94.1285
 20
75.0002
 30
2.13058e-14
  70
    32
  0
VERTEX
  8
0
  5
14CCD
 10
94.1213
 20
75.0001
 30
2.13043e-14
  70
    32
  0
VERTEX
  8
0
  5
14CCE
 10
94.1141
 20
75.0001
 30
2.13029e-14
  70
    32
  0
VERTEX
  8
0
  5
14CCF
 10
94.1068
 20
75.0000
 30
2.13014e-14
  70
    32
  0
VERTEX
  8
0
  5
14CD0
 10
94.0996
 20
75.0000
 30
2.13000e-14
  70
    32
  0
SEQEND
  8
0
  5
14CD1
  0
POLYLINE
  5
14B06
  8
0
 10
94.9999999999977547
 20
77.4999999999998437
 30
0.0000000000000215
 66
     1
 70
     8
  0
VERTEX
  8
0
  5
14CD2
 10
95.0000
 20
77.5000
 30
2.14801e-14
  70
    32
  0
VERTEX
  8
0
  5
14CD3
 10
94.9999
 20
77.4877
 30
2.14801e-14
  70
    32
  0
VERTEX
  8
0
  5
14CD4
 10
94.9997
 20
77.4755
 30
2.14800e-14
  70
    32
  0
VERTEX
  8
0
  5
14CD5
 10
94.9994
 20
77.4632
 30
2.14800e-14
  70
    32
  0
VERTEX
  8
0
  5
14CD6
 10
94.9989
 20
77.4509
 30
2.14799e-14
  70
    32
  0
VERTEX
  8
0
  5
14CD7
 10
94.9983
 20
77.4387
 30
2.14797e-14
  70
    32
  0
VERTEX
  8
0
  5
14CD8
 10
94.9976
 20
77.4264
 30
2.14796e-14
  70
    32
  0
VERTEX
  8
0
  5
14CD9
 10
94.9967
 20
77.4142
 30
2.14794e-14
  70
    32
  0
VERTEX
  8
0
  5
14CDA
 10
94.9957
 20
77.4020
 30
2.14792e-14
  70
    32
  0
VERTEX
  8
0
  5
14CDB
 10
94.9945
 20
77.3898
 30
2.14790e-14
  70
    32
  0
VERTEX
  8
0
  5
14CDC
 10
94.9932
 20
77.3776
 30
2.14787e-14
  70
    32
  0
VERTEX
  8
0
  5
14CDD
 10
94.9918
 20
77.3654
 30
2.14784e-14
  70
    32
  0
VERTEX
  8
0
  5
14CDE
 10
94.9903
 20
77.3533
 30
2.14781e-14
  70
    32
  0
VERTEX
  8
0
  5
14CDF
 10
94.9886
 20
77.3411
 30
2.14778e-14
  70
    32
  0
VERTEX
  8
0
  5
14CE0
 10
94.9867
 20
77.3290
 30
2.14774e-14
  70
    32
  0
VERTEX
  8
0
  5
14CE1
 10
94.9848
 20
77.3170
 30
2.14770e-14
  70
    32
  0
VERTEX
  8
0
  5
14CE2
 10
94.9827
 20
77.3049
 30
2.14766e-14
  70
    32
  0
VERTEX
  8
0
  5
14CE3
 10
94.9805
 20
77.2929
 30
2.14762e-14
  70
    32
  0
VERTEX
  8
0
  5
14CE4
 10
94.9781
 20
77.2809
 30
2.14757e-14
  70
    32
  0
VERTEX
  8
0
  5
14CE5
 10
94.9756
 20
77.2689
 30
2.14752e-14
  70
    32
  0
VERTEX
  8
0
  5
14CE6
 10
94.9730
 20
77.2570
 30
2.14747e-14
  70
    32
  0
VERTEX
  8
0
  5
14CE7
 10
94.9703
 20
77.2451
 30
2.14741e-14
  70
    32
  0
VERTEX
  8
0
  5
14CE8
 10
94.9674
 20
77.2333
 30
2.14736e-14
  70
    32
  0
VERTEX
  8
0
  5
14CE9
 10
94.9644
 20
77.2215
 30
2.14730e-14
  70
    32
  0
VERTEX
  8
0
  5
14CEA
 10
94.9612
 20
77.2097
 30
2.14723e-14
  70
    32
  0
VERTEX
  8
0
  5
14CEB
 10
94.9580
 20
77.1980
 30
2.14717e-14
  70
    32
  0
VERTEX
  8
0
  5
14CEC
 10
94.9546
 20
77.1863
 30
2.14710e-14
  70
    32
  0
VERTEX
  8
0
  5
14CED
 10
94.9510
 20
77.1747
 30
2.14703e-14
  70
    32
  0
VERTEX
  8
0
  5
14CEE
 10
94.9474
 20
77.1631
 30
2.14696e-14
  70
    32
  0
VERTEX
  8
0
  5
14CEF
 10
94.9436
 20
77.1516
 30
2.14688e-14
  70
    32
  0
VERTEX
  8
0
  5
14CF0
 10
94.9397
 20
77.1401
 30
2.14680e-14
  70
    32
  0
VERTEX
  8
0
  5
14CF1
 10
94.9356
 20
77.1287
 30
2.14672e-14
  70
    32
  0
VERTEX
  8
0
  5
14CF2
 10
94.9315
 20
77.1173
 30
2.14664e-14
  70
    32
  0
VERTEX
  8
0
  5
14CF3
 10
94.9272
 20
77.1060
 30
2.14655e-14
  70
    32
  0
VERTEX
  8
0
  5
14CF4
 10
94.9228
 20
77.0948
 30
2.14646e-14
  70
    32
  0
VERTEX
  8
0
  5
14CF5
 10
94.9182
 20
77.0836
 30
2.14637e-14
  70
    32
  0
VERTEX
  8
0
  5
14CF6
 10
94.9136
 20
77.0724
 30
2.14628e-14
  70
    32
  0
VERTEX
  8
0
  5
14CF7
 10
94.9088
 20
77.0614
 30
2.14618e-14
  70
    32
  0
VERTEX
  8
0
  5
14CF8
 10
94.9039
 20
77.0504
 30
2.14609e-14
  70
    32
  0
VERTEX
  8
0
  5
14CF9
 10
94.8988
 20
77.0395
 30
2.14598e-14
  70
    32
  0
VERTEX
  8
0
  5
14CFA
 10
94.8937
 20
77.0286
 30
2.14588e-14
  70
    32
  0
VERTEX
  8
0
  5
14CFB
 10
94.8884
 20
77.0178
 30
2.14578e-14
  70
    32
  0
VERTEX
  8
0
  5
14CFC
 10
94.8830
 20
77.0071
 30
2.14567e-14
  70
    32
  0
VERTEX
  8
0
  5
14CFD
 10
94.8775
 20
76.9965
 30
2.14556e-14
  70
    32
  0
VERTEX
  8
0
  5
14CFE
 10
94.8719
 20
76.9859
 30
2.14545e-14
  70
    32
  0
VERTEX
  8
0
  5
14CFF
 10
94.8662
 20
76.9754
 30
2.14533e-14
  70
    32
  0
VERTEX
  8
0
  5
14D00
 10
94.8603
 20
76.9650
 30
2.14521e-14
  70
    32
  0
VERTEX
  8
0
  5
14D01
 10
94.8543
 20
76.9547
 30
2.14509e-14
  70
    32
  0
VERTEX
  8
0
  5
14D02
 10
94.8483
 20
76.9444
 30
2.14497e-14
  70
    32
  0
VERTEX
  8
0
  5
14D03
 10
94.8421
 20
76.9343
 30
2.14485e-14
  70
    32
  0
VERTEX
  8
0
  5
14D04
 10
94.8358
 20
76.9242
 30
2.14472e-14
  70
    32
  0
VERTEX
  8
0
  5
14D05
 10
94.8293
 20
76.9142
 30
2.14459e-14
  70
    32
  0
VERTEX
  8
0
  5
14D06
 10
94.8228
 20
76.9043
 30
2.14446e-14
  70
    32
  0
VERTEX
  8
0
  5
14D07
 10
94.8162
 20
76.8945
 30
2.14433e-14
  70
    32
  0
VERTEX
  8
0
  5
14D08
 10
94.8094
 20
76.8848
 30
2.14420e-14
  70
    32
  0
VERTEX
  8
0
  5
14D09
 10
94.8026
 20
76.8751
 30
2.14406e-14
  70
    32
  0
VERTEX
  8
0
  5
14D0A
 10
94.7956
 20
76.8656
 30
2.14392e-14
  70
    32
  0
VERTEX
  8
0
  5
14D0B
 10
94.7886
 20
76.8562
 30
2.14378e-14
  70
    32
  0
VERTEX
  8
0
  5
14D0C
 10
94.7814
 20
76.8468
 30
2.14364e-14
  70
    32
  0
VERTEX
  8
0
  5
14D0D
 10
94.7741
 20
76.8376
 30
2.14349e-14
  70
    32
  0
VERTEX
  8
0
  5
14D0E
 10
94.7668
 20
76.8284
 30
2.14334e-14
  70
    32
  0
VERTEX
  8
0
  5
14D0F
 10
94.7593
 20
76.8194
 30
2.14319e-14
  70
    32
  0
VERTEX
  8
0
  5
14D10
 10
94.7517
 20
76.8105
 30
2.14304e-14
  70
    32
  0
VERTEX
  8
0
  5
14D11
 10
94.7440
 20
76.8016
 30
2.14289e-14
  70
    32
  0
VERTEX
  8
0
  5
14D12
 10
94.7363
 20
76.7929
 30
2.14273e-14
  70
    32
  0
VERTEX
  8
0
  5
14D13
 10
94.7284
 20
76.7843
 30
2.14258e-14
  70
    32
  0
VERTEX
  8
0
  5
14D14
 10
94.7205
 20
76.7758
 30
2.14242e-14
  70
    32
  0
VERTEX
  8
0
  5
14D15
 10
94.7124
 20
76.7673
 30
2.14226e-14
  70
    32
  0
VERTEX
  8
0
  5
14D16
 10
94.7043
 20
76.7590
 30
2.14209e-14
  70
    32
  0
VERTEX
  8
0
  5
14D17
 10
94.6960
 20
76.7509
 30
2.14193e-14
  70
    32
  0
VERTEX
  8
0
  5
14D18
 10
94.6877
 20
76.7428
 30
2.14176e-14
  70
    32
  0
VERTEX
  8
0
  5
14D19
 10
94.6793
 20
76.7348
 30
2.14159e-14
  70
    32
  0
VERTEX
  8
0
  5
14D1A
 10
94.6708
 20
76.7270
 30
2.14142e-14
  70
    32
  0
VERTEX
  8
0
  5
14D1B
 10
94.6622
 20
76.7193
 30
2.14125e-14
  70
    32
  0
VERTEX
  8
0
  5
14D1C
 10
94.6536
 20
76.7117
 30
2.14108e-14
  70
    32
  0
VERTEX
  8
0
  5
14D1D
 10
94.6448
 20
76.7042
 30
2.14090e-14
  70
    32
  0
VERTEX
  8
0
  5
14D1E
 10
94.6360
 20
76.6968
 30
2.14073e-14
  70
    32
  0
VERTEX
  8
0
  5
14D1F
 10
94.6271
 20
76.6895
 30
2.14055e-14
  70
    32
  0
VERTEX
  8
0
  5
14D20
 10
94.6181
 20
76.6824
 30
2.14037e-14
  70
    32
  0
VERTEX
  8
0
  5
14D21
 10
94.6090
 20
76.6754
 30
2.14019e-14
  70
    32
  0
VERTEX
  8
0
  5
14D22
 10
94.5998
 20
76.6685
 30
2.14000e-14
  70
    32
  0
VERTEX
  8
0
  5
14D23
 10
94.5906
 20
76.6618
 30
2.13982e-14
  70
    32
  0
VERTEX
  8
0
  5
14D24
 10
94.5813
 20
76.6551
 30
2.13963e-14
  70
    32
  0
VERTEX
  8
0
  5
14D25
 10
94.5719
 20
76.6486
 30
2.13945e-14
  70
    32
  0
VERTEX
  8
0
  5
14D26
 10
94.5625
 20
76.6423
 30
2.13926e-14
  70
    32
  0
VERTEX
  8
0
  5
14D27
 10
94.5530
 20
76.6360
 30
2.13907e-14
  70
    32
  0
VERTEX
  8
0
  5
14D28
 10
94.5434
 20
76.6299
 30
2.13888e-14
  70
    32
  0
VERTEX
  8
0
  5
14D29
 10
94.5338
 20
76.6239
 30
2.13868e-14
  70
    32
  0
VERTEX
  8
0
  5
14D2A
 10
94.5240
 20
76.6181
 30
2.13849e-14
  70
    32
  0
VERTEX
  8
0
  5
14D2B
 10
94.5143
 20
76.6124
 30
2.13829e-14
  70
    32
  0
VERTEX
  8
0
  5
14D2C
 10
94.5044
 20
76.6068
 30
2.13810e-14
  70
    32
  0
VERTEX
  8
0
  5
14D2D
 10
94.4945
 20
76.6013
 30
2.13790e-14
  70
    32
  0
VERTEX
  8
0
  5
14D2E
 10
94.4846
 20
76.5960
 30
2.13770e-14
  70
    32
  0
VERTEX
  8
0
  5
14D2F
 10
94.4746
 20
76.5908
 30
2.13750e-14
  70
    32
  0
VERTEX
  8
0
  5
14D30
 10
94.4645
 20
76.5858
 30
2.13730e-14
  70
    32
  0
VERTEX
  8
0
  5
14D31
 10
94.4543
 20
76.5809
 30
2.13710e-14
  70
    32
  0
VERTEX
  8
0
  5
14D32
 10
94.4442
 20
76.5761
 30
2.13689e-14
  70
    32
  0
VERTEX
  8
0
  5
14D33
 10
94.4339
 20
76.5715
 30
2.13669e-14
  70
    32
  0
VERTEX
  8
0
  5
14D34
 10
94.4236
 20
76.5670
 30
2.13648e-14
  70
    32
  0
VERTEX
  8
0
  5
14D35
 10
94.4133
 20
76.5627
 30
2.13627e-14
  70
    32
  0
VERTEX
  8
0
  5
14D36
 10
94.4029
 20
76.5585
 30
2.13607e-14
  70
    32
  0
VERTEX
  8
0
  5
14D37
 10
94.3925
 20
76.5544
 30
2.13586e-14
  70
    32
  0
VERTEX
  8
0
  5
14D38
 10
94.3820
 20
76.5505
 30
2.13565e-14
  70
    32
  0
VERTEX
  8
0
  5
14D39
 10
94.3715
 20
76.5467
 30
2.13544e-14
  70
    32
  0
VERTEX
  8
0
  5
14D3A
 10
94.3610
 20
76.5431
 30
2.13523e-14
  70
    32
  0
VERTEX
  8
0
  5
14D3B
 10
94.3504
 20
76.5396
 30
2.13502e-14
  70
    32
  0
VERTEX
  8
0
  5
14D3C
 10
94.3397
 20
76.5362
 30
2.13480e-14
  70
    32
  0
VERTEX
  8
0
  5
14D3D
 10
94.3291
 20
76.5330
 30
2.13459e-14
  70
    32
  0
VERTEX
  8
0
  5
14D3E
 10
94.3184
 20
76.5300
 30
2.13438e-14
  70
    32
  0
VERTEX
  8
0
  5
14D3F
 10
94.3076
 20
76.5271
 30
2.13416e-14
  70
    32
  0
VERTEX
  8
0
  5
14D40
 10
94.2969
 20
76.5243
 30
2.13395e-14
  70
    32
  0
VERTEX
  8
0
  5
14D41
 10
94.2861
 20
76.5217
 30
2.13373e-14
  70
    32
  0
VERTEX
  8
0
  5
14D42
 10
94.2753
 20
76.5192
 30
2.13351e-14
  70
    32
  0
VERTEX
  8
0
  5
14D43
 10
94.2644
 20
76.5169
 30
2.13330e-14
  70
    32
  0
VERTEX
  8
0
  5
14D44
 10
94.2535
 20
76.5147
 30
2.13308e-14
  70
    32
  0
VERTEX
  8
0
  5
14D45
 10
94.2426
 20
76.5127
 30
2.13286e-14
  70
    32
  0
VERTEX
  8
0
  5
14D46
 10
94.2317
 20
76.5108
 30
2.13264e-14
  70
    32
  0
VERTEX
  8
0
  5
14D47
 10
94.2208
 20
76.5091
 30
2.13242e-14
  70
    32
  0
VERTEX
  8
0
  5
14D48
 10
94.2098
 20
76.5075
 30
2.13220e-14
  70
    32
  0
VERTEX
  8
0
  5
14D49
 10
94.1988
 20
76.5061
 30
2.13198e-14
  70
    32
  0
VERTEX
  8
0
  5
14D4A
 10
94.1879
 20
76.5048
 30
2.13177e-14
  70
    32
  0
VERTEX
  8
0
  5
14D4B
 10
94.1768
 20
76.5037
 30
2.13155e-14
  70
    32
  0
VERTEX
  8
0
  5
14D4C
 10
94.1658
 20
76.5027
 30
2.13132e-14
  70
    32
  0
VERTEX
  8
0
  5
14D4D
 10
94.1548
 20
76.5019
 30
2.13110e-14
  70
    32
  0
VERTEX
  8
0
  5
14D4E
 10
94.1438
 20
76.5012
 30
2.13088e-14
  70
    32
  0
VERTEX
  8
0
  5
14D4F
 10
94.1327
 20
76.5007
 30
2.13066e-14
  70
    32
  0
VERTEX
  8
0
  5
14D50
 10
94.1217
 20
76.5003
 30
2.13044e-14
  70
    32
  0
VERTEX
  8
0
  5
14D51
 10
94.1106
 20
76.5001
 30
2.13022e-14
  70
    32
  0
VERTEX
  8
0
  5
14D52
 10
94.0996
 20
76.5000
 30
2.13000e-14
  70
    32
  0
SEQEND
  8
0
  5
14D53
  0
POLYLINE
  5
14B07
  8
0
 10
94.0995959556995558
 20
134.999999999999801
 30
0.0000000000000213
 66
     1
 70
     8
  0
VERTEX
  8
0
  5
14D54
 10
94.0996
 20
135.000
 30
2.13000e-14
  70
    32
  0
VERTEX
  8
0
  5
14D55
 10
94.1068
 20
135.000
 30
2.13014e-14
  70
    32
  0
VERTEX
  8
0
  5
14D56
 10
94.1141
 20
135.000
 30
2.13029e-14
  70
    32
  0
VERTEX
  8
0
  5
14D57
 10
94.1213
 20
135.000
 30
2.13043e-14
  70
    32
  0
VERTEX
  8
0
  5
14D58
 10
94.1285
 20
135.000
 30
2.13058e-14
  70
    32
  0
VERTEX
  8
0
  5
14D59
 10
94.1358
 20
135.000
 30
2.13072e-14
  70
    32
  0
VERTEX
  8
0
  5
14D5A
 10
94.1430
 20
135.000
 30
2.13087e-14
  70
    32
  0
VERTEX
  8
0
  5
14D5B
 10
94.1503
 20
134.999
 30
2.13101e-14
  70
    32
  0
VERTEX
  8
0
  5
14D5C
 10
94.1575
 20
134.999
 30
2.13116e-14
  70
    32
  0
VERTEX
  8
0
  5
14D5D
 10
94.1647
 20
134.999
 30
2.13130e-14
  70
    32
  0
VERTEX
  8
0
  5
14D5E
 10
94.1720
 20
134.999
 30
2.13145e-14
  70
    32
  0
VERTEX
  8
0
  5
14D5F
 10
94.1792
 20
134.998
 30
2.13159e-14
  70
    32
  0
VERTEX
  8
0
  5
14D60
 10
94.1864
 20
134.998
 30
2.13174e-14
  70
    32
  0
VERTEX
  8
0
  5
14D61
 10
94.1936
 20
134.998
 30
2.13188e-14
  70
    32
  0
VERTEX
  8
0
  5
14D62
 10
94.2009
 20
134.997
 30
2.13203e-14
  70
    32
  0
VERTEX
  8
0
  5
14D63
 10
94.2081
 20
134.997
 30
2.13217e-14
  70
    32
  0
VERTEX
  8
0
  5
14D64
 10
94.2153
 20
134.997
 30
2.13231e-14
  70
    32
  0
VERTEX
  8
0
  5
14D65
 10
94.2226
 20
134.996
 30
2.13246e-14
  70
    32
  0
VERTEX
  8
0
  5
14D66
 10
94.2298
 20
134.996
 30
2.13260e-14
  70
    32
  0
VERTEX
  8
0
  5
14D67
 10
94.2370
 20
134.995
 30
2.13275e-14
  70
    32
  0
VERTEX
  8
0
  5
14D68
 10
94.2442
 20
134.995
 30
2.13289e-14
  70
    32
  0
VERTEX
  8
0
  5
14D69
 10
94.2515
 20
134.994
 30
2.13304e-14
  70
    32
  0
VERTEX
  8
0
  5
14D6A
 10
94.2587
 20
134.994
 30
2.13318e-14
  70
    32
  0
VERTEX
  8
0
  5
14D6B
 10
94.2659
 20
134.993
 30
2.13333e-14
  70
    32
  0
VERTEX
  8
0
  5
14D6C
 10
94.2731
 20
134.993
 30
2.13347e-14
  70
    32
  0
VERTEX
  8
0
  5
14D6D
 10
94.2803
 20
134.992
 30
2.13361e-14
  70
    32
  0
VERTEX
  8
0
  5
14D6E
 10
94.2875
 20
134.991
 30
2.13376e-14
  70
    32
  0
VERTEX
  8
0
  5
14D6F
 10
94.2947
 20
134.991
 30
2.13390e-14
  70
    32
  0
VERTEX
  8
0
  5
14D70
 10
94.3020
 20
134.990
 30
2.13405e-14
  70
    32
  0
VERTEX
  8
0
  5
14D71
 10
94.3092
 20
134.989
 30
2.13419e-14
  70
    32
  0
VERTEX
  8
0
  5
14D72
 10
94.3164
 20
134.988
 30
2.13434e-14
  70
    32
  0
VERTEX
  8
0
  5
14D73
 10
94.3236
 20
134.988
 30
2.13448e-14
  70
    32
  0
VERTEX
  8
0
  5
14D74
 10
94.3308
 20
134.987
 30
2.13462e-14
  70
    32
  0
VERTEX
  8
0
  5
14D75
 10
94.3380
 20
134.986
 30
2.13477e-14
  70
    32
  0
VERTEX
  8
0
  5
14D76
 10
94.3452
 20
134.985
 30
2.13491e-14
  70
    32
  0
VERTEX
  8
0
  5
14D77
 10
94.3524
 20
134.984
 30
2.13506e-14
  70
    32
  0
VERTEX
  8
0
  5
14D78
 10
94.3595
 20
134.983
 30
2.13520e-14
  70
    32
  0
VERTEX
  8
0
  5
14D79
 10
94.3667
 20
134.982
 30
2.13534e-14
  70
    32
  0
VERTEX
  8
0
  5
14D7A
 10
94.3739
 20
134.981
 30
2.13549e-14
  70
    32
  0
VERTEX
  8
0
  5
14D7B
 10
94.3811
 20
134.980
 30
2.13563e-14
  70
    32
  0
VERTEX
  8
0
  5
14D7C
 10
94.3883
 20
134.979
 30
2.13577e-14
  70
    32
  0
VERTEX
  8
0
  5
14D7D
 10
94.3955
 20
134.978
 30
2.13592e-14
  70
    32
  0
VERTEX
  8
0
  5
14D7E
 10
94.4026
 20
134.977
 30
2.13606e-14
  70
    32
  0
VERTEX
  8
0
  5
14D7F
 10
94.4098
 20
134.976
 30
2.13620e-14
  70
    32
  0
VERTEX
  8
0
  5
14D80
 10
94.4170
 20
134.975
 30
2.13635e-14
  70
    32
  0
VERTEX
  8
0
  5
14D81
 10
94.4241
 20
134.974
 30
2.13649e-14
  70
    32
  0
VERTEX
  8
0
  5
14D82
 10
94.4313
 20
134.973
 30
2.13663e-14
  70
    32
  0
VERTEX
  8
0
  5
14D83
 10
94.4384
 20
134.972
 30
2.13678e-14
  70
    32
  0
VERTEX
  8
0
  5
14D84
 10
94.4456
 20
134.970
 30
2.13692e-14
  70
    32
  0
VERTEX
  8
0
  5
14D85
 10
94.4527
 20
134.969
 30
2.13706e-14
  70
    32
  0
VERTEX
  8
0
  5
14D86
 10
94.4599
 20
134.968
 30
2.13721e-14
  70
    32
  0
VERTEX
  8
0
  5
14D87
 10
94.4670
 20
134.966
 30
2.13735e-14
  70
    32
  0
VERTEX
  8
0
  5
14D88
 10
94.4742
 20
134.965
 30
2.13749e-14
  70
    32
  0
VERTEX
  8
0
  5
14D89
 10
94.4813
 20
134.964
 30
2.13763e-14
  70
    32
  0
VERTEX
  8
0
  5
14D8A
 10
94.4884
 20
134.962
 30
2.13778e-14
  70
    32
  0
VERTEX
  8
0
  5
14D8B
 10
94.4956
 20
134.961
 30
2.13792e-14
  70
    32
  0
VERTEX
  8
0
  5
14D8C
 10
94.5027
 20
134.960
 30
2.13806e-14
  70
    32
  0
VERTEX
  8
0
  5
14D8D
 10
94.5098
 20
134.958
 30
2.13820e-14
  70
    32
  0
VERTEX
  8
0
  5
14D8E
 10
94.5169
 20
134.957
 30
2.13835e-14
  70
    32
  0
VERTEX
  8
0
  5
14D8F
 10
94.5240
 20
134.955
 30
2.13849e-14
  70
    32
  0
VERTEX
  8
0
  5
14D90
 10
94.5311
 20
134.954
 30
2.13863e-14
  70
    32
  0
VERTEX
  8
0
  5
14D91
 10
94.5382
 20
134.952
 30
2.13877e-14
  70
    32
  0
VERTEX
  8
0
  5
14D92
 10
94.5453
 20
134.950
 30
2.13891e-14
  70
    32
  0
VERTEX
  8
0
  5
14D93
 10
94.5524
 20
134.949
 30
2.13906e-14
  70
    32
  0
VERTEX
  8
0
  5
14D94
 10
94.5595
 20
134.947
 30
2.13920e-14
  70
    32
  0
VERTEX
  8
0
  5
14D95
 10
94.5666
 20
134.946
 30
2.13934e-14
  70
    32
  0
VERTEX
  8
0
  5
14D96
 10
94.5737
 20
134.944
 30
2.13948e-14
  70
    32
  0
VERTEX
  8
0
  5
14D97
 10
94.5807
 20
134.942
 30
2.13962e-14
  70
    32
  0
VERTEX
  8
0
  5
14D98
 10
94.5878
 20
134.940
 30
2.13976e-14
  70
    32
  0
VERTEX
  8
0
  5
14D99
 10
94.5949
 20
134.939
 30
2.13991e-14
  70
    32
  0
VERTEX
  8
0
  5
14D9A
 10
94.6019
 20
134.937
 30
2.14005e-14
  70
    32
  0
VERTEX
  8
0
  5
14D9B
 10
94.6090
 20
134.935
 30
2.14019e-14
  70
    32
  0
VERTEX
  8
0
  5
14D9C
 10
94.6160
 20
134.933
 30
2.14033e-14
  70
    32
  0
VERTEX
  8
0
  5
14D9D
 10
94.6231
 20
134.931
 30
2.14047e-14
  70
    32
  0
VERTEX
  8
0
  5
14D9E
 10
94.6301
 20
134.930
 30
2.14061e-14
  70
    32
  0
VERTEX
  8
0
  5
14D9F
 10
94.6371
 20
134.928
 30
2.14075e-14
  70
    32
  0
VERTEX
  8
0
  5
14DA0
 10
94.6441
 20
134.926
 30
2.14089e-14
  70
    32
  0
VERTEX
  8
0
  5
14DA1
 10
94.6512
 20
134.924
 30
2.14103e-14
  70
    32
  0
VERTEX
  8
0
  5
14DA2
 10
94.6582
 20
134.922
 30
2.14117e-14
  70
    32
  0
VERTEX
  8
0
  5
14DA3
 10
94.6652
 20
134.920
 30
2.14131e-14
  70
    32
  0
VERTEX
  8
0
  5
14DA4
 10
94.6722
 20
134.918
 30
2.14145e-14
  70
    32
  0
VERTEX
  8
0
  5
14DA5
 10
94.6792
 20
134.916
 30
2.14159e-14
  70
    32
  0
VERTEX
  8
0
  5
14DA6
 10
94.6862
 20
134.914
 30
2.14173e-14
  70
    32
  0
VERTEX
  8
0
  5
14DA7
 10
94.6932
 20
134.912
 30
2.14187e-14
  70
    32
  0
VERTEX
  8
0
  5
14DA8
 10
94.7001
 20
134.909
 30
2.14201e-14
  70
    32
  0
VERTEX
  8
0
  5
14DA9
 10
94.7071
 20
134.907
 30
2.14215e-14
  70
    32
  0
VERTEX
  8
0
  5
14DAA
 10
94.7141
 20
134.905
 30
2.14229e-14
  70
    32
  0
VERTEX
  8
0
  5
14DAB
 10
94.7210
 20
134.903
 30
2.14243e-14
  70
    32
  0
VERTEX
  8
0
  5
14DAC
 10
94.7280
 20
134.901
 30
2.14257e-14
  70
    32
  0
VERTEX
  8
0
  5
14DAD
 10
94.7349
 20
134.898
 30
2.14271e-14
  70
    32
  0
VERTEX
  8
0
  5
14DAE
 10
94.7419
 20
134.896
 30
2.14285e-14
  70
    32
  0
VERTEX
  8
0
  5
14DAF
 10
94.7488
 20
134.894
 30
2.14298e-14
  70
    32
  0
VERTEX
  8
0
  5
14DB0
 10
94.7557
 20
134.891
 30
2.14312e-14
  70
    32
  0
VERTEX
  8
0
  5
14DB1
 10
94.7626
 20
134.889
 30
2.14326e-14
  70
    32
  0
VERTEX
  8
0
  5
14DB2
 10
94.7696
 20
134.887
 30
2.14340e-14
  70
    32
  0
VERTEX
  8
0
  5
14DB3
 10
94.7765
 20
134.884
 30
2.14354e-14
  70
    32
  0
VERTEX
  8
0
  5
14DB4
 10
94.7834
 20
134.882
 30
2.14368e-14
  70
    32
  0
VERTEX
  8
0
  5
14DB5
 10
94.7903
 20
134.879
 30
2.14381e-14
  70
    32
  0
VERTEX
  8
0
  5
14DB6
 10
94.7971
 20
134.877
 30
2.14395e-14
  70
    32
  0
VERTEX
  8
0
  5
14DB7
 10
94.8040
 20
134.874
 30
2.14409e-14
  70
    32
  0
VERTEX
  8
0
  5
14DB8
 10
94.8109
 20
134.872
 30
2.14423e-14
  70
    32
  0
VERTEX
  8
0
  5
14DB9
 10
94.8177
 20
134.869
 30
2.14436e-14
  70
    32
  0
VERTEX
  8
0
  5
14DBA
 10
94.8246
 20
134.867
 30
2.14450e-14
  70
    32
  0
VERTEX
  8
0
  5
14DBB
 10
94.8315
 20
134.864
 30
2.14464e-14
  70
    32
  0
VERTEX
  8
0
  5
14DBC
 10
94.8383
 20
134.862
 30
2.14477e-14
  70
    32
  0
VERTEX
  8
0
  5
14DBD
 10
94.8451
 20
134.859
 30
2.14491e-14
  70
    32
  0
VERTEX
  8
0
  5
14DBE
 10
94.8519
 20
134.856
 30
2.14505e-14
  70
    32
  0
VERTEX
  8
0
  5
14DBF
 10
94.8588
 20
134.854
 30
2.14518e-14
  70
    32
  0
VERTEX
  8
0
  5
14DC0
 10
94.8656
 20
134.851
 30
2.14532e-14
  70
    32
  0
VERTEX
  8
0
  5
14DC1
 10
94.8724
 20
134.848
 30
2.14546e-14
  70
    32
  0
VERTEX
  8
0
  5
14DC2
 10
94.8792
 20
134.845
 30
2.14559e-14
  70
    32
  0
VERTEX
  8
0
  5
14DC3
 10
94.8860
 20
134.842
 30
2.14573e-14
  70
    32
  0
VERTEX
  8
0
  5
14DC4
 10
94.8927
 20
134.840
 30
2.14586e-14
  70
    32
  0
VERTEX
  8
0
  5
14DC5
 10
94.8995
 20
134.837
 30
2.14600e-14
  70
    32
  0
VERTEX
  8
0
  5
14DC6
 10
94.9063
 20
134.834
 30
2.14613e-14
  70
    32
  0
VERTEX
  8
0
  5
14DC7
 10
94.9130
 20
134.831
 30
2.14627e-14
  70
    32
  0
VERTEX
  8
0
  5
14DC8
 10
94.9198
 20
134.828
 30
2.14640e-14
  70
    32
  0
VERTEX
  8
0
  5
14DC9
 10
94.9265
 20
134.825
 30
2.14654e-14
  70
    32
  0
VERTEX
  8
0
  5
14DCA
 10
94.9332
 20
134.822
 30
2.14667e-14
  70
    32
  0
VERTEX
  8
0
  5
14DCB
 10
94.9399
 20
134.819
 30
2.14681e-14
  70
    32
  0
VERTEX
  8
0
  5
14DCC
 10
94.9466
 20
134.816
 30
2.14694e-14
  70
    32
  0
VERTEX
  8
0
  5
14DCD
 10
94.9533
 20
134.813
 30
2.14708e-14
  70
    32
  0
VERTEX
  8
0
  5
14DCE
 10
94.9600
 20
134.810
 30
2.14721e-14
  70
    32
  0
VERTEX
  8
0
  5
14DCF
 10
94.9667
 20
134.807
 30
2.14734e-14
  70
    32
  0
VERTEX
  8
0
  5
14DD0
 10
94.9734
 20
134.804
 30
2.14748e-14
  70
    32
  0
VERTEX
  8
0
  5
14DD1
 10
94.9801
 20
134.801
 30
2.14761e-14
  70
    32
  0
VERTEX
  8
0
  5
14DD2
 10
94.9867
 20
134.798
 30
2.14774e-14
  70
    32
  0
VERTEX
  8
0
  5
14DD3
 10
94.9934
 20
134.794
 30
2.14788e-14
  70
    32
  0
VERTEX
  8
0
  5
14DD4
 10
95.0000
 20
134.791
 30
2.14801e-14
  70
    32
  0
SEQEND
  8
0
  5
14DD5
  0
POLYLINE
  5
14B08
  8
0
 10
94.9999999999975273
 20
132.499999999999801
 30
0.0000000000000215
 66
     1
 70
     8
  0
VERTEX
  8
0
  5
14DD6
 10
95.0000
 20
132.500
 30
2.14801e-14
  70
    32
  0
VERTEX
  8
0
  5
14DD7
 10
94.9999
 20
132.512
 30
2.14801e-14
  70
    32
  0
VERTEX
  8
0
  5
14DD8
 10
94.9997
 20
132.525
 30
2.14800e-14
  70
    32
  0
VERTEX
  8
0
  5
14DD9
 10
94.9994
 20
132.537
 30
2.14800e-14
  70
    32
  0
VERTEX
  8
0
  5
14DDA
 10
94.9989
 20
132.549
 30
2.14799e-14
  70
    32
  0
VERTEX
  8
0
  5
14DDB
 10
94.9983
 20
132.561
 30
2.14797e-14
  70
    32
  0
VERTEX
  8
0
  5
14DDC
 10
94.9976
 20
132.574
 30
2.14796e-14
  70
    32
  0
VERTEX
  8
0
  5
14DDD
 10
94.9967
 20
132.586
 30
2.14794e-14
  70
    32
  0
VERTEX
  8
0
  5
14DDE
 10
94.9957
 20
132.598
 30
2.14792e-14
  70
    32
  0
VERTEX
  8
0
  5
14DDF
 10
94.9945
 20
132.610
 30
2.14790e-14
  70
    32
  0
VERTEX
  8
0
  5
14DE0
 10
94.9932
 20
132.622
 30
2.14787e-14
  70
    32
  0
VERTEX
  8
0
  5
14DE1
 10
94.9918
 20
132.635
 30
2.14784e-14
  70
    32
  0
VERTEX
  8
0
  5
14DE2
 10
94.9903
 20
132.647
 30
2.14781e-14
  70
    32
  0
VERTEX
  8
0
  5
14DE3
 10
94.9886
 20
132.659
 30
2.14778e-14
  70
    32
  0
VERTEX
  8
0
  5
14DE4
 10
94.9867
 20
132.671
 30
2.14774e-14
  70
    32
  0
VERTEX
  8
0
  5
14DE5
 10
94.9848
 20
132.683
 30
2.14770e-14
  70
    32
  0
VERTEX
  8
0
  5
14DE6
 10
94.9827
 20
132.695
 30
2.14766e-14
  70
    32
  0
VERTEX
  8
0
  5
14DE7
 10
94.9805
 20
132.707
 30
2.14762e-14
  70
    32
  0
VERTEX
  8
0
  5
14DE8
 10
94.9781
 20
132.719
 30
2.14757e-14
  70
    32
  0
VERTEX
  8
0
  5
14DE9
 10
94.9756
 20
132.731
 30
2.14752e-14
  70
    32
  0
VERTEX
  8
0
  5
14DEA
 10
94.9730
 20
132.743
 30
2.14747e-14
  70
    32
  0
VERTEX
  8
0
  5
14DEB
 10
94.9703
 20
132.755
 30
2.14741e-14
  70
    32
  0
VERTEX
  8
0
  5
14DEC
 10
94.9674
 20
132.767
 30
2.14736e-14
  70
    32
  0
VERTEX
  8
0
  5
14DED
 10
94.9644
 20
132.779
 30
2.14730e-14
  70
    32
  0
VERTEX
  8
0
  5
14DEE
 10
94.9612
 20
132.790
 30
2.14723e-14
  70
    32
  0
VERTEX
  8
0
  5
14DEF
 10
94.9580
 20
132.802
 30
2.14717e-14
  70
    32
  0
VERTEX
  8
0
  5
14DF0
 10
94.9546
 20
132.814
 30
2.14710e-14
  70
    32
  0
VERTEX
  8
0
  5
14DF1
 10
94.9510
 20
132.825
 30
2.14703e-14
  70
    32
  0
VERTEX
  8
0
  5
14DF2
 10
94.9474
 20
132.837
 30
2.14696e-14
  70
    32
  0
VERTEX
  8
0
  5
14DF3
 10
94.9436
 20
132.848
 30
2.14688e-14
  70
    32
  0
VERTEX
  8
0
  5
14DF4
 10
94.9397
 20
132.860
 30
2.14680e-14
  70
    32
  0
VERTEX
  8
0
  5
14DF5
 10
94.9356
 20
132.871
 30
2.14672e-14
  70
    32
  0
VERTEX
  8
0
  5
14DF6
 10
94.9315
 20
132.883
 30
2.14664e-14
  70
    32
  0
VERTEX
  8
0
  5
14DF7
 10
94.9272
 20
132.894
 30
2.14655e-14
  70
    32
  0
VERTEX
  8
0
  5
14DF8
 10
94.9228
 20
132.905
 30
2.14646e-14
  70
    32
  0
VERTEX
  8
0
  5
14DF9
 10
94.9182
 20
132.916
 30
2.14637e-14
  70
    32
  0
VERTEX
  8
0
  5
14DFA
 10
94.9136
 20
132.928
 30
2.14628e-14
  70
    32
  0
VERTEX
  8
0
  5
14DFB
 10
94.9088
 20
132.939
 30
2.14618e-14
  70
    32
  0
VERTEX
  8
0
  5
14DFC
 10
94.9039
 20
132.950
 30
2.14609e-14
  70
    32
  0
VERTEX
  8
0
  5
14DFD
 10
94.8988
 20
132.961
 30
2.14598e-14
  70
    32
  0
VERTEX
  8
0
  5
14DFE
 10
94.8937
 20
132.971
 30
2.14588e-14
  70
    32
  0
VERTEX
  8
0
  5
14DFF
 10
94.8884
 20
132.982
 30
2.14578e-14
  70
    32
  0
VERTEX
  8
0
  5
14E00
 10
94.8830
 20
132.993
 30
2.14567e-14
  70
    32
  0
VERTEX
  8
0
  5
14E01
 10
94.8775
 20
133.004
 30
2.14556e-14
  70
    32
  0
VERTEX
  8
0
  5
14E02
 10
94.8719
 20
133.014
 30
2.14545e-14
  70
    32
  0
VERTEX
  8
0
  5
14E03
 10
94.8662
 20
133.025
 30
2.14533e-14
  70
    32
  0
VERTEX
  8
0
  5
14E04
 10
94.8603
 20
133.035
 30
2.14521e-14
  70
    32
  0
VERTEX
  8
0
  5
14E05
 10
94.8543
 20
133.045
 30
2.14509e-14
  70
    32
  0
VERTEX
  8
0
  5
14E06
 10
94.8483
 20
133.056
 30
2.14497e-14
  70
    32
  0
VERTEX
  8
0
  5
14E07
 10
94.8421
 20
133.066
 30
2.14485e-14
  70
    32
  0
VERTEX
  8
0
  5
14E08
 10
94.8358
 20
133.076
 30
2.14472e-14
  70
    32
  0
VERTEX
  8
0
  5
14E09
 10
94.8293
 20
133.086
 30
2.14459e-14
  70
    32
  0
VERTEX
  8
0
  5
14E0A
 10
94.8228
 20
133.096
 30
2.14446e-14
  70
    32
  0
VERTEX
  8
0
  5
14E0B
 10
94.8162
 20
133.106
 30
2.14433e-14
  70
    32
  0
VERTEX
  8
0
  5
14E0C
 10
94.8094
 20
133.115
 30
2.14420e-14
  70
    32
  0
VERTEX
  8
0
  5
14E0D
 10
94.8026
 20
133.125
 30
2.14406e-14
  70
    32
  0
VERTEX
  8
0
  5
14E0E
 10
94.7956
 20
133.134
 30
2.14392e-14
  70
    32
  0
VERTEX
  8
0
  5
14E0F
 10
94.7886
 20
133.144
 30
2.14378e-14
  70
    32
  0
VERTEX
  8
0
  5
14E10
 10
94.7814
 20
133.153
 30
2.14364e-14
  70
    32
  0
VERTEX
  8
0
  5
14E11
 10
94.7741
 20
133.162
 30
2.14349e-14
  70
    32
  0
VERTEX
  8
0
  5
14E12
 10
94.7668
 20
133.172
 30
2.14334e-14
  70
    32
  0
VERTEX
  8
0
  5
14E13
 10
94.7593
 20
133.181
 30
2.14319e-14
  70
    32
  0
VERTEX
  8
0
  5
14E14
 10
94.7517
 20
133.190
 30
2.14304e-14
  70
    32
  0
VERTEX
  8
0
  5
14E15
 10
94.7440
 20
133.198
 30
2.14289e-14
  70
    32
  0
VERTEX
  8
0
  5
14E16
 10
94.7363
 20
133.207
 30
2.14273e-14
  70
    32
  0
VERTEX
  8
0
  5
14E17
 10
94.7284
 20
133.216
 30
2.14258e-14
  70
    32
  0
VERTEX
  8
0
  5
14E18
 10
94.7205
 20
133.224
 30
2.14242e-14
  70
    32
  0
VERTEX
  8
0
  5
14E19
 10
94.7124
 20
133.233
 30
2.14226e-14
  70
    32
  0
VERTEX
  8
0
  5
14E1A
 10
94.7043
 20
133.241
 30
2.14209e-14
  70
    32
  0
VERTEX
  8
0
  5
14E1B
 10
94.6960
 20
133.249
 30
2.14193e-14
  70
    32
  0
VERTEX
  8
0
  5
14E1C
 10
94.6877
 20
133.257
 30
2.14176e-14
  70
    32
  0
VERTEX
  8
0
  5
14E1D
 10
94.6793
 20
133.265
 30
2.14159e-14
  70
    32
  0
VERTEX
  8
0
  5
14E1E
 10
94.6708
 20
133.273
 30
2.14142e-14
  70
    32
  0
VERTEX
  8
0
  5
14E1F
 10
94.6622
 20
133.281
 30
2.14125e-14
  70
    32
  0
VERTEX
  8
0
  5
14E20
 10
94.6536
 20
133.288
 30
2.14108e-14
  70
    32
  0
VERTEX
  8
0
  5
14E21
 10
94.6448
 20
133.296
 30
2.14090e-14
  70
    32
  0
VERTEX
  8
0
  5
14E22
 10
94.6360
 20
133.303
 30
2.14073e-14
  70
    32
  0
VERTEX
  8
0
  5
14E23
 10
94.6271
 20
133.310
 30
2.14055e-14
  70
    32
  0
VERTEX
  8
0
  5
14E24
 10
94.6181
 20
133.318
 30
2.14037e-14
  70
    32
  0
VERTEX
  8
0
  5
14E25
 10
94.6090
 20
133.325
 30
2.14019e-14
  70
    32
  0
VERTEX
  8
0
  5
14E26
 10
94.5998
 20
133.331
 30
2.14000e-14
  70
    32
  0
VERTEX
  8
0
  5
14E27
 10
94.5906
 20
133.338
 30
2.13982e-14
  70
    32
  0
VERTEX
  8
0
  5
14E28
 10
94.5813
 20
133.345
 30
2.13963e-14
  70
    32
  0
VERTEX
  8
0
  5
14E29
 10
94.5719
 20
133.351
 30
2.13945e-14
  70
    32
  0
VERTEX
  8
0
  5
14E2A
 10
94.5625
 20
133.358
 30
2.13926e-14
  70
    32
  0
VERTEX
  8
0
  5
14E2B
 10
94.5530
 20
133.364
 30
2.13907e-14
  70
    32
  0
VERTEX
  8
0
  5
14E2C
 10
94.5434
 20
133.370
 30
2.13888e-14
  70
    32
  0
VERTEX
  8
0
  5
14E2D
 10
94.5338
 20
133.376
 30
2.13868e-14
  70
    32
  0
VERTEX
  8
0
  5
14E2E
 10
94.5240
 20
133.382
 30
2.13849e-14
  70
    32
  0
VERTEX
  8
0
  5
14E2F
 10
94.5143
 20
133.388
 30
2.13829e-14
  70
    32
  0
VERTEX
  8
0
  5
14E30
 10
94.5044
 20
133.393
 30
2.13810e-14
  70
    32
  0
VERTEX
  8
0
  5
14E31
 10
94.4945
 20
133.399
 30
2.13790e-14
  70
    32
  0
VERTEX
  8
0
  5
14E32
 10
94.4846
 20
133.404
 30
2.13770e-14
  70
    32
  0
VERTEX
  8
0
  5
14E33
 10
94.4746
 20
133.409
 30
2.13750e-14
  70
    32
  0
VERTEX
  8
0
  5
14E34
 10
94.4645
 20
133.414
 30
2.13730e-14
  70
    32
  0
VERTEX
  8
0
  5
14E35
 10
94.4543
 20
133.419
 30
2.13710e-14
  70
    32
  0
VERTEX
  8
0
  5
14E36
 10
94.4442
 20
133.424
 30
2.13689e-14
  70
    32
  0
VERTEX
  8
0
  5
14E37
 10
94.4339
 20
133.429
 30
2.13669e-14
  70
    32
  0
VERTEX
  8
0
  5
14E38
 10
94.4236
 20
133.433
 30
2.13648e-14
  70
    32
  0
VERTEX
  8
0
  5
14E39
 10
94.4133
 20
133.437
 30
2.13627e-14
  70
    32
  0
VERTEX
  8
0
  5
14E3A
 10
94.4029
 20
133.442
 30
2.13607e-14
  70
    32
  0
VERTEX
  8
0
  5
14E3B
 10
94.3925
 20
133.446
 30
2.13586e-14
  70
    32
  0
VERTEX
  8
0
  5
14E3C
 10
94.3820
 20
133.450
 30
2.13565e-14
  70
    32
  0
VERTEX
  8
0
  5
14E3D
 10
94.3715
 20
133.453
 30
2.13544e-14
  70
    32
  0
VERTEX
  8
0
  5
14E3E
 10
94.3610
 20
133.457
 30
2.13523e-14
  70
    32
  0
VERTEX
  8
0
  5
14E3F
 10
94.3504
 20
133.460
 30
2.13502e-14
  70
    32
  0
VERTEX
  8
0
  5
14E40
 10
94.3397
 20
133.464
 30
2.13480e-14
  70
    32
  0
VERTEX
  8
0
  5
14E41
 10
94.3291
 20
133.467
 30
2.13459e-14
  70
    32
  0
VERTEX
  8
0
  5
14E42
 10
94.3184
 20
133.470
 30
2.13438e-14
  70
    32
  0
VERTEX
  8
0
  5
14E43
 10
94.3076
 20
133.473
 30
2.13416e-14
  70
    32
  0
VERTEX
  8
0
  5
14E44
 10
94.2969
 20
133.476
 30
2.13395e-14
  70
    32
  0
VERTEX
  8
0
  5
14E45
 10
94.2861
 20
133.478
 30
2.13373e-14
  70
    32
  0
VERTEX
  8
0
  5
14E46
 10
94.2753
 20
133.481
 30
2.13351e-14
  70
    32
  0
VERTEX
  8
0
  5
14E47
 10
94.2644
 20
133.483
 30
2.13330e-14
  70
    32
  0
VERTEX
  8
0
  5
14E48
 10
94.2535
 20
133.485
 30
2.13308e-14
  70
    32
  0
VERTEX
  8
0
  5
14E49
 10
94.2426
 20
133.487
 30
2.13286e-14
  70
    32
  0
VERTEX
  8
0
  5
14E4A
 10
94.2317
 20
133.489
 30
2.13264e-14
  70
    32
  0
VERTEX
  8
0
  5
14E4B
 10
94.2208
 20
133.491
 30
2.13242e-14
  70
    32
  0
VERTEX
  8
0
  5
14E4C
 10
94.2098
 20
133.492
 30
2.13220e-14
  70
    32
  0
VERTEX
  8
0
  5
14E4D
 10
94.1988
 20
133.494
 30
2.13198e-14
  70
    32
  0
VERTEX
  8
0
  5
14E4E
 10
94.1879
 20
133.495
 30
2.13177e-14
  70
    32
  0
VERTEX
  8
0
  5
14E4F
 10
94.1768
 20
133.496
 30
2.13155e-14
  70
    32
  0
VERTEX
  8
0
  5
14E50
 10
94.1658
 20
133.497
 30
2.13132e-14
  70
    32
  0
VERTEX
  8
0
  5
14E51
 10
94.1548
 20
133.498
 30
2.13110e-14
  70
    32
  0
VERTEX
  8
0
  5
14E52
 10
94.1438
 20
133.499
 30
2.13088e-14
  70
    32
  0
VERTEX
  8
0
  5
14E53
 10
94.1327
 20
133.499
 30
2.13066e-14
  70
    32
  0
VERTEX
  8
0
  5
14E54
 10
94.1217
 20
133.500
 30
2.13044e-14
  70
    32
  0
VERTEX
  8
0
  5
14E55
 10
94.1106
 20
133.500
 30
2.13022e-14
  70
    32
  0
VERTEX
  8
0
  5
14E56
 10
94.0996
 20
133.500
 30
2.13000e-14
  70
    32
  0
SEQEND
  8
0
  5
14E57
  0
LINE
  5
14B09
  8
0
 10
94.0995959556998969
 20
74.9999999999998437
 30
0.0000000000000213
 11
76.680693686603945
 21
74.9999999999998437
 31
0.0000000000000178
  0
LINE
  5
14B0A
  8
0
 10
94.0995959556998969
 20
76.4999999999998579
 30
0.0000000000000213
 11
76.680693686603945
 21
76.4999999999998579
 31
0.0000000000000178
  0
LINE
  5
14B0B
  8
0
 10
94.0995959556995558
 20
133.499999999999801
 30
0.0000000000000213
 11
76.680693686603945
 21
133.499999999999801
 31
0.0000000000000178
  0
LINE
  5
14B0C
  8
0
 10
94.0995959556995558
 20
134.999999999999801
 30
0.0000000000000213
 11
76.6806936866038313
 21
134.999999999999801
 31
0.0000000000000178
  0
LINE
  5
14B0D
  8
0
 10
-155.0000000000005969
 20
133.499999999999801
 30
-0.0000000000000355
 11
-155.0000000000005969
 21
76.4999999999998579
 31
-0.0000000000000355
  0
LINE
  5
14B0E
  8
0
 10
-154.2500000000003979
 20
133.499999999999801
 30
-0.0000000000000355
 11
-155.0000000000005969
 21
133.499999999999801
 31
-0.0000000000000357
  0
LINE
  5
14B0F
  8
0
 10
-154.2500000000003979
 20
76.4999999999998579
 30
-0.0000000000000355
 11
-155.0000000000005969
 21
76.4999999999998579
 31
-0.0000000000000357
  0
LINE
  5
14B10
  8
0
 10
-205.0000000000005969
 20
81.398634424984067
 30
-0.0000000000000444
 11
-205.0000000000005969
 21
128.601365575015592
 31
-0.0000000000000444
  0
ARC
  5
14B11
  8
0
 10
-198.4578196795918075
 20
95.9999999999990763
 30
-0.0000000000000444
 40
15.9999999999992593
 50
245.8651087923709042
 51
270.0
  0
ARC
  5
14B12
  8
0
 10
-198.4578196795916085
 20
113.9999999999999005
 30
-0.0000000000000444
 40
15.9999999999999805
 50
90.0000000000004832
 51
114.1348912076283995
  0
LINE
  5
14B13
  8
0
 10
-198.4578196795916938
 20
129.9999999999998863
 30
-0.0000000000000444
 11
-193.3670000000001892
 21
129.9999999999998863
 31
-0.0000000000000433
  0
LINE
  5
14B14
  8
0
 10
-198.4578196795918075
 20
79.999999999999801
 30
-0.0000000000000444
 11
-193.3670000000001892
 21
79.999999999999801
 31
-0.0000000000000433
  0
ARC
  5
14B15
  8
0
 10
-193.3679693214004089
 20
99.5029492537517513
 30
-0.0000000000000426
 40
19.5029492778402016
 50
270.0028476731623073
 51
288.193970598384908
  0
ARC
  5
14B16
  8
0
 10
-193.3679693214004089
 20
110.4970507462473961
 30
-0.0000000000000426
 40
19.5029492778407416
 50
71.8060294016155183
 51
89.9971523268376217
  0
ARC
  5
14B17
  8
0
 10
-184.000000000000199
 20
70.9999999999995168
 30
-0.0000000000000409
 40
10.5000000000002895
 50
90.0
 51
108.1939705983849933
  0
ARC
  5
14B18
  8
0
 10
-184.0000000000003126
 20
138.9999999999996021
 30
-0.0000000000000409
 40
10.4999999999997407
 50
251.8060294016140119
 51
270.0
  0
LINE
  5
14B19
  8
0
 10
-184.000000000000199
 20
128.4999999999998863
 30
-0.0000000000000409
 11
-179.8218253804965912
 21
128.4999999999998863
 31
-0.0000000000000399
  0
LINE
  5
14B1A
  8
0
 10
-184.000000000000199
 20
81.499999999999801
 30
-0.0000000000000409
 11
-179.8218253804965912
 21
81.499999999999801
 31
-0.0000000000000399
  0
ARC
  5
14B1B
  8
0
 10
-179.8218253804965912
 20
90.9999999999999147
 30
-0.0000000000000391
 40
9.5000000000001261
 50
270.0
 51
302.4617449672421117
  0
ARC
  5
14B1C
  8
0
 10
-179.8218253804967048
 20
118.9999999999997016
 30
-0.0000000000000391
 40
9.5000000000001705
 50
57.5382550327578599
 51
89.9999999999996732
  0
ARC
  5
14B1D
  8
0
 10
-171.2340433618379052
 20
77.500000000000199
 30
-0.0000000000000373
 40
6.499999999999595
 50
89.9999999999989768
 51
122.4617449672433054
  0
ARC
  5
14B1E
  8
0
 10
-171.2340433618377915
 20
132.499999999999801
 30
-0.0000000000000373
 40
6.4999999999999432
 50
237.5382550327578031
 51
270.0
  0
LINE
  5
14B1F
  8
0
 10
-171.2340433618377915
 20
125.9999999999999005
 30
-0.0000000000000373
 11
-155.0000000000005969
 21
125.9999999999999005
 31
-0.0000000000000337
  0
LINE
  5
14B20
  8
0
 10
-171.2340433618377915
 20
83.999999999999801
 30
-0.0000000000000373
 11
-155.0000000000005969
 21
83.999999999999801
 31
-0.0000000000000337
  0
LINE
  5
14B21
  8
0
  6
VERDECKT
 62
     1
 10
-100.7315201917650995
 20
133.499999999999801
 30
-0.0000000000000213
 11
-134.7063961030679025
 21
133.499999999999801
 31
-0.0000000000000284
  0
LINE
  5
14B22
  8
0
  6
VERDECKT
 62
     1
 10
-134.7063961030679025
 20
133.499999999999801
 30
-0.0000000000000284
 11
-135.4135028842545125
 21
133.499999999999801
 31
-0.0000000000000284
  0
LINE
  5
14B23
  8
0
  6
VERDECKT
 62
     1
 10
-153.4292893218814129
 20
134.249999999999801
 30
-0.0000000000000355
 11
-153.4292893218814129
 21
133.499999999999801
 31
-0.0000000000000355
  0
LINE
  5
14B24
  8
0
  6
VERDECKT
 62
     1
 10
-145.9300000000004047
 20
133.499999999999801
 30
-0.0000000000000355
 11
-153.4292893218814129
 21
133.499999999999801
 31
-0.0000000000000372
  0
LINE
  5
14B25
  8
0
  6
VERDECKT
 62
     1
 10
-135.4135028842545125
 20
133.499999999999801
 30
-0.0000000000000284
 11
-142.9300000000004047
 21
133.499999999999801
 31
-0.0000000000000301
  0
LINE
  5
14B26
  8
0
  6
VERDECKT
 62
     1
 10
-98.9637532387994412
 20
133.499999999999801
 30
-0.0000000000000213
 11
-100.731520191765199
 21
133.499999999999801
 31
-0.0000000000000213
  0
LINE
  5
14B27
  8
0
  6
VERDECKT
 62
     1
 10
72.964969559216911
 20
133.499999999999801
 30
0.000000000000016
 11
66.5655216185971312
 21
133.499999999999801
 31
0.0000000000000146
  0
LINE
  5
14B28
  8
0
  6
VERDECKT
 62
     1
 10
63.5655216185971312
 20
133.499999999999801
 30
0.0000000000000142
 11
-98.9637532387994412
 21
133.499999999999801
 31
-0.0000000000000215
  0
LINE
  5
14B29
  8
0
  6
VERDECKT
 62
     1
 10
-100.731520191765199
 20
76.4999999999998579
 30
-0.0000000000000213
 11
-98.9637532387994412
 21
76.4999999999998579
 31
-0.0000000000000213
  0
LINE
  5
14B2A
  8
0
  6
VERDECKT
 62
     1
 10
-135.4135028842545125
 20
76.4999999999998579
 30
-0.0000000000000284
 11
-142.9300000000004047
 21
76.4999999999998579
 31
-0.0000000000000301
  0
LINE
  5
14B2B
  8
0
  6
VERDECKT
 62
     1
 10
-145.9300000000004047
 20
76.4999999999998579
 30
-0.0000000000000355
 11
-153.4292893218814129
 21
76.4999999999998579
 31
-0.0000000000000372
  0
LINE
  5
14B2C
  8
0
  6
VERDECKT
 62
     1
 10
-153.4292893218814129
 20
76.4999999999998579
 30
-0.0000000000000355
 11
-153.4292893218814129
 21
75.7499999999998437
 31
-0.0000000000000355
  0
LINE
  5
14B2D
  8
0
  6
VERDECKT
 62
     1
 10
-135.4135028842545125
 20
76.4999999999998579
 30
-0.0000000000000284
 11
-134.7063961030679025
 21
76.4999999999998579
 31
-0.0000000000000284
  0
LINE
  5
14B2E
  8
0
  6
VERDECKT
 62
     1
 10
-100.7315201917647016
 20
76.4999999999998579
 30
-0.0000000000000213
 11
-134.7063961030677888
 21
76.4999999999998579
 31
-0.0000000000000284
  0
LINE
  5
14B2F
  8
0
  6
VERDECKT
 62
     1
 10
72.9649695592170247
 20
76.4999999999998579
 30
0.000000000000016
 11
66.5655216185971312
 21
76.4999999999998579
 31
0.0000000000000146
  0
LINE
  5
14B30
  8
0
  6
VERDECKT
 62
     1
 10
63.5655216185971312
 20
76.4999999999998579
 30
0.0000000000000142
 11
-98.9637532387994412
 21
76.4999999999998579
 31
-0.0000000000000215
  0
LINE
  5
14B31
  8
0
  6
VERDECKT
 62
     1
 10
-153.5000000000007105
 20
77.4999999999998437
 30
-0.0000000000000338
 11
-152.5000000000001137
 21
77.4999999999998437
 31
-0.0000000000000338
  0
LINE
  5
14B32
  8
0
  6
VERDECKT
 62
     1
 10
-152.5000000000001137
 20
132.499999999999801
 30
-0.0000000000000338
 11
-153.5000000000007105
 21
132.499999999999801
 31
-0.0000000000000338
  0
LINE
  5
14B33
  8
0
  6
VERDECKT
 62
     1
 10
-152.5000000000005116
 20
77.4999999999998437
 30
-0.0000000000000338
 11
-152.5000000000005116
 21
76.4999999999998437
 31
-0.0000000000000338
  0
LINE
  5
14B34
  8
0
  6
VERDECKT
 62
     1
 10
-153.5000000000005116
 20
77.4999999999998437
 30
-0.0000000000000338
 11
-155.0000000000005969
 21
77.4999999999998437
 31
-0.0000000000000341
  0
LINE
  5
14B35
  8
0
  6
VERDECKT
 62
     1
 10
-152.5000000000005116
 20
76.4999999999998579
 30
-0.0000000000000338
 11
-152.5000000000005116
 21
74.9999999999998437
 31
-0.0000000000000338
  0
LINE
  5
14B36
  8
0
  6
VERDECKT
 62
     1
 10
-152.5000000000007105
 20
132.4999999999998863
 30
-0.0000000000000338
 11
-152.5000000000007105
 21
133.4999999999998863
 31
-0.0000000000000338
  0
LINE
  5
14B37
  8
0
  6
VERDECKT
 62
     1
 10
-155.0000000000007105
 20
132.499999999999801
 30
-0.0000000000000338
 11
-153.5000000000007105
 21
132.499999999999801
 31
-0.0000000000000334
  0
LINE
  5
14B38
  8
0
  6
VERDECKT
 62
     1
 10
-152.5000000000007105
 20
134.999999999999801
 30
-0.0000000000000338
 11
-152.5000000000007105
 21
133.499999999999801
 31
-0.0000000000000338
  0
LINE
  5
14B39
  8
0
  6
VERDECKT
 62
     1
 10
-153.5000000000007105
 20
133.499999999999801
 30
-0.0000000000000355
 11
-154.2500000000003979
 21
133.499999999999801
 31
-0.0000000000000357
  0
LINE
  5
14B3A
  8
0
  6
VERDECKT
 62
     1
 10
-153.5000000000007105
 20
76.4999999999998579
 30
-0.0000000000000355
 11
-154.2500000000003979
 21
76.4999999999998579
 31
-0.0000000000000357
  0
LINE
  5
14B3B
  8
0
  6
VERDECKT
 62
     1
 10
-153.5000000000007105
 20
133.499999999999801
 30
-0.0000000000000355
 11
-153.5000000000007105
 21
76.4999999999998579
 31
-0.0000000000000355
  0
LINE
  5
14B3C
  8
0
  6
VERDECKT
 62
     1
 10
-153.5000000000005116
 20
84.9999999999998437
 30
-0.0000000000000338
 11
-155.0000000000005969
 21
84.9999999999998437
 31
-0.0000000000000341
  0
LINE
  5
14B3D
  8
0
  6
VERDECKT
 62
     1
 10
-153.5000000000005116
 20
124.999999999999801
 30
-0.0000000000000338
 11
-155.0000000000005969
 21
124.999999999999801
 31
-0.0000000000000341
  0
LINE
  5
14B3E
  8
0
  6
VERDECKT
 62
     1
 10
-204.5911137299750067
 20
82.3112197734225646
 30
-0.0000000000000444
 11
-204.5911137299750067
 21
127.6887802265770944
 31
-0.0000000000000444
  0
LINE
  5
14B3F
  8
0
  6
VERDECKT
 62
     1
 10
-171.2340433618377915
 20
124.9999999999999005
 30
-0.0000000000000373
 11
-155.0000000000005969
 21
124.9999999999999005
 31
-0.0000000000000337
  0
LINE
  5
14B40
  8
0
  6
VERDECKT
 62
     1
 10
-171.2340433618377915
 20
84.999999999999801
 30
-0.0000000000000373
 11
-155.0000000000005969
 21
84.999999999999801
 31
-0.0000000000000337
  0
ARC
  5
14B41
  8
0
  6
VERDECKT
 62
     1
 10
-171.2340433618377062
 20
77.4999999999998295
 30
-0.0000000000000373
 40
7.4999999999999938
 50
90.0000000000001847
 51
122.4617449672424954
  0
ARC
  5
14B42
  8
0
  6
VERDECKT
 62
     1
 10
-171.2340433618377062
 20
132.5
 30
-0.0000000000000373
 40
7.5000000000000977
 50
237.5382550327578883
 51
270.0
  0
ARC
  5
14B43
  8
0
  6
VERDECKT
 62
     1
 10
-179.8218253804967048
 20
91.0000000000002558
 30
-0.0000000000000391
 40
8.5000000000004494
 50
270.0000000000006253
 51
302.4617449672413727
  0
ARC
  5
14B44
  8
0
  6
VERDECKT
 62
     1
 10
-179.8218253804965912
 20
118.999999999999801
 30
-0.0000000000000391
 40
8.5000000000000995
 50
57.5382550327573412
 51
89.9999999999998153
  0
LINE
  5
14B45
  8
0
  6
VERDECKT
 62
     1
 10
-184.000000000000199
 20
127.4999999999999005
 30
-0.0000000000000409
 11
-179.8218253804965912
 21
127.4999999999999005
 31
-0.0000000000000399
  0
LINE
  5
14B46
  8
0
  6
VERDECKT
 62
     1
 10
-184.000000000000199
 20
82.499999999999801
 30
-0.0000000000000409
 11
-179.8218253804965912
 21
82.499999999999801
 31
-0.0000000000000399
  0
ARC
  5
14B47
  8
0
  6
VERDECKT
 62
     1
 10
-184.000000000000199
 20
70.9999999999992326
 30
-0.0000000000000409
 40
11.5000000000005596
 50
89.9999999999998437
 51
108.1939705983844959
  0
ARC
  5
14B48
  8
0
  6
VERDECKT
 62
     1
 10
-184.000000000000199
 20
139.0000000000005116
 30
-0.0000000000000409
 40
11.5000000000006501
 50
251.8060294016156035
 51
270.0
  0
ARC
  5
14B49
  8
0
  6
VERDECKT
 62
     1
 10
-193.3679693295335937
 20
99.5029492784980647
 30
-0.0000000000000426
 40
18.5029493038888013
 50
270.0030016020871244
 51
288.1939705983847944
  0
ARC
  5
14B4A
  8
0
  6
VERDECKT
 62
     1
 10
-193.3679693295337927
 20
110.4970507215005
 30
-0.0000000000000426
 40
18.5029493038898991
 50
71.806029401615703
 51
89.996998397912364
  0
LINE
  5
14B4B
  8
0
  6
VERDECKT
 62
     1
 10
-198.4578196795918927
 20
128.9999999999998863
 30
-0.0000000000000444
 11
-193.3670000000001892
 21
128.9999999999998863
 31
-0.0000000000000433
  0
LINE
  5
14B4C
  8
0
  6
VERDECKT
 62
     1
 10
-198.4578196795918927
 20
80.9999999999998295
 30
-0.0000000000000444
 11
-193.3670000000001892
 21
80.9999999999998295
 31
-0.0000000000000433
  0
ARC
  5
14B4D
  8
0
  6
VERDECKT
 62
     1
 10
-198.4578196795918927
 20
95.9999999999994458
 30
-0.0000000000000444
 40
14.9999999999995897
 50
245.8651087923720127
 51
270.0
  0
ARC
  5
14B4E
  8
0
  6
VERDECKT
 62
     1
 10
-198.4578196795918927
 20
114.000000000000199
 30
-0.0000000000000444
 40
14.9999999999996696
 50
90.0000000000000995
 51
114.1348912076282005
  0
LINE
  5
14B4F
  8
0
  6
VERDECKT
 62
     1
 10
-204.5911137299750067
 20
82.3112197734225788
 30
-0.0000000000000444
 11
-205.0000000000005969
 21
81.398634424984067
 31
-0.0000000000000445
  0
LINE
  5
14B50
  8
0
  6
VERDECKT
 62
     1
 10
-204.5911137299750067
 20
127.6887802265770944
 30
-0.0000000000000444
 11
-205.0000000000005969
 21
128.601365575015592
 31
-0.0000000000000445
  0
ENDBLK
  5
14B52
  8
0
  0
BLOCK
  8
0
  2
A$CBCC355CA
 70
     0
 10
0.0
 20
0.0
 30
0.0
  3
A$CBCC355CA
  1

  0
LINE
  5
14B56
  8
0
 10
-145.9300000000004047
 20
43.3120000000001184
 30
-0.0000000000000096
 11
-145.9300000000004047
 21
44.8119999999999976
 31
-0.00000000000001
210
0.0
220
1.0
230
-0.0000000000000002
  0
LINE
  5
14B57
  8
0
 10
-145.9300000000004047
 20
44.8119999999999976
 30
-0.00000000000001
 11
-145.4292893218812992
 21
44.8119999999999905
 31
-0.00000000000001
210
0.0
220
1.0
230
-0.0000000000000002
  0
LINE
  5
14B58
  8
0
 10
-143.4292893218812992
 20
44.8119999999999479
 30
-0.00000000000001
 11
-142.9300000000004047
 21
44.8119999999999408
 31
-0.00000000000001
210
0.0
220
1.0
230
-0.0000000000000002
  0
LINE
  5
14B59
  8
0
 10
-142.9300000000004047
 20
44.8119999999999408
 30
-0.00000000000001
 11
-142.9300000000004047
 21
43.3120000000001184
 31
-0.0000000000000096
210
0.0
220
1.0
230
-0.0000000000000002
  0
LINE
  5
14B5A
  8
0
 10
-145.9300000000004047
 20
44.8119999999999976
 30
-0.00000000000001
 11
-154.2500000000003979
 21
44.8120000000001397
 31
-0.00000000000001
210
0.0
220
1.0
230
-0.0000000000000002
  0
LINE
  5
14B5B
  8
0
 10
-154.2500000000003979
 20
44.8120000000001397
 30
-0.00000000000001
 11
-154.2500000000005116
 21
43.3120000000001397
 31
-0.0000000000000096
210
0.0
220
1.0
230
-0.0000000000000002
  0
LINE
  5
14B5C
  8
0
 10
-154.2500000000005116
 20
43.3120000000001397
 30
-0.0000000000000096
 11
-153.4292893218814129
 21
43.3120000000001184
 31
-0.0000000000000096
210
0.0
220
1.0
230
-0.0000000000000002
  0
ARC
  5
14B5D
  8
0
 10
98.9637532387989154
 20
10.8119978228495999
 30
0.0
 40
0.9999999999998151
210
0.0
220
-0.0000000000000002
230
-1.0
 50
270.0
 51
314.9999999999881766
  0
LINE
  5
14B5E
  8
0
 10
-99.6708600199853123
 20
10.1048910416631692
 30
-0.0000000000000022
 11
-133.6457359312881863
 21
44.0797669529663025
 31
-0.0000000000000098
210
0.0
220
1.0
230
-0.0000000000000002
  0
ARC
  5
14B5F
  8
0
 10
-135.4135028842545978
 20
42.3119999999993084
 30
-0.0000000000000094
 40
2.5000000000004881
 50
45.0000000000089031
 51
89.9999999999973994
  0
LINE
  5
14B60
  8
0
 10
-135.4135028842545125
 20
44.8119999999997916
 30
-0.00000000000001
 11
-142.9300000000004047
 21
44.8119999999999266
 31
-0.00000000000001
210
0.0
220
1.0
230
-0.0000000000000002
  0
LINE
  5
14B61
  8
0
 10
72.9649695592161152
 20
8.3119978228497846
 30
-0.0000000000000018
 11
72.9649695592161152
 21
9.8119978228497846
 31
-0.0000000000000022
210
0.0
220
1.0
230
-0.0000000000000002
  0
LINE
  5
14B62
  8
0
 10
66.5655216185971312
 20
9.8119978228497846
 30
-0.0000000000000022
 11
66.5655216185971312
 21
8.3119978228499978
 31
-0.0000000000000018
210
0.0
220
1.0
230
-0.0000000000000002
  0
LINE
  5
14B63
  8
0
 10
72.9649695592161152
 20
9.8119978228497846
 30
-0.0000000000000022
 11
66.5655216185971312
 21
9.8119978228497846
 31
-0.0000000000000022
210
0.0
220
1.0
230
-0.0000000000000002
  0
LINE
  5
14B64
  8
0
 10
63.5655216185971312
 20
8.3119978228499978
 30
-0.0000000000000018
 11
63.5655216185971312
 21
9.8119978228497846
 31
-0.0000000000000022
210
0.0
220
1.0
230
-0.0000000000000002
  0
LINE
  5
14B65
  8
0
 10
63.5655216185971312
 20
9.8119978228497846
 30
-0.0000000000000022
 11
64.0655216185971312
 21
9.8119978228497846
 31
-0.0000000000000022
210
0.0
220
1.0
230
-0.0000000000000002
  0
LINE
  5
14B66
  8
0
 10
66.0655216185971312
 20
9.8119978228497846
 30
-0.0000000000000022
 11
66.5655216185971312
 21
9.8119978228497846
 31
-0.0000000000000022
210
0.0
220
1.0
230
-0.0000000000000002
  0
LINE
  5
14B67
  8
0
 10
63.5655216185971312
 20
9.8119978228497917
 30
-0.0000000000000022
 11
-98.9637532387990859
 21
9.8119978228497917
 31
-0.0000000000000022
210
0.0
220
1.0
230
-0.0000000000000002
  0
ARC
  5
14B68
  8
0
 10
98.9637532387987449
 20
10.8119978228498894
 30
0.0
 40
2.5000000000001128
210
0.0
220
-0.0000000000000002
230
-1.0
 50
270.0
 51
314.9999999999844249
  0
LINE
  5
14B69
  8
0
 10
-135.4135028842545125
 20
43.3120000000000118
 30
-0.0000000000000096
 11
-143.4292893218812992
 21
43.3120000000000118
 31
-0.0000000000000096
210
0.0
220
1.0
230
-0.0000000000000002
  0
LINE
  5
14B6A
  8
0
 10
-145.4292893218812992
 20
43.3120000000000118
 30
-0.0000000000000096
 11
-153.4292893218814129
 21
43.3120000000000118
 31
-0.0000000000000096
210
0.0
220
1.0
230
-0.0000000000000002
  0
LINE
  5
14B6B
  8
0
 10
-145.4292893218812992
 20
45.3120000000000118
 30
-0.0000000000000101
 11
-145.4292893218812992
 21
43.3120000000000118
 31
-0.0000000000000096
210
0.0
220
1.0
230
-0.0000000000000002
  0
LINE
  5
14B6C
  8
0
 10
-143.4292893218812992
 20
45.3120000000000118
 30
-0.0000000000000101
 11
-145.4292893218812992
 21
45.3120000000000118
 31
-0.0000000000000101
210
0.0
220
1.0
230
-0.0000000000000002
  0
LINE
  5
14B6D
  8
0
 10
-143.4292893218812992
 20
43.3120000000000118
 30
-0.0000000000000096
 11
-143.4292893218812992
 21
45.3120000000000118
 31
-0.0000000000000101
210
0.0
220
1.0
230
-0.0000000000000002
  0
ARC
  5
14B6E
  8
0
 10
135.4135028842547115
 20
42.3119999999993297
 30
0.0
 40
1.0000000000006819
210
0.0
220
-0.0000000000000002
230
-1.0
 50
90.0000000000130314
 51
134.9999999999816112
  0
LINE
  5
14B6F
  8
0
 10
-100.7315201917647016
 20
9.0442308698834513
 30
-0.000000000000002
 11
-134.7063961030677888
 21
43.0191067811865722
 31
-0.0000000000000096
210
0.0
220
1.0
230
-0.0000000000000002
  0
LINE
  5
14B70
  8
0
 10
64.0655216185971312
 20
10.3119978228499996
 30
-0.0000000000000023
 11
64.0655216185971312
 21
8.3119978228500049
 31
-0.0000000000000018
210
0.0
220
1.0
230
-0.0000000000000002
  0
LINE
  5
14B71
  8
0
 10
66.0655216185971312
 20
10.3119978228499996
 30
-0.0000000000000023
 11
64.0655216185971312
 21
10.3119978228499996
 31
-0.0000000000000023
210
0.0
220
1.0
230
-0.0000000000000002
  0
LINE
  5
14B72
  8
0
 10
66.0655216185971312
 20
8.3119978228500049
 30
-0.0000000000000018
 11
66.0655216185971312
 21
10.3119978228499996
 31
-0.0000000000000023
210
0.0
220
1.0
230
-0.0000000000000002
  0
LINE
  5
14B73
  8
0
 10
72.9649695592170247
 20
8.3119978228500049
 30
-0.0000000000000018
 11
66.0655216185971312
 21
8.3119978228500049
 31
-0.0000000000000018
210
0.0
220
1.0
230
-0.0000000000000002
  0
ARC
  5
14B74
  8
0
 10
72.9649695592171383
 20
3.3119978228502309
 30
-0.0000000000000007
 40
4.9999999999997398
 50
41.999999999999531
 51
90.0000000000013358
  0
LINE
  5
14B75
  8
0
 10
64.0655216185971312
 20
8.3119978228500049
 30
-0.0000000000000018
 11
-98.9637532387994412
 21
8.3119978228500049
 31
-0.0000000000000018
210
0.0
220
1.0
230
-0.0000000000000002
  0
LINE
  5
14B76
  8
0
 10
-152.500000000000199
 20
-15.18799999999999
 30
0.0000000000000034
 11
94.9999999999996589
 21
-15.18799999999999
 31
0.0000000000000034
210
0.0
220
1.0
230
-0.0000000000000002
  0
ARC
  5
14B77
  8
0
 10
152.5000000000001137
 20
-12.6879999999996507
 30
0.0
 40
2.5000000000004539
210
0.0
220
-0.0000000000000002
230
-1.0
 50
270.0
 51
359.999999999989484
  0
LINE
  5
14B78
  8
0
 10
94.9999999999996589
 20
-13.6879999999999793
 30
0.000000000000003
 11
94.9999999999996589
 21
-15.18799999999999
 31
0.0000000000000034
210
0.0
220
1.0
230
-0.0000000000000002
  0
ARC
  5
14B79
  8
0
 10
-152.500000000000199
 20
-12.6879999999994197
 30
0.0000000000000028
 40
1.0000000000004541
 50
180.000000000032486
 51
270.0000000000064801
  0
LINE
  5
14B7A
  8
0
 10
-152.5000000000005116
 20
-15.1880000000000592
 30
0.0000000000000034
 11
-152.5000000000005116
 21
-12.68799999999999
 31
0.0000000000000028
210
0.0
220
1.0
230
-0.0000000000000002
  0
LINE
  5
14B7B
  8
0
 10
94.0995959556998969
 20
-12.68799999999999
 30
0.0000000000000028
 11
94.9999999999985221
 21
-13.6880000000008408
 31
0.000000000000003
210
0.0
220
1.0
230
-0.0000000000000002
  0
LINE
  5
14B7C
  8
0
 10
-155.0000000000005969
 20
-12.68799999999999
 30
0.0000000000000028
 11
-153.5000000000007105
 21
-12.68799999999999
 31
0.0000000000000028
210
0.0
220
1.0
230
-0.0000000000000002
  0
LINE
  5
14B7D
  8
0
 10
-153.4292893218812992
 20
-12.68799999999999
 30
0.0000000000000028
 11
-152.5000000000005116
 21
-12.68799999999999
 31
0.0000000000000028
210
0.0
220
1.0
230
-0.0000000000000002
  0
LINE
  5
14B7E
  8
0
 10
94.0995959556998969
 20
-12.68799999999999
 30
0.0000000000000028
 11
76.680693686603945
 21
6.6576508546443183
 31
-0.0000000000000015
210
0.0
220
1.0
230
-0.0000000000000002
  0
LINE
  5
14B7F
  8
0
 10
-153.4292893218814129
 20
43.3120000000000118
 30
-0.0000000000000096
 11
-153.4292893218814129
 21
-12.68799999999999
 31
0.0000000000000028
210
0.0
220
1.0
230
-0.0000000000000002
  0
LINE
  5
14B80
  8
0
 10
-155.0000000000005969
 20
43.3120000000001326
 30
-0.0000000000000096
 11
-155.0000000000005969
 21
-12.6879999999995299
 31
0.0000000000000028
210
0.0
220
1.0
230
-0.0000000000000002
  0
LINE
  5
14B81
  8
0
 10
-153.5000000000005116
 20
-12.6879999999996507
 30
0.0000000000000028
 11
-153.5000000000007105
 21
43.3120000000001326
 31
-0.0000000000000096
210
0.0
220
1.0
230
-0.0000000000000002
  0
LINE
  5
14B82
  8
0
 10
-154.2500000000005116
 20
43.3120000000001326
 30
-0.0000000000000096
 11
-155.0000000000005969
 21
43.3120000000001326
 31
-0.0000000000000096
210
0.0
220
1.0
230
-0.0000000000000002
  0
LINE
  5
14B83
  8
0
 10
-205.0000000000005969
 20
-8.7893655750157791
 30
0.000000000000002
 11
-205.0000000000005969
 21
14.8119999999999994
 31
-0.0000000000000033
210
0.0
220
1.0
230
-0.0000000000000002
  0
LINE
  5
14B84
  8
0
 10
-205.0000000000005969
 20
14.81200000000001
 30
-0.0000000000000033
 11
-205.0000000000005969
 21
38.4133655750158027
 31
-0.0000000000000085
210
0.0
220
1.0
230
-0.0000000000000002
  0
ARC
  5
14B85
  8
0
 10
198.4578196795918075
 20
5.8119999999991991
 30
0.0
 40
15.9999999999992504
210
0.0
220
-0.0000000000000002
230
-1.0
 50
270.0
 51
294.1348912076290958
  0
ARC
  5
14B86
  8
0
 10
198.4578196795918075
 20
23.812000000000701
 30
0.0
 40
15.9999999999993694
210
0.0
220
-0.0000000000000002
230
-1.0
 50
65.8651087923710463
 51
89.9999999999999147
  0
LINE
  5
14B87
  8
0
 10
-198.4578196795916938
 20
39.8120000000000687
 30
-0.0000000000000088
 11
-193.3670000000001892
 21
39.8120000000000687
 31
-0.0000000000000088
210
0.0
220
1.0
230
-0.0000000000000002
  0
LINE
  5
14B88
  8
0
 10
-198.4578196795916938
 20
-10.1880000000000503
 30
0.0000000000000023
 11
-193.3670000000001892
 21
-10.1880000000000503
 31
0.0000000000000023
210
0.0
220
1.0
230
-0.0000000000000002
  0
ARC
  5
14B89
  8
0
 10
193.3679693214004089
 20
9.3149492537517737
 30
0.0
 40
19.5029492778400808
210
0.0
220
-0.0000000000000002
230
-1.0
 50
251.806029401615092
 51
269.9971523268378064
  0
ARC
  5
14B8A
  8
0
 10
193.3679693214004089
 20
20.3090507462481007
 30
0.0
 40
19.5029492778402087
210
0.0
220
-0.0000000000000002
230
-1.0
 50
90.0028476731622646
 51
108.1939705983847944
  0
ARC
  5
14B8B
  8
0
 10
184.0000000000003126
 20
-19.1880000000002795
 30
0.0
 40
10.5000000000002203
210
0.0
220
-0.0000000000000002
230
-1.0
 50
71.8060294016150067
 51
90.0000000000001705
  0
ARC
  5
14B8C
  8
0
 10
184.000000000000199
 20
48.8120000000003671
 30
0.0
 40
10.5000000000002895
210
0.0
220
-0.0000000000000002
230
-1.0
 50
270.0
 51
288.1939705983850217
  0
LINE
  5
14B8D
  8
0
 10
-184.000000000000199
 20
38.3120000000000687
 30
-0.0000000000000085
 11
-179.8218253804965912
 21
38.3120000000000687
 31
-0.0000000000000085
210
0.0
220
1.0
230
-0.0000000000000002
  0
LINE
  5
14B8E
  8
0
 10
-184.000000000000199
 20
-8.6880000000000557
 30
0.0000000000000019
 11
-179.8218253804965912
 21
-8.6880000000000557
 31
0.0000000000000019
210
0.0
220
1.0
230
-0.0000000000000002
  0
ARC
  5
14B8F
  8
0
 10
179.8218253804965912
 20
0.8120000000000279
 30
0.0
 40
9.5000000000000764
210
0.0
220
-0.0000000000000002
230
-1.0
 50
237.5382550327578031
 51
270.0
  0
ARC
  5
14B90
  8
0
 10
179.8218253804965912
 20
28.8120000000000687
 30
0.0
 40
9.5
210
0.0
220
-0.0000000000000002
230
-1.0
 50
90.0
 51
122.4617449672423959
  0
ARC
  5
14B91
  8
0
 10
171.2340433618377062
 20
-12.6880000000000894
 30
0.0
 40
6.5000000000000338
210
0.0
220
-0.0000000000000002
230
-1.0
 50
57.538255032758002
 51
89.9999999999997584
  0
ARC
  5
14B92
  8
0
 10
171.2340433618377062
 20
42.3120000000000971
 30
0.0
 40
6.5000000000000338
210
0.0
220
-0.0000000000000002
230
-1.0
 50
270.0
 51
302.4617449672417138
  0
LINE
  5
14B93
  8
0
 10
-171.2340433618377915
 20
35.8120000000000687
 30
-0.000000000000008
 11
-155.0000000000005969
 21
35.8120000000000687
 31
-0.000000000000008
210
0.0
220
1.0
230
-0.0000000000000002
  0
LINE
  5
14B94
  8
0
 10
-171.2340433618377915
 20
-6.1880000000000548
 30
0.0000000000000014
 11
-155.0000000000005969
 21
-6.1880000000000548
 31
0.0000000000000014
210
0.0
220
1.0
230
-0.0000000000000002
  0
LINE
  5
14B95
  8
0
  6
VERDECKT
 62
     1
 10
-145.4292893218812992
 20
44.8119999999999905
 30
-0.00000000000001
 11
-143.4292893218812992
 21
44.8119999999999479
 31
-0.00000000000001
210
0.0
220
1.0
230
-0.0000000000000002
  0
LINE
  5
14B96
  8
0
  6
VERDECKT
 62
     1
 10
-143.4292893218812992
 20
43.3119999999999479
 30
-0.0000000000000096
 11
-145.4292893218812992
 21
43.3119999999999905
 31
-0.0000000000000096
210
0.0
220
1.0
230
-0.0000000000000002
  0
LINE
  5
14B97
  8
0
  6
VERDECKT
 62
     1
 10
64.0655216185971312
 20
9.8119978228497846
 30
-0.0000000000000022
 11
66.0655216185971312
 21
9.8119978228497846
 31
-0.0000000000000022
210
0.0
220
1.0
230
-0.0000000000000002
  0
LINE
  5
14B98
  8
0
  6
VERDECKT
 62
     1
 10
66.0655216185971312
 20
8.3119978228497846
 30
-0.0000000000000018
 11
64.0655216185971312
 21
8.3119978228497846
 31
-0.0000000000000018
210
0.0
220
1.0
230
-0.0000000000000002
  0
LINE
  5
14B99
  8
0
  6
VERDECKT
 62
     1
 10
94.9999999999996589
 20
-13.68799999999999
 30
0.000000000000003
 11
-152.5000000000001137
 21
-13.68799999999999
 31
0.000000000000003
210
0.0
220
1.0
230
-0.0000000000000002
  0
LINE
  5
14B9A
  8
0
  6
VERDECKT
 62
     1
 10
-153.5000000000005116
 20
-5.1879999999999891
 30
0.0000000000000012
 11
-155.0000000000005969
 21
-5.1879999999999891
 31
0.0000000000000012
210
0.0
220
1.0
230
-0.0000000000000002
  0
LINE
  5
14B9B
  8
0
  6
VERDECKT
 62
     1
 10
-153.5000000000005969
 20
34.8120000000000189
 30
-0.0000000000000077
 11
-155.0000000000005969
 21
34.8120000000000189
 31
-0.0000000000000077
210
0.0
220
1.0
230
-0.0000000000000002
  0
LINE
  5
14B9C
  8
0
  6
VERDECKT
 62
     1
 10
-204.5911137299750067
 20
-7.876780226577285
 30
0.0000000000000017
 11
-204.5911137299750067
 21
14.8119999999999994
 31
-0.0000000000000033
210
0.0
220
1.0
230
-0.0000000000000002
  0
LINE
  5
14B9D
  8
0
  6
VERDECKT
 62
     1
 10
-204.5911137299750067
 20
14.81200000000001
 30
-0.0000000000000033
 11
-204.5911137299750067
 21
37.500780226577298
 31
-0.0000000000000083
210
0.0
220
1.0
230
-0.0000000000000002
  0
LINE
  5
14B9E
  8
0
  6
VERDECKT
 62
     1
 10
-171.2340433618377915
 20
34.8120000000000687
 30
-0.0000000000000077
 11
-155.0000000000005969
 21
34.8120000000000687
 31
-0.0000000000000077
210
0.0
220
1.0
230
-0.0000000000000002
  0
LINE
  5
14B9F
  8
0
  6
VERDECKT
 62
     1
 10
-171.2340433618377915
 20
-5.1880000000000539
 30
0.0000000000000012
 11
-155.0000000000005969
 21
-5.1880000000000539
 31
0.0000000000000012
210
0.0
220
1.0
230
-0.0000000000000002
  0
ARC
  5
14BA0
  8
0
  6
VERDECKT
 62
     1
 10
171.2340433618377915
 20
-12.6880000000000095
 30
0.0
 40
7.4999999999999591
210
0.0
220
-0.0000000000000002
230
-1.0
 50
57.538255032757327
 51
90.0
  0
ARC
  5
14BA1
  8
0
  6
VERDECKT
 62
     1
 10
171.2340433618377915
 20
42.31200000000009
 30
0.0
 40
7.5000000000000204
210
0.0
220
-0.0000000000000002
230
-1.0
 50
270.0
 51
302.4617449672423959
  0
ARC
  5
14BA2
  8
0
  6
VERDECKT
 62
     1
 10
179.8218253804965912
 20
0.8120000000000483
 30
0.0
 40
8.5000000000001155
210
0.0
220
-0.0000000000000002
230
-1.0
 50
237.5382550327572915
 51
269.9999999999997726
  0
ARC
  5
14BA3
  8
0
  6
VERDECKT
 62
     1
 10
179.8218253804965912
 20
28.8119999999998804
 30
0.0
 40
8.5000000000001847
210
0.0
220
-0.0000000000000002
230
-1.0
 50
90.0000000000001847
 51
122.4617449672422964
  0
LINE
  5
14BA4
  8
0
  6
VERDECKT
 62
     1
 10
-184.000000000000199
 20
37.3120000000000687
 30
-0.0000000000000083
 11
-179.8218253804965912
 21
37.3120000000000687
 31
-0.0000000000000083
210
0.0
220
1.0
230
-0.0000000000000002
  0
LINE
  5
14BA5
  8
0
  6
VERDECKT
 62
     1
 10
-184.000000000000199
 20
-7.6880000000000548
 30
0.0000000000000017
 11
-179.8218253804965912
 21
-7.6880000000000548
 31
0.0000000000000017
210
0.0
220
1.0
230
-0.0000000000000002
  0
ARC
  5
14BA6
  8
0
  6
VERDECKT
 62
     1
 10
184.000000000000199
 20
-19.1880000000009012
 30
0.0
 40
11.5000000000008509
210
0.0
220
-0.0000000000000002
230
-1.0
 50
71.8060294016157457
 51
89.9999999999998721
  0
ARC
  5
14BA7
  8
0
  6
VERDECKT
 62
     1
 10
184.000000000000199
 20
48.8120000000009924
 30
0.0
 40
11.5000000000009095
210
0.0
220
-0.0000000000000002
230
-1.0
 50
270.0
 51
288.1939705983839985
  0
ARC
  5
14BA8
  8
0
  6
VERDECKT
 62
     1
 10
193.3679693295335937
 20
9.3149492784980552
 30
0.0
 40
18.5029493038886415
210
0.0
220
-0.0000000000000002
230
-1.0
 50
251.8060294016152056
 51
269.996998397913103
  0
ARC
  5
14BA9
  8
0
  6
VERDECKT
 62
     1
 10
193.3679693295335937
 20
20.3090507215018086
 30
0.0
 40
18.50294930388878
210
0.0
220
-0.0000000000000002
230
-1.0
 50
90.0030016020869539
 51
108.1939705983846949
  0
LINE
  5
14BAA
  8
0
  6
VERDECKT
 62
     1
 10
-198.4578196795918927
 20
38.8120000000000402
 30
-0.0000000000000086
 11
-193.3670000000001892
 21
38.8120000000000402
 31
-0.0000000000000086
210
0.0
220
1.0
230
-0.0000000000000002
  0
LINE
  5
14BAB
  8
0
  6
VERDECKT
 62
     1
 10
-198.4578196795918927
 20
-9.1880000000000273
 30
0.000000000000002
 11
-193.3670000000001892
 21
-9.1880000000000273
 31
0.000000000000002
210
0.0
220
1.0
230
-0.0000000000000002
  0
ARC
  5
14BAC
  8
0
  6
VERDECKT
 62
     1
 10
198.4578196795918075
 20
5.8120000000001211
 30
0.0
 40
15.0000000000001101
210
0.0
220
-0.0000000000000002
230
-1.0
 50
270.0
 51
294.1348912076273905
  0
ARC
  5
14BAD
  8
0
  6
VERDECKT
 62
     1
 10
198.4578196795918075
 20
23.8119999999998484
 30
0.0
 40
15.0000000000001492
210
0.0
220
-0.0000000000000002
230
-1.0
 50
65.8651087923721406
 51
89.99999999999946
  0
LINE
  5
14BAE
  8
0
  6
VERDECKT
 62
     1
 10
-204.5911137299750067
 20
-7.8767802265772939
 30
0.0000000000000017
 11
-205.0000000000005969
 21
-8.7893655750157755
 31
0.000000000000002
210
0.0
220
1.0
230
-0.0000000000000002
  0
LINE
  5
14BAF
  8
0
  6
VERDECKT
 62
     1
 10
-204.5911137299750067
 20
37.5007802265773122
 30
-0.0000000000000083
 11
-205.0000000000005969
 21
38.4133655750157885
 31
-0.0000000000000085
210
0.0
220
1.0
230
-0.0000000000000002
  0
ENDBLK
  5
14BB1
  8
0
  0
BLOCK
  8
0
  2
A$CF63AADA7
 70
     0
 10
0.0
 20
0.0
 30
0.0
  3
A$CF63AADA7
  1

  0
LINE
  5
14BB5
  8
0
 10
-134.2499999999998863
 20
44.8120000000001113
 30
-0.00000000000001
 11
-134.2499999999998863
 21
43.3120000000001184
 31
-0.0000000000000096
210
-0.0000000000000002
220
1.0
230
-0.0000000000000002
  0
LINE
  5
14BB6
  8
0
 10
-75.7499999999998863
 20
44.8120000000001397
 30
-0.00000000000001
 11
-75.7499999999998863
 21
43.3120000000001397
 31
-0.0000000000000096
210
-0.0000000000000002
220
1.0
230
-0.0000000000000002
  0
LINE
  5
14BB7
  8
0
 10
-123.914279571187393
 20
8.3119978228497384
 30
-0.0000000000000018
 11
-86.085720428812337
 21
8.3119978228497473
 31
-0.0000000000000018
210
-0.0000000000000002
220
1.0
230
-0.0000000000000002
  0
LINE
  5
14BB8
  8
0
 10
-134.2499999999998863
 20
43.3120000000001184
 30
-0.0000000000000096
 11
-133.4999999999998863
 21
43.3120000000001184
 31
-0.0000000000000096
210
-0.0000000000000002
220
1.0
230
-0.0000000000000002
  0
LINE
  5
14BB9
  8
0
 10
-76.4999999999998863
 20
43.3120000000001397
 30
-0.0000000000000096
 11
-75.7499999999998863
 21
43.3120000000001397
 31
-0.0000000000000096
210
-0.0000000000000002
220
1.0
230
-0.0000000000000002
  0
LINE
  5
14BBA
  8
0
 10
-134.2499999999998863
 20
44.8120000000001113
 30
-0.00000000000001
 11
-75.7499999999998863
 21
44.8120000000001397
 31
-0.00000000000001
210
-0.0000000000000002
220
1.0
230
-0.0000000000000002
  0
LINE
  5
14BBB
  8
0
 10
-134.9999999999998863
 20
45.3119999999997702
 30
-0.0000000000000101
 11
-133.4999999999998863
 21
45.3119999999997702
 31
-0.0000000000000101
210
-0.0000000000000002
220
1.0
230
-0.0000000000000002
  0
LINE
  5
14BBC
  8
0
 10
-134.9999999999998863
 20
45.3119999999997702
 30
-0.0000000000000101
 11
-134.9999999999998863
 21
43.3119999999997702
 31
-0.0000000000000096
210
-0.0000000000000002
220
1.0
230
-0.0000000000000002
  0
LINE
  5
14BBD
  8
0
 10
-133.4999999999998863
 20
45.3119999999997702
 30
-0.0000000000000101
 11
-133.4999999999998863
 21
44.8120000000001113
 31
-0.00000000000001
210
-0.0000000000000002
220
1.0
230
-0.0000000000000002
  0
LINE
  5
14BBE
  8
0
 10
-134.9999999999998863
 20
43.3119999999997702
 30
-0.0000000000000096
 11
-134.2499999999998863
 21
43.3119999999997702
 31
-0.0000000000000096
210
-0.0000000000000002
220
1.0
230
-0.0000000000000002
  0
LINE
  5
14BBF
  8
0
 10
-75.7499999999998863
 20
43.3120000000000118
 30
-0.0000000000000096
 11
-74.9999999999998863
 21
43.3120000000000118
 31
-0.0000000000000096
210
-0.0000000000000002
220
1.0
230
-0.0000000000000002
  0
LINE
  5
14BC0
  8
0
 10
-76.4999999999998863
 20
45.3120000000000118
 30
-0.0000000000000101
 11
-76.4999999999998863
 21
44.8120000000001326
 31
-0.00000000000001
210
-0.0000000000000002
220
1.0
230
-0.0000000000000002
  0
LINE
  5
14BC1
  8
0
 10
-74.9999999999998863
 20
45.3120000000000118
 30
-0.0000000000000101
 11
-74.9999999999998863
 21
43.3120000000000118
 31
-0.0000000000000096
210
-0.0000000000000002
220
1.0
230
-0.0000000000000002
  0
LINE
  5
14BC2
  8
0
 10
-76.4999999999998863
 20
45.3120000000000118
 30
-0.0000000000000101
 11
-74.9999999999998863
 21
45.3120000000000118
 31
-0.0000000000000101
210
-0.0000000000000002
220
1.0
230
-0.0000000000000002
  0
LINE
  5
14BC3
  8
0
 10
-132.4999999999998863
 20
-15.1880000000001392
 30
0.0000000000000034
 11
-77.4999999999998721
 21
-15.1880000000001196
 31
0.0000000000000034
210
-0.0000000000000002
220
1.0
230
-0.0000000000000002
  0
LINE
  5
14BC4
  8
0
 10
-77.4999999999998721
 20
-12.6880000000000095
 30
0.0000000000000028
 11
-77.4999999999998721
 21
-15.1880000000001303
 31
0.0000000000000034
210
-0.0000000000000002
220
1.0
230
-0.0000000000000002
  0
LINE
  5
14BC5
  8
0
 10
-132.4999999999998863
 20
-15.1880000000001392
 30
0.0000000000000034
 11
-132.4999999999998863
 21
-12.6880000000002493
 31
0.0000000000000028
210
-0.0000000000000002
220
1.0
230
-0.0000000000000002
  0
ARC
  5
14BC6
  8
0
 10
77.4999999999999432
 20
-12.6880000000000095
 30
0.0
 40
2.5000000000000711
210
0.0
220
-0.0000000000000002
230
-1.0
 50
180.0
 51
269.9999999999984084
  0
ARC
  5
14BC7
  8
0
 10
-77.4999999999998437
 20
-12.6880000000000095
 30
0.0000000000000028
 40
1.0
 50
269.9999999999992042
 51
0.0
  0
LINE
  5
14BC8
  8
0
 10
-77.4999999999998721
 20
-12.6879999999995494
 30
0.0000000000000028
 11
-76.4999999999998721
 21
-12.6879999999995494
 31
0.0000000000000028
210
-0.0000000000000002
220
1.0
230
-0.0000000000000002
  0
LINE
  5
14BC9
  8
0
 10
-76.4999999999998721
 20
-12.6880000000000095
 30
0.0000000000000028
 11
-74.9999999999998721
 21
-12.6880000000000095
 31
0.0000000000000028
210
-0.0000000000000002
220
1.0
230
-0.0000000000000002
  0
ARC
  5
14BCA
  8
0
 10
132.499999999999801
 20
-12.6880000000000202
 30
0.0
 40
2.5
210
0.0
220
-0.0000000000000002
230
-1.0
 50
270.0000000000002274
 51
359.9999999999944862
  0
ARC
  5
14BCB
  8
0
 10
132.4999999999998863
 20
-12.6880000000001392
 30
0.0
 40
0.9999999999999326
210
0.0
220
-0.0000000000000002
230
-1.0
 50
269.9999999999960778
 51
359.9999999999934062
  0
LINE
  5
14BCC
  8
0
 10
-133.4999999999998863
 20
-12.6879999999995707
 30
0.0000000000000028
 11
-132.4999999999998863
 21
-12.6879999999995707
 31
0.0000000000000028
210
-0.0000000000000002
220
1.0
230
-0.0000000000000002
  0
LINE
  5
14BCD
  8
0
 10
-134.9999999999998863
 20
-12.6880000000002493
 30
0.0000000000000028
 11
-133.4999999999998863
 21
-12.6880000000002493
 31
0.0000000000000028
210
-0.0000000000000002
220
1.0
230
-0.0000000000000002
  0
LINE
  5
14BCE
  8
0
 10
-74.9999999999998863
 20
43.3120000000000118
 30
-0.0000000000000096
 11
-74.9999999999998721
 21
-12.6880000000000095
 31
0.0000000000000028
210
-0.0000000000000002
220
1.0
230
-0.0000000000000002
  0
LINE
  5
14BCF
  8
0
 10
-134.9999999999998863
 20
43.3119999999997702
 30
-0.0000000000000096
 11
-134.9999999999998863
 21
-12.6880000000002493
 31
0.0000000000000028
210
-0.0000000000000002
220
1.0
230
-0.0000000000000002
  0
LINE
  5
14BD0
  8
0
 10
-76.4999999999998863
 20
43.3120000000001326
 30
-0.0000000000000096
 11
-76.4999999999998721
 21
-12.6879999999995494
 31
0.0000000000000028
210
-0.0000000000000002
220
1.0
230
-0.0000000000000002
  0
LINE
  5
14BD1
  8
0
 10
-133.4999999999998863
 20
43.3120000000001184
 30
-0.0000000000000096
 11
-76.4999999999998863
 21
43.3120000000001326
 31
-0.0000000000000096
210
-0.0000000000000002
220
1.0
230
-0.0000000000000002
  0
LINE
  5
14BD2
  8
0
 10
-133.4999999999998863
 20
43.3120000000001184
 30
-0.0000000000000096
 11
-133.4999999999998863
 21
-12.6879999999995707
 31
0.0000000000000028
210
-0.0000000000000002
220
1.0
230
-0.0000000000000002
  0
CIRCLE
  5
14BD3
  8
0
 10
104.9999999999999005
 20
14.8119999999999798
 30
0.0
 40
25.0000000000000711
210
0.0
220
-0.0000000000000002
230
-1.0
  0
CIRCLE
  5
14BD4
  8
0
 10
104.9999999999999005
 20
14.8119999999999798
 30
0.0
 40
23.6013655750157909
210
0.0
220
-0.0000000000000002
230
-1.0
  0
CIRCLE
  5
14BD5
  8
0
 10
104.9999999999999005
 20
14.8119999999999798
 30
0.0
 40
20.0000000000000604
210
0.0
220
-0.0000000000000002
230
-1.0
  0
CIRCLE
  5
14BD6
  8
0
 10
104.9999999999999005
 20
14.8119999999999798
 30
0.0
 40
22.5000000000000604
210
0.0
220
-0.0000000000000002
230
-1.0
  0
CIRCLE
  5
14BD7
  8
0
 10
104.9999999999999005
 20
14.8119999999999798
 30
0.0
 40
22.6887802265772898
210
0.0
220
-0.0000000000000002
230
-1.0
  0
LINE
  5
14BD8
  8
0
  6
VERDECKT
 62
     1
 10
-133.2499999999998863
 20
44.8119999999999834
 30
-0.00000000000001
 11
-133.2499999999998863
 21
43.3119999999999834
 31
-0.0000000000000096
210
-0.0000000000000002
220
1.0
230
-0.0000000000000002
  0
LINE
  5
14BD9
  8
0
  6
VERDECKT
 62
     1
 10
-76.7499999999998863
 20
44.8119999999999976
 30
-0.00000000000001
 11
-76.7499999999998863
 21
43.3120000000001184
 31
-0.0000000000000096
210
-0.0000000000000002
220
1.0
230
-0.0000000000000002
  0
LINE
  5
14BDA
  8
0
  6
VERDECKT
 62
     1
 10
-134.2499999999998863
 20
8.3119978228497349
 30
-0.0000000000000018
 11
-123.914279571187393
 21
8.3119978228497384
 31
-0.0000000000000018
210
-0.0000000000000002
220
1.0
230
-0.0000000000000002
  0
LINE
  5
14BDB
  8
0
  6
VERDECKT
 62
     1
 10
-86.085720428812337
 20
8.3119978228497526
 30
-0.0000000000000018
 11
-75.7499999999998721
 21
8.3119978228497562
 31
-0.0000000000000018
210
-0.0000000000000002
220
1.0
230
-0.0000000000000002
  0
LINE
  5
14BDC
  8
0
  6
VERDECKT
 62
     1
 10
-75.7499999999998721
 20
8.3119978228497562
 30
-0.0000000000000018
 11
-75.7499999999998721
 21
9.0442308698833305
 31
-0.000000000000002
210
-0.0000000000000002
220
1.0
230
-0.0000000000000002
  0
LINE
  5
14BDD
  8
0
  6
VERDECKT
 62
     1
 10
-134.2499999999998863
 20
8.3119978228497349
 30
-0.0000000000000018
 11
-134.2499999999998863
 21
9.0442308698833092
 31
-0.000000000000002
210
-0.0000000000000002
220
1.0
230
-0.0000000000000002
  0
LINE
  5
14BDE
  8
0
  6
VERDECKT
 62
     1
 10
-134.2499999999998863
 20
9.8119978228497491
 30
-0.0000000000000022
 11
-75.7499999999998721
 21
9.8119978228497668
 31
-0.0000000000000022
210
-0.0000000000000002
220
1.0
230
-0.0000000000000002
  0
LINE
  5
14BDF
  8
0
  6
VERDECKT
 62
     1
 10
-75.7499999999998863
 20
43.0191067811863519
 30
-0.0000000000000096
 11
-75.7499999999998721
 21
9.0442308698833305
 31
-0.000000000000002
210
-0.0000000000000002
220
1.0
230
-0.0000000000000002
  0
LINE
  5
14BE0
  8
0
  6
VERDECKT
 62
     1
 10
-134.2499999999998863
 20
43.0191067811863306
 30
-0.0000000000000096
 11
-134.2499999999998863
 21
9.0442308698833163
 31
-0.000000000000002
210
-0.0000000000000002
220
1.0
230
-0.0000000000000002
  0
LINE
  5
14BE1
  8
0
  6
VERDECKT
 62
     1
 10
-75.7499999999998863
 20
43.3119999999997987
 30
-0.0000000000000096
 11
-75.7499999999998863
 21
43.019106781186359
 31
-0.0000000000000096
210
-0.0000000000000002
220
1.0
230
-0.0000000000000002
  0
LINE
  5
14BE2
  8
0
  6
VERDECKT
 62
     1
 10
-134.2499999999998863
 20
43.3119999999997702
 30
-0.0000000000000096
 11
-134.2499999999998863
 21
43.0191067811863306
 31
-0.0000000000000096
210
-0.0000000000000002
220
1.0
230
-0.0000000000000002
  0
LINE
  5
14BE3
  8
0
  6
VERDECKT
 62
     1
 10
-76.7499999999998721
 20
9.8119978228497686
 30
-0.0000000000000022
 11
-76.7499999999998721
 21
8.3119978228499818
 31
-0.0000000000000018
210
-0.0000000000000002
220
1.0
230
-0.0000000000000002
  0
LINE
  5
14BE4
  8
0
  6
VERDECKT
 62
     1
 10
-133.2499999999998863
 20
9.8119978228497491
 30
-0.0000000000000022
 11
-133.2499999999998863
 21
8.3119978228497402
 31
-0.0000000000000018
210
-0.0000000000000002
220
1.0
230
-0.0000000000000002
  0
LINE
  5
14BE5
  8
0
  6
VERDECKT
 62
     1
 10
-133.4999999999998863
 20
44.8120000000001113
 30
-0.00000000000001
 11
-133.4999999999998863
 21
43.3119999999997702
 31
-0.0000000000000096
210
-0.0000000000000002
220
1.0
230
-0.0000000000000002
  0
LINE
  5
14BE6
  8
0
  6
VERDECKT
 62
     1
 10
-134.9999999999998863
 20
8.3119978228497491
 30
-0.0000000000000018
 11
-133.4999999999998863
 21
8.3119978228497491
 31
-0.0000000000000018
210
-0.0000000000000002
220
1.0
230
-0.0000000000000002
  0
LINE
  5
14BE7
  8
0
  6
VERDECKT
 62
     1
 10
-134.9999999999998863
 20
10.3119978228497509
 30
-0.0000000000000023
 11
-133.4999999999998863
 21
10.3119978228497509
 31
-0.0000000000000023
210
-0.0000000000000002
220
1.0
230
-0.0000000000000002
  0
LINE
  5
14BE8
  8
0
  6
VERDECKT
 62
     1
 10
-76.4999999999998721
 20
8.3119978228497615
 30
-0.0000000000000018
 11
-74.9999999999998721
 21
8.3119978228497633
 31
-0.0000000000000018
210
-0.0000000000000002
220
1.0
230
-0.0000000000000002
  0
LINE
  5
14BE9
  8
0
  6
VERDECKT
 62
     1
 10
-76.4999999999998863
 20
44.8120000000001326
 30
-0.00000000000001
 11
-76.4999999999998863
 21
43.3120000000000118
 31
-0.0000000000000096
210
-0.0000000000000002
220
1.0
230
-0.0000000000000002
  0
LINE
  5
14BEA
  8
0
  6
VERDECKT
 62
     1
 10
-76.4999999999998721
 20
10.3119978228499907
 30
-0.0000000000000023
 11
-74.9999999999998721
 21
10.3119978228499907
 31
-0.0000000000000023
210
-0.0000000000000002
220
1.0
230
-0.0000000000000002
  0
LINE
  5
14BEB
  8
0
  6
VERDECKT
 62
     1
 10
-77.4999999999998721
 20
-13.6880000000000095
 30
0.000000000000003
 11
-75.2087121525219544
 21
-13.6880000000000095
 31
0.000000000000003
210
-0.0000000000000002
220
1.0
230
-0.0000000000000002
  0
LINE
  5
14BEC
  8
0
  6
VERDECKT
 62
     1
 10
-134.791287847477804
 20
-13.6880000000000202
 30
0.000000000000003
 11
-132.4999999999998863
 21
-13.6880000000000202
 31
0.000000000000003
210
-0.0000000000000002
220
1.0
230
-0.0000000000000002
  0
LINE
  5
14BED
  8
0
  6
VERDECKT
 62
     1
 10
-132.4999999999998863
 20
-13.6880000000000202
 30
0.000000000000003
 11
-77.4999999999998721
 21
-13.6880000000000095
 31
0.000000000000003
210
-0.0000000000000002
220
1.0
230
-0.0000000000000002
  0
CIRCLE
  5
14BEE
  8
0
  6
VERDECKT
 62
     1
 10
104.9999999999999005
 20
14.8119999999999798
 30
0.0
 40
23.5000000000000604
210
0.0
220
-0.0000000000000002
230
-1.0
  0
CIRCLE
  5
14BEF
  8
0
  6
VERDECKT
 62
     1
 10
104.9999999999999005
 20
14.8119999999999798
 30
0.0
 40
21.0000000000000604
210
0.0
220
-0.0000000000000002
230
-1.0
  0
CIRCLE
  5
14BF0
  8
0
  6
VERDECKT
 62
     1
 10
104.9999999999999005
 20
14.8119999999999798
 30
0.0
 40
24.0000000000000107
210
0.0
220
-0.0000000000000002
230
-1.0
  0
ENDBLK
  5
14BF2
  8
0
  0
ENDSEC
  0
SECTION
  2
ENTITIES
  0
INSERT
  5
48E5
  8
ADSK_ASSOC_ENTITY_BACKUPS
  2
*S0
 10
0.0
 20
0.0
 30
0.0
  0
INSERT
  5
14B53
  8
STEMPEL
  2
A$C2D3B6C32
 10
1.15784243367301
 20
83.0690347222818275
 30
9.8119978228497882
  0
INSERT
  5
14BB2
  8
STEMPEL
  2
A$CBCC355CA
 10
1.15784243367301
 20
277.2659443132586148
 30
9.8119978228497331
  0
INSERT
  5
14BF3
  8
STEMPEL
  2
A$CF63AADA7
 10
293.7376615075071982
 20
277.2659443132586148
 30
9.8119978228497331
  0
VIEWPORT
  5
3E7B
 67
     1
  8
0
 10
206.2977952556854859
 20
146.8421790770161977
 30
0.0
 40
533.9969448798290159
 41
299.1239570917758783
 68
     1
 69
     1
1001
ACAD
1000
MVIEW
1002
{
1070
    16
1010
0.0
1020
0.0
1030
0.0
1010
0.0
1020
0.0
1030
1.0
1040
0.0
1040
299.1239570917758783
1040
206.2977952556854859
1040
146.8421790770161977
1040
50.0
1040
0.0
1040
0.0
1070
     0
1070
  1500
1070
     1
1070
     1
1070
     0
1070
     0
1070
     0
1070
     2
1040
0.0
1040
0.0
1040
0.0
1040
10.0
1040
10.0
1040
10.0
1040
10.0
1070
     0
1002
{
1002
}
1002
}
  0
ENDSEC
  0
EOF
