  0
SECTION
  2
HEADER
  9
$ACADVER
  1
AC1009
  9
$INSBASE
 10
0.0
 20
0.0
 30
0.0
  9
$EXTMIN
 10
-177.3209138936605882
 20
-0.0256328098773793
 30
-0.0015258207003583
  9
$EXTMAX
 10
44.0278481340826602
 20
655.1348894358787902
 30
0.0000000349246037
  9
$LIMMIN
 10
0.0
 20
0.0
  9
$LIMMAX
 10
594.0000000000002274
 20
840.0
  9
$ORTHOMODE
 70
     1
  9
$REGENMODE
 70
     1
  9
$FILLMODE
 70
     1
  9
$QTEXTMODE
 70
     0
  9
$MIRRTEXT
 70
     1
  9
$DRAGMODE
 70
     2
  9
$LTSCALE
 40
20.0
  9
$OSMODE
 70
  2559
  9
$ATTMODE
 70
     1
  9
$TEXTSIZE
 40
3.5
  9
$TRACEWID
 40
1.0
  9
$TEXTSTYLE
  7
STANDARD
  9
$CLAYER
  8
STEMPEL
  9
$CELTYPE
  6
BYLAYER
  9
$CECOLOR
 62
   256
  9
$DIMSCALE
 40
1.0
  9
$DIMASZ
 40
3.5
  9
$DIMEXO
 40
1.0
  9
$DIMDLI
 40
7.0
  9
$DIMRND
 40
0.0
  9
$DIMDLE
 40
0.0
  9
$DIMEXE
 40
1.0
  9
$DIMTP
 40
0.0
  9
$DIMTM
 40
0.0
  9
$DIMTXT
 40
3.5
  9
$DIMCEN
 40
1.5
  9
$DIMTSZ
 40
0.0
  9
$DIMTOL
 70
     0
  9
$DIMLIM
 70
     0
  9
$DIMTIH
 70
     0
  9
$DIMTOH
 70
     0
  9
$DIMSE1
 70
     0
  9
$DIMSE2
 70
     0
  9
$DIMTAD
 70
     1
  9
$DIMZIN
 70
     8
  9
$DIMBLK
  1

  9
$DIMASO
 70
     1
  9
$DIMSHO
 70
     0
  9
$DIMPOST
  1

  9
$DIMAPOST
  1

  9
$DIMALT
 70
     0
  9
$DIMALTD
 70
     2
  9
$DIMALTF
 40
25.3999999999999986
  9
$DIMLFAC
 40
2.0
  9
$DIMTOFL
 70
     1
  9
$DIMTVP
 40
0.0
  9
$DIMTIX
 70
     0
  9
$DIMSOXD
 70
     0
  9
$DIMSAH
 70
     0
  9
$DIMBLK1
  1

  9
$DIMBLK2
  1

  9
$DIMSTYLE
  2
STANDARD
  9
$DIMCLRD
 70
     0
  9
$DIMCLRE
 70
     0
  9
$DIMCLRT
 70
     1
  9
$DIMTFAC
 40
0.5
  9
$DIMGAP
 40
1.5
  9
$LUNITS
 70
     2
  9
$LUPREC
 70
     2
  9
$SKETCHINC
 40
1.0
  9
$FILLETRAD
 40
6.0
  9
$AUNITS
 70
     0
  9
$AUPREC
 70
     0
  9
$MENU
  1
ACAD
  9
$ELEVATION
 40
0.0
  9
$PELEVATION
 40
0.0
  9
$THICKNESS
 40
0.0
  9
$LIMCHECK
 70
     0
  9
$BLIPMODE
 70
     0
  9
$CHAMFERA
 40
0.0
  9
$CHAMFERB
 40
0.0
  9
$SKPOLY
 70
     0
  9
$TDCREATE
 40
2455397.867048610933125
  9
$TDUPDATE
 40
2458885.422175926156342
  9
$TDINDWG
 40
2.8007314468
  9
$TDUSRTIMER
 40
2.8007314468
  9
$USRTIMER
 70
     1
  9
$ANGBASE
 50
0.0
  9
$ANGDIR
 70
     0
  9
$PDMODE
 70
     0
  9
$PDSIZE
 40
0.0
  9
$PLINEWID
 40
0.0
  9
$COORDS
 70
     1
  9
$SPLFRAME
 70
     0
  9
$SPLINETYPE
 70
     6
  9
$SPLINESEGS
 70
     8
  9
$ATTDIA
 70
     1
  9
$ATTREQ
 70
     1
  9
$HANDLING
 70
     1
  9
$HANDSEED
  5
F0DF
  9
$SURFTAB1
 70
     6
  9
$SURFTAB2
 70
     6
  9
$SURFTYPE
 70
     6
  9
$SURFU
 70
     6
  9
$SURFV
 70
     6
  9
$UCSNAME
  2

  9
$UCSORG
 10
0.0
 20
0.0
 30
0.0
  9
$UCSXDIR
 10
1.0
 20
0.0
 30
0.0
  9
$UCSYDIR
 10
0.0
 20
1.0
 30
0.0
  9
$PUCSNAME
  2

  9
$PUCSORG
 10
0.0
 20
0.0
 30
0.0
  9
$PUCSXDIR
 10
1.0
 20
0.0
 30
0.0
  9
$PUCSYDIR
 10
0.0
 20
1.0
 30
0.0
  9
$USERI1
 70
     0
  9
$USERI2
 70
     0
  9
$USERI3
 70
     0
  9
$USERI4
 70
     0
  9
$USERI5
 70
     0
  9
$USERR1
 40
0.0
  9
$USERR2
 40
0.0
  9
$USERR3
 40
0.0
  9
$USERR4
 40
0.0
  9
$USERR5
 40
0.0
  9
$WORLDVIEW
 70
     1
  9
$SHADEDGE
 70
     3
  9
$SHADEDIF
 70
    70
  9
$TILEMODE
 70
     1
  9
$MAXACTVP
 70
    16
  9
$PLIMCHECK
 70
     0
  9
$PEXTMIN
 10
1.0000000000000000E+20
 20
1.0000000000000000E+20
 30
1.0000000000000000E+20
  9
$PEXTMAX
 10
-1.0000000000000000E+20
 20
-1.0000000000000000E+20
 30
-1.0000000000000000E+20
  9
$PLIMMIN
 10
-4.5345764861921669
 20
-3.1961862395036729
  9
$PLIMMAX
 10
415.9581374896332022
 20
294.1283175172118831
  9
$UNITMODE
 70
     0
  9
$VISRETAIN
 70
     0
  9
$PLINEGEN
 70
     0
  9
$PSLTSCALE
 70
     0
  0
ENDSEC
  0
SECTION
  2
TABLES
  0
TABLE
  2
VPORT
 70
     1
  0
VPORT
  2
*ACTIVE
 70
     0
 10
0.0
 20
0.0
 11
1.0
 21
1.0
 12
-66.6465328797890493
 22
0.0023211840945123
 13
0.0
 23
0.0
 14
1.0
 24
1.0
 15
10.0
 25
10.0
 16
0.0000000000003774
 26
0.0
 36
1699.5197999199710921
 17
0.0
 27
327.5523071289061932
 37
-0.0000000000000727
 40
658.5003379921237183
 41
1.868197278911564
 42
50.0
 43
0.0
 44
0.0
 50
0.0
 51
0.0
 71
     0
 72
  1500
 73
     1
 74
     1
 75
     0
 76
     0
 77
     0
 78
     0
  0
ENDTAB
  0
TABLE
  2
LTYPE
 70
     5
  0
LTYPE
  2
CONTINUOUS
 70
     0
  3
Solid line
 72
    65
 73
     0
 40
0.0
  0
LTYPE
  2
STRICHPUNKT
 70
     0
  3
__ . __ . __ . __ . __ . __ . __ . __ . __ . __
 72
    65
 73
     4
 40
1.0
 49
0.5
 49
-0.25
 49
0.0
 49
-0.25
  0
LTYPE
  2
AUSGEZOGEN
 70
     0
  3
Ausgezogene Linie
 72
    65
 73
     0
 40
0.0
  0
LTYPE
  2
VERDECKT
 70
     0
  3
Verdeckt __ __ __ __ __ __ __ __ __ __ __ __ __
 72
    65
 73
     2
 40
0.375
 49
0.25
 49
-0.125
  0
ENDTAB
  0
TABLE
  2
LAYER
 70
    17
  0
LAYER
  2
0
 70
     0
 62
     7
  6
CONTINUOUS
  0
LAYER
  2
STEMPEL
 70
     0
 62
     3
  6
CONTINUOUS
  0
LAYER
  2
TEXT
 70
     0
 62
     7
  6
CONTINUOUS
  0
LAYER
  2
DEFPOINTS
 70
     0
 62
     7
  6
CONTINUOUS
  0
LAYER
  2
ADSK_ASSOC_ENTITY_BACKUPS
 70
     1
 62
    -7
  6
CONTINUOUS
  0
ENDTAB
  0
TABLE
  2
STYLE
 70
     3
  0
STYLE
  2
STANDARD
 70
     0
 40
0.0
 41
0.8
 50
0.0
 71
     0
 42
3.5
  3
simplex.shx
  4

  0
STYLE
  2
GREEKS
 70
     0
 40
0.0
 41
0.8
 50
0.0
 71
     0
 42
2.5
  3
SIMPLEX.shx
  4

  0
ENDTAB
  0
TABLE
  2
VIEW
 70
     1
  0
ENDTAB
  0
TABLE
  2
UCS
 70
     0
  0
ENDTAB
  0
TABLE
  2
APPID
 70
    48
  0
APPID
  2
ACAD
 70
     0
  0
APPID
  2
ACAD_EXEMPT_FROM_CAD_STANDARDS
 70
     0
  0
APPID
  2
ACAD_NAV_VCDISPLAY
 70
     0
  0
APPID
  2
ACAD_PSEXT
 70
     0
  0
APPID
  2
ACAECLAYERSTANDARD
 70
     0
  0
APPID
  2
ACCMTRANSPARENCY
 70
     0
  0
APPID
  2
ACAD_STEPID
 70
     0
  0
APPID
  2
ACADANNOMONITORALERTICONDI
 70
     0
  0
APPID
  2
ACAD_MLEADERVER
 70
     0
  0
APPID
  2
ACAD_OBJECT_CHANGE_GUID
 70
     0
  0
APPID
  2
ACADANNOPO
 70
     0
  0
APPID
  2
GRADIENTCOLOR1ACI
 70
     0
  0
APPID
  2
GRADIENTCOLOR2ACI
 70
     0
  0
APPID
  2
ACAD_DSTYLE_DIMRADIAL_EXTENSION
 70
     0
  0
APPID
  2
MCAD_NO_VIS
 70
     0
  0
APPID
  2
ACAD_TEMP_GRAPHIC
 70
     0
  0
APPID
  2
ACATTRIBSERVICES
 70
     0
  0
APPID
  2
DESIGNERASSEMBLIES
 70
     0
  0
APPID
  2
ACAD_DSTYLE_DIMJAG
 70
     0
  0
APPID
  2
ACAD_DSTYLE_DIMBREAK
 70
     0
  0
APPID
  2
GENIUS_GENSCREG_15
 70
     0
  0
APPID
  2
GENIUS_GENOBJ-N-SDF_13
 70
     0
  0
APPID
  2
GENIUS_GENODEF_13
 70
     0
  0
APPID
  2
ACAD_DSTYLE_DIMARC_LENGTH_
 70
     0
  0
APPID
  2
ACAD_DSTYLE_DIM_LINETYPE
 70
     0
  0
APPID
  2
ACAD_DSTYLE_DIM_EXT1_LINETYPE
 70
     0
  0
APPID
  2
ACAD_DSTYLE_DIM_EXT2_LINETYPE
 70
     0
  0
APPID
  2
RAK
 70
     0
  0
APPID
  2
ACSYNERGY
 70
     0
  0
APPID
  2
SYNERGY_BODY_TBR_ID
 70
     0
  0
APPID
  2
ACAD_VIEW_EDGE_ID
 70
     0
  0
APPID
  2
ACSYNERGYSKETCH
 70
     0
  0
APPID
  2
ACAD_MODELDOC_XFORM
 70
     0
  0
APPID
  2
GENIUS_GENDTOL_13
 70
     0
  0
APPID
  2
ACAD_DSTYLE_DIMINSPECT
 70
     0
  0
APPID
  2
ACAD_DSTYLE_DIMANGULAR_EXT
 70
     0
  0
APPID
  2
PLOTTRANSPARENCY
 70
     0
  0
APPID
  2
ACAUTHENVIRON
 70
     0
  0
APPID
  2
ACDBDYNAMICBLOCKTRUENAME
 70
     0
  0
APPID
  2
ACDBDYNAMICBLOCKGUID
 70
     0
  0
APPID
  2
PE_URL
 70
     0
  0
APPID
  2
SYNERGY_EXCLUDED_FROM_SNAPSHOT
 70
     0
  0
APPID
  2
ACAD_DSTYLE_DIMTALN
 70
     0
  0
APPID
  2
ACAD_DIMASSOC_CALC_DIMLFAC
 70
     0
  0
APPID
  2
ACAD_DIMASSOC_DIMLFAC
 70
     0
  0
APPID
  2
ACAD_DIMASSOC_OVERRIDDEN_D
 70
     0
  0
APPID
  2
ACADANNOAV
 70
     0
  0
APPID
  2
AcDbAttr
 70
     0
  0
ENDTAB
  0
TABLE
  2
DIMSTYLE
 70
     3
  0
DIMSTYLE
  2
STANDARD
 70
     0
  3

  4

  5

  6

  7

 40
1.0
 41
0.18
 42
0.0625
 43
0.38
 44
0.18
 45
0.0
 46
0.0
 47
0.0
 48
0.0
140
0.18
141
0.09
142
0.0
143
25.3999999999999986
144
1.0
145
0.0
146
1.0
147
0.09
 71
     0
 72
     0
 73
     1
 74
     1
 75
     0
 76
     0
 77
     0
 78
     0
170
     0
171
     2
172
     0
173
     0
174
     0
175
     0
176
     0
177
     0
178
     0
  0
ENDTAB
  0
ENDSEC
  0
SECTION
  2
BLOCKS
  0
BLOCK
  8
0
  2
$MODEL_SPACE
 70
     0
 10
0.0
 20
0.0
 30
0.0
  3
$MODEL_SPACE
  1

  0
ENDBLK
  5
38
  8
0
  0
BLOCK
 67
     1
  8
0
  2
$PAPER_SPACE
 70
     0
 10
0.0
 20
0.0
 30
0.0
  3
$PAPER_SPACE
  1

  0
ENDBLK
  5
36
 67
     1
  8
0
  0
BLOCK
  8
0
  2
*S0
 70
     1
 10
0.0
 20
0.0
 30
0.0
  3
*S0
  1

  0
ENDBLK
  5
30A9
  8
0
  0
BLOCK
  8
0
  2
A$C3E2DD676
 70
     0
 10
0.0
 20
0.0
 30
0.0
  3
A$C3E2DD676
  1

  0
LINE
  5
EF37
  8
0
  6
CONTINUOUS
 62
     3
 10
35.8875793553185076
 20
0.0
 30
0.0
 11
-35.8875793553185076
 21
0.0
 31
0.0
210
0.0
220
1.0
230
-0.0000000000000002
  0
LINE
  5
EF38
  8
0
  6
CONTINUOUS
 62
     3
 10
39.2594616805548569
 20
170.0
 30
-0.0000000000000377
 11
-39.2594616805548569
 21
170.0
 31
-0.0000000000000377
210
0.0
220
1.0
230
-0.0000000000000002
  0
LINE
  5
EF39
  8
0
  6
CONTINUOUS
 62
     3
 10
-35.8875793553184579
 20
0.000000000000004
 30
0.0
 11
-36.4999999999999503
 21
6.9999999999983009
 31
-0.0000000000000016
210
0.0
220
1.0
230
-0.0000000000000002
  0
LINE
  5
EF3A
  8
0
  6
CONTINUOUS
 62
     3
 10
35.8875793553184579
 20
0.000000000000004
 30
0.0
 11
36.4999999999999503
 21
6.9999999999983009
 31
-0.0000000000000016
210
0.0
220
1.0
230
-0.0000000000000002
  0
LINE
  5
EF3B
  8
0
  6
CONTINUOUS
 62
     3
 10
-36.5
 20
6.9999999999982956
 30
-0.0000000000000016
 11
-36.5
 21
110.5069422202888063
 31
-0.0000000000000245
210
0.0
220
1.0
230
-0.0000000000000002
  0
LINE
  5
EF3C
  8
0
  6
CONTINUOUS
 62
     3
 10
36.5
 20
6.9999999999982956
 30
-0.0000000000000016
 11
36.5
 21
110.5069422202888063
 31
-0.0000000000000245
210
0.0
220
1.0
230
-0.0000000000000002
  0
ARC
  5
EF3D
  8
0
  6
CONTINUOUS
 62
     3
 10
-44.5000000000012506
 20
110.5069422202887068
 30
0.0
 40
8.0000000000012506
210
0.0
220
-0.0000000000000002
230
-1.0
 50
0.0000000000008142
 51
31.3206695884097996
  0
ARC
  5
EF3E
  8
0
  6
CONTINUOUS
 62
     3
 10
44.5000000000012506
 20
110.5069422202887068
 30
0.0
 40
8.0000000000012488
210
0.0
220
-0.0000000000000002
230
-1.0
 50
148.6793304115902004
 51
179.9999999999992042
  0
ARC
  5
EF3F
  8
0
  6
CONTINUOUS
 62
     3
 10
-27.4999999999993605
 20
120.8515060100291976
 30
0.0
 40
11.9000000000006096
210
0.0
220
-0.0000000000000002
230
-1.0
 50
180.0000000000015064
 51
211.3206695884124997
  0
ARC
  5
EF40
  8
0
  6
CONTINUOUS
 62
     3
 10
27.4999999999993712
 20
120.8515060100291976
 30
0.0
 40
11.9000000000006096
210
0.0
220
-0.0000000000000002
230
-1.0
 50
328.6793304115875003
 51
359.9999999999984084
  0
LINE
  5
EF41
  8
0
  6
CONTINUOUS
 62
     3
 10
-39.4000000000000909
 20
120.8515060100288991
 30
-0.0000000000000268
 11
-39.4000000000000909
 21
141.1281710573138071
 31
-0.0000000000000313
210
0.0
220
1.0
230
-0.0000000000000002
  0
LINE
  5
EF42
  8
0
  6
CONTINUOUS
 62
     3
 10
39.4000000000000909
 20
120.8515060100288991
 30
-0.0000000000000268
 11
39.4000000000000909
 21
141.1281710573138071
 31
-0.0000000000000313
210
0.0
220
1.0
230
-0.0000000000000002
  0
ARC
  5
EF43
  8
0
  6
CONTINUOUS
 62
     3
 10
-51.9000000000030681
 20
141.1281710573132955
 30
0.0
 40
12.5000000000029701
210
0.0
220
-0.0000000000000002
230
-1.0
 50
0.0
 51
21.1668520397794886
  0
ARC
  5
EF44
  8
0
  6
CONTINUOUS
 62
     3
 10
51.9000000000037076
 20
141.1281710573132102
 30
0.0
 40
12.5000000000036096
210
0.0
220
-0.0000000000000002
230
-1.0
 50
158.8331479602186107
 51
179.9999999999969873
  0
ARC
  5
EF45
  8
0
  6
CONTINUOUS
 62
     3
 10
-17.6632712343802005
 20
154.3849407818975124
 30
0.0
 40
24.2136969004929199
210
0.0
220
-0.0000000000000002
230
-1.0
 50
190.3489560495995931
 51
201.1668520397925874
  0
ARC
  5
EF46
  8
0
  6
CONTINUOUS
 62
     3
 10
17.6632712343802005
 20
154.3849407818975124
 30
0.0
 40
24.2136969004929199
210
0.0
220
-0.0000000000000002
230
-1.0
 50
338.8331479602073273
 51
349.6510439504003216
  0
ARC
  5
EF47
  8
0
  6
CONTINUOUS
 62
     3
 10
-16.2705343039151593
 20
154.6392734874046084
 30
0.0
 40
25.6294656960848108
210
0.0
220
-0.0000000000000002
230
-1.0
 50
180.0000000000017906
 51
190.348956049596211
  0
ARC
  5
EF48
  8
0
  6
CONTINUOUS
 62
     3
 10
16.2705343039160191
 20
154.6392734874044947
 30
0.0
 40
25.6294656960839617
210
0.0
220
-0.0000000000000002
230
-1.0
 50
349.6510439504036185
 51
359.9999999999982947
  0
LINE
  5
EF49
  8
0
  6
CONTINUOUS
 62
     3
 10
-41.9000000000000909
 20
154.6392734874038126
 30
-0.0000000000000343
 11
-41.9000000000000909
 21
158.8171502002699924
 31
-0.0000000000000353
210
0.0
220
1.0
230
-0.0000000000000002
  0
LINE
  5
EF4A
  8
0
  6
CONTINUOUS
 62
     3
 10
41.9000000000000909
 20
154.6392734874038126
 30
-0.0000000000000343
 11
41.9000000000000909
 21
158.8171502002699924
 31
-0.0000000000000353
210
0.0
220
1.0
230
-0.0000000000000002
  0
ARC
  5
EF4B
  8
0
  6
CONTINUOUS
 62
     3
 10
-17.0000000000229505
 20
158.8171502002751083
 30
0.0
 40
24.8999999999771511
210
0.0
220
-0.0000000000000002
230
-1.0
 50
154.9999999999874092
 51
180.0000000000115961
  0
ARC
  5
EF4C
  8
0
  6
CONTINUOUS
 62
     3
 10
17.0000000000229505
 20
158.8171502002751083
 30
0.0
 40
24.8999999999771511
210
0.0
220
-0.0000000000000002
230
-1.0
 50
359.9999999999882903
 51
25.0000000000125517
  0
LINE
  5
EF4D
  8
0
  6
CONTINUOUS
 62
     3
 10
39.2594616805548711
 20
170.0
 30
-0.0000000000000377
 11
39.5670638972125133
 21
169.3403449176138054
 31
-0.0000000000000376
210
0.0
220
1.0
230
-0.0000000000000002
  0
LINE
  5
EF4E
  8
0
  6
CONTINUOUS
 62
     3
 10
-39.2594616805548569
 20
170.0000000000001137
 30
-0.0000000000000377
 11
-39.5670638972125133
 21
169.3403449176138054
 31
-0.0000000000000376
210
0.0
220
1.0
230
-0.0000000000000002
  0
LINE
  5
EF4F
  8
0
  6
CONTINUOUS
 62
     3
 10
-43.5000000000000497
 20
255.000000000000199
 30
-0.0000000000000566
 11
43.4999999999999432
 21
255.0
 31
-0.0000000000000566
210
0.0
220
1.0
230
-0.0000000000000002
  0
LINE
  5
EF50
  8
0
  6
CONTINUOUS
 62
     3
 10
35.4408830487898925
 20
234.5
 30
-0.0000000000000521
 11
-35.4408830487901128
 21
234.500000000000199
 31
-0.0000000000000521
210
0.0
220
1.0
230
-0.0000000000000002
  0
LINE
  5
EF51
  8
0
  6
CONTINUOUS
 62
     3
 10
-43.5
 20
253.500000000000199
 30
-0.0000000000000563
 11
43.5
 21
253.5
 31
-0.0000000000000563
210
0.0
220
1.0
230
-0.0000000000000002
  0
ARC
  5
EF52
  8
0
  6
CONTINUOUS
 62
     3
 10
35.4408830487901128
 20
237.5000000000003126
 30
0.0
 40
3.0
210
0.0
220
-0.0000000000000002
230
-1.0
 50
270.0
 51
356.2359651350936929
  0
ARC
  5
EF53
  8
0
  6
CONTINUOUS
 62
     3
 10
-35.4408830487898712
 20
237.5000000000001137
 30
0.0
 40
2.9999999999999978
210
0.0
220
-0.0000000000000002
230
-1.0
 50
183.7640348649061934
 51
270.0
  0
LINE
  5
EF54
  8
0
  6
CONTINUOUS
 62
     3
 10
-38.4344116663023172
 20
237.3030573277955
 30
-0.0000000000000527
 11
-39.5
 21
253.500000000000199
 31
-0.0000000000000563
210
0.0
220
1.0
230
-0.0000000000000002
  0
LINE
  5
EF55
  8
0
  6
CONTINUOUS
 62
     3
 10
38.434411666302168
 20
237.303057327795301
 30
-0.0000000000000527
 11
39.4999999999999432
 21
253.5
 31
-0.0000000000000563
210
0.0
220
1.0
230
-0.0000000000000002
  0
LINE
  5
EF56
  8
0
  6
CONTINUOUS
 62
     3
 10
43.5
 20
255.0
 30
-0.0000000000000566
 11
43.5
 21
253.5
 31
-0.0000000000000563
210
0.0
220
1.0
230
-0.0000000000000002
  0
LINE
  5
EF57
  8
0
  6
CONTINUOUS
 62
     3
 10
-43.5
 20
255.000000000000199
 30
-0.0000000000000566
 11
-43.5
 21
253.500000000000199
 31
-0.0000000000000563
210
0.0
220
1.0
230
-0.0000000000000002
  0
LINE
  5
EF58
  8
0
  6
CONTINUOUS
 62
     3
 10
-36.5
 20
582.1045868912973447
 30
-0.0000000000001293
 11
36.5
 21
655.1045868912973447
 31
-0.0000000000001455
210
0.0
220
1.0
230
-0.0000000000000002
  0
LINE
  5
EF59
  8
0
  6
CONTINUOUS
 62
     3
 10
-35.8875793553185076
 20
445.0000000000001137
 30
-0.0000000000000988
 11
35.8875793553185076
 21
445.0000000000001137
 31
-0.0000000000000988
210
0.0
220
1.0
230
-0.0000000000000002
  0
LINE
  5
EF5A
  8
0
  6
CONTINUOUS
 62
     3
 10
-35.8875793553184579
 20
445.0000000000001137
 30
-0.0000000000000988
 11
-36.4999999999999503
 21
451.9999999999984084
 31
-0.0000000000001004
210
0.0
220
1.0
230
-0.0000000000000002
  0
LINE
  5
EF5B
  8
0
  6
CONTINUOUS
 62
     3
 10
35.8875793553184579
 20
445.0000000000001137
 30
-0.0000000000000988
 11
36.4999999999999503
 21
451.9999999999984084
 31
-0.0000000000001004
210
0.0
220
1.0
230
-0.0000000000000002
  0
LINE
  5
EF5C
  8
0
  6
CONTINUOUS
 62
     3
 10
36.5
 20
655.1045868912973447
 30
-0.0000000000001455
 11
36.5
 21
451.9999999999984084
 31
-0.0000000000001004
210
0.0
220
1.0
230
-0.0000000000000002
  0
LINE
  5
EF5D
  8
0
  6
CONTINUOUS
 62
     3
 10
-36.5
 20
582.1045868912973447
 30
-0.0000000000001293
 11
-36.5
 21
451.9999999999984084
 31
-0.0000000000001004
210
0.0
220
1.0
230
-0.0000000000000002
  0
LINE
  5
EF5E
  8
0
  6
CONTINUOUS
 62
     3
 10
-41.9000000000000909
 20
367.0000000000001137
 30
-0.0000000000000815
 11
41.9000000000000909
 21
367.0000000000001137
 31
-0.0000000000000815
210
0.0
220
1.0
230
-0.0000000000000002
  0
LINE
  5
EF5F
  8
0
  6
CONTINUOUS
 62
     3
 10
-40.4999999999999929
 20
368.4000000000000909
 30
-0.0000000000000818
 11
40.4999999999999929
 21
368.4000000000000909
 31
-0.0000000000000818
210
0.0
220
1.0
230
-0.0000000000000002
  0
LINE
  5
EF60
  8
0
  6
CONTINUOUS
 62
     3
 10
-41.9000000000000909
 20
366.0000000000001137
 30
-0.0000000000000813
 11
41.9000000000000909
 21
366.0000000000001137
 31
-0.0000000000000813
210
0.0
220
1.0
230
-0.0000000000000002
  0
LINE
  5
EF61
  8
0
  6
CONTINUOUS
 62
     3
 10
-40.5000000000000995
 20
364.6000000000000796
 30
-0.000000000000081
 11
40.5000000000000995
 21
364.6000000000000796
 31
-0.000000000000081
210
0.0
220
1.0
230
-0.0000000000000002
  0
LINE
  5
EF62
  8
0
  6
CONTINUOUS
 62
     3
 10
-40.5000000000000995
 20
364.0000000000001137
 30
-0.0000000000000808
 11
40.5000000000000995
 21
364.0000000000001137
 31
-0.0000000000000808
210
0.0
220
1.0
230
-0.0000000000000002
  0
LINE
  5
EF63
  8
0
  6
CONTINUOUS
 62
     3
 10
-42.8000000000000682
 20
360.0
 30
-0.0000000000000799
 11
42.8000000000000682
 21
360.0
 31
-0.0000000000000799
210
0.0
220
1.0
230
-0.0000000000000002
  0
LINE
  5
EF64
  8
0
  6
CONTINUOUS
 62
     3
 10
-38.0
 20
325.0000000000001137
 30
-0.0000000000000722
 11
38.0
 21
325.0000000000001137
 31
-0.0000000000000722
210
0.0
220
1.0
230
-0.0000000000000002
  0
LINE
  5
EF65
  8
0
  6
CONTINUOUS
 62
     3
 10
-40.8000000000000682
 20
380.0000000000001137
 30
-0.0000000000000844
 11
40.8000000000000682
 21
380.0000000000001137
 31
-0.0000000000000844
210
0.0
220
1.0
230
-0.0000000000000002
  0
LINE
  5
EF66
  8
0
  6
CONTINUOUS
 62
     3
 10
-42.3000000000000611
 20
375.0
 30
-0.0000000000000833
 11
42.3000000000000611
 21
375.0
 31
-0.0000000000000833
210
0.0
220
1.0
230
-0.0000000000000002
  0
LINE
  5
EF67
  8
0
  6
CONTINUOUS
 62
     3
 10
-40.4999999999999929
 20
369.5050451610911182
 30
-0.000000000000082
 11
40.4999999999999929
 21
369.5050451610911182
 31
-0.000000000000082
210
0.0
220
1.0
230
-0.0000000000000002
  0
LINE
  5
EF68
  8
0
  6
CONTINUOUS
 62
     3
 10
40.5000000000000284
 20
368.4000000000000909
 30
-0.0000000000000818
 11
41.9000000000001123
 21
367.0000000000001137
 31
-0.0000000000000815
210
0.0
220
1.0
230
-0.0000000000000002
  0
LINE
  5
EF69
  8
0
  6
CONTINUOUS
 62
     3
 10
-40.5000000000000284
 20
368.4000000000000909
 30
-0.0000000000000818
 11
-41.9000000000001123
 21
367.0000000000001137
 31
-0.0000000000000815
210
0.0
220
1.0
230
-0.0000000000000002
  0
LINE
  5
EF6A
  8
0
  6
CONTINUOUS
 62
     3
 10
41.9000000000000909
 20
367.0000000000001137
 30
-0.0000000000000815
 11
41.9000000000000909
 21
366.0000000000001137
 31
-0.0000000000000813
210
0.0
220
1.0
230
-0.0000000000000002
  0
LINE
  5
EF6B
  8
0
  6
CONTINUOUS
 62
     3
 10
-41.9000000000000909
 20
367.0000000000001137
 30
-0.0000000000000815
 11
-41.9000000000000909
 21
366.0000000000001137
 31
-0.0000000000000813
210
0.0
220
1.0
230
-0.0000000000000002
  0
LINE
  5
EF6C
  8
0
  6
CONTINUOUS
 62
     3
 10
-40.5000000000000995
 20
364.6000000000000796
 30
-0.000000000000081
 11
-41.9000000000000981
 21
366.0000000000001137
 31
-0.0000000000000813
210
0.0
220
1.0
230
-0.0000000000000002
  0
LINE
  5
EF6D
  8
0
  6
CONTINUOUS
 62
     3
 10
40.5000000000000995
 20
364.6000000000000796
 30
-0.000000000000081
 11
41.9000000000000981
 21
366.0000000000001137
 31
-0.0000000000000813
210
0.0
220
1.0
230
-0.0000000000000002
  0
LINE
  5
EF6E
  8
0
  6
CONTINUOUS
 62
     3
 10
40.5000000000001066
 20
364.6000000000000796
 30
-0.000000000000081
 11
40.5000000000001066
 21
364.0000000000001137
 31
-0.0000000000000808
210
0.0
220
1.0
230
-0.0000000000000002
  0
LINE
  5
EF6F
  8
0
  6
CONTINUOUS
 62
     3
 10
-40.5000000000001066
 20
364.6000000000000796
 30
-0.000000000000081
 11
-40.5000000000001066
 21
364.0000000000002274
 31
-0.0000000000000808
210
0.0
220
1.0
230
-0.0000000000000002
  0
LINE
  5
EF70
  8
0
  6
CONTINUOUS
 62
     3
 10
40.5000000000000924
 20
364.0000000000001137
 30
-0.0000000000000808
 11
42.8000000000000611
 21
360.0
 31
-0.0000000000000799
210
0.0
220
1.0
230
-0.0000000000000002
  0
LINE
  5
EF71
  8
0
  6
CONTINUOUS
 62
     3
 10
-40.5000000000001208
 20
364.0000000000001137
 30
-0.0000000000000808
 11
-42.8000000000000611
 21
360.0
 31
-0.0000000000000799
210
0.0
220
1.0
230
-0.0000000000000002
  0
LINE
  5
EF72
  8
0
  6
CONTINUOUS
 62
     3
 10
38.5
 20
360.0
 30
-0.0000000000000799
 11
38.5
 21
330.9999999999997158
 31
-0.0000000000000735
210
0.0
220
1.0
230
-0.0000000000000002
  0
LINE
  5
EF73
  8
0
  6
CONTINUOUS
 62
     3
 10
-38.5
 20
360.0
 30
-0.0000000000000799
 11
-38.5
 21
330.9999999999997158
 31
-0.0000000000000735
210
0.0
220
1.0
230
-0.0000000000000002
  0
LINE
  5
EF74
  8
0
  6
CONTINUOUS
 62
     3
 10
-38.0
 20
325.0000000000002274
 30
-0.0000000000000722
 11
-38.5
 21
330.9999999999997158
 31
-0.0000000000000735
210
0.0
220
1.0
230
-0.0000000000000002
  0
LINE
  5
EF75
  8
0
  6
CONTINUOUS
 62
     3
 10
38.0
 20
325.0000000000001137
 30
-0.0000000000000722
 11
38.5
 21
330.9999999999997158
 31
-0.0000000000000735
210
0.0
220
1.0
230
-0.0000000000000002
  0
ARC
  5
EF76
  8
0
  6
CONTINUOUS
 62
     3
 10
40.8000000000000824
 20
378.5000000000001137
 30
0.0
 40
1.499999999999978
210
0.0
220
-0.0000000000000002
230
-1.0
 50
0.0
 51
90.00000000000081
  0
ARC
  5
EF77
  8
0
  6
CONTINUOUS
 62
     3
 10
-40.8000000000000824
 20
378.5000000000001137
 30
0.0
 40
1.5
210
0.0
220
-0.0000000000000002
230
-1.0
 50
89.9999999999992042
 51
180.0
  0
LINE
  5
EF78
  8
0
  6
CONTINUOUS
 62
     3
 10
42.3000000000000611
 20
378.5000000000001137
 30
-0.000000000000084
 11
42.3000000000000611
 21
375.0
 31
-0.0000000000000833
210
0.0
220
1.0
230
-0.0000000000000002
  0
LINE
  5
EF79
  8
0
  6
CONTINUOUS
 62
     3
 10
-42.3000000000000611
 20
378.5000000000001137
 30
-0.000000000000084
 11
-42.3000000000000611
 21
375.0
 31
-0.0000000000000833
210
0.0
220
1.0
230
-0.0000000000000002
  0
ARC
  5
EF7A
  8
0
  6
CONTINUOUS
 62
     3
 10
39.214074003371131
 20
374.5
 30
0.0
 40
0.500000000000057
210
0.0
220
-0.0000000000000002
230
-1.0
 50
89.9999999999992042
 51
199.9999999999886029
  0
ARC
  5
EF7B
  8
0
  6
CONTINUOUS
 62
     3
 10
-39.2140740033711808
 20
374.5
 30
0.0
 40
0.5000000000000624
210
0.0
220
-0.0000000000000002
230
-1.0
 50
340.0000000000060254
 51
89.9999999999959357
  0
LINE
  5
EF7C
  8
0
  6
CONTINUOUS
 62
     3
 10
38.7442276929781428
 20
374.3289899283371938
 30
-0.0000000000000831
 11
40.4999999999999929
 21
369.5050451610911182
 31
-0.000000000000082
210
0.0
220
1.0
230
-0.0000000000000002
  0
LINE
  5
EF7D
  8
0
  6
CONTINUOUS
 62
     3
 10
-38.7442276929781286
 20
374.3289899283373074
 30
-0.0000000000000831
 11
-40.5000000000000071
 21
369.5050451610910045
 31
-0.000000000000082
210
0.0
220
1.0
230
-0.0000000000000002
  0
LINE
  5
EF7E
  8
0
  6
CONTINUOUS
 62
     3
 10
40.4999999999999929
 20
369.5050451610911182
 30
-0.000000000000082
 11
40.4999999999999929
 21
368.4000000000000909
 31
-0.0000000000000818
210
0.0
220
1.0
230
-0.0000000000000002
  0
LINE
  5
EF7F
  8
0
  6
CONTINUOUS
 62
     3
 10
-40.4999999999999929
 20
369.5050451610910045
 30
-0.000000000000082
 11
-40.4999999999999929
 21
368.4000000000000909
 31
-0.0000000000000818
210
0.0
220
1.0
230
-0.0000000000000002
  0
LINE
  5
EF80
  8
0
  6
VERDECKT
 62
     1
 10
34.3932873081809021
 20
0.1307336141214819
 30
0.0
 11
-34.3932873081809021
 21
0.1307336141214819
 31
0.0
210
0.0
220
1.0
230
-0.0000000000000002
  0
LINE
  5
EF81
  8
0
  6
VERDECKT
 62
     1
 10
37.8999999999999773
 20
169.3660726073889009
 30
-0.0000000000000376
 11
-37.8999999999999773
 21
169.3660726073889009
 31
-0.0000000000000376
210
0.0
220
1.0
230
-0.0000000000000002
  0
LINE
  5
EF82
  8
0
  6
VERDECKT
 62
     1
 10
-35.0
 20
7.0654914143614187
 30
-0.0000000000000016
 11
-35.0
 21
110.5069422202888063
 31
-0.0000000000000245
210
0.0
220
1.0
230
-0.0000000000000002
  0
LINE
  5
EF83
  8
0
  6
VERDECKT
 62
     1
 10
35.0
 20
7.0654914143614187
 30
-0.0000000000000016
 11
35.0
 21
110.5069422202888063
 31
-0.0000000000000245
210
0.0
220
1.0
230
-0.0000000000000002
  0
LINE
  5
EF84
  8
0
  6
VERDECKT
 62
     1
 10
-34.3932873081809092
 20
0.130733614121481
 30
0.0
 11
-35.0000000000001208
 21
7.0654914143614187
 31
-0.0000000000000016
210
0.0
220
1.0
230
-0.0000000000000002
  0
LINE
  5
EF85
  8
0
  6
VERDECKT
 62
     1
 10
34.3932873081809092
 20
0.130733614121481
 30
0.0
 11
35.0000000000001208
 21
7.0654914143614187
 31
-0.0000000000000016
210
0.0
220
1.0
230
-0.0000000000000002
  0
LINE
  5
EF86
  8
0
  6
VERDECKT
 62
     1
 10
34.3932873081809021
 20
0.1307336141214819
 30
0.0
 11
35.8875793553185076
 21
0.0
 31
0.0
210
0.0
220
1.0
230
-0.0000000000000002
  0
LINE
  5
EF87
  8
0
  6
VERDECKT
 62
     1
 10
-34.3932873081809021
 20
0.1307336141214819
 30
0.0
 11
-35.8875793553185076
 21
0.0
 31
0.0
210
0.0
220
1.0
230
-0.0000000000000002
  0
ARC
  5
EF88
  8
0
  6
VERDECKT
 62
     1
 10
-16.2705343039319814
 20
154.6392734874033863
 30
0.0
 40
24.1294656960680101
210
0.0
220
-0.0000000000000002
230
-1.0
 50
179.9999999999990905
 51
190.3489560496005879
  0
ARC
  5
EF89
  8
0
  6
VERDECKT
 62
     1
 10
16.2705343039306385
 20
154.6392734874036137
 30
0.0
 40
24.1294656960693494
210
0.0
220
-0.0000000000000002
230
-1.0
 50
349.6510439503995258
 51
0.0000000000005471
  0
ARC
  5
EF8A
  8
0
  6
VERDECKT
 62
     1
 10
-17.6632712343683806
 20
154.3849407819004114
 30
0.0
 40
22.7136969005050204
210
0.0
220
-0.0000000000000002
230
-1.0
 50
190.3489560496014974
 51
201.1668520397892053
  0
ARC
  5
EF8B
  8
0
  6
VERDECKT
 62
     1
 10
17.663271234367329
 20
154.3849407819006956
 30
0.0
 40
22.7136969005061005
210
0.0
220
-0.0000000000000002
230
-1.0
 50
338.8331479602110221
 51
349.6510439503981047
  0
ARC
  5
EF8C
  8
0
  6
VERDECKT
 62
     1
 10
-51.9000000000010004
 20
141.1281710573134944
 30
0.0
 40
14.0000000000009095
210
0.0
220
-0.0000000000000002
230
-1.0
 50
0.0000000000012849
 51
21.1668520397844908
  0
ARC
  5
EF8D
  8
0
  6
VERDECKT
 62
     1
 10
51.9000000000007518
 20
141.1281710573136081
 30
0.0
 40
14.0000000000006697
210
0.0
220
-0.0000000000000002
230
-1.0
 50
158.8331479602153138
 51
179.9999999999986926
  0
LINE
  5
EF8E
  8
0
  6
VERDECKT
 62
     1
 10
-37.9000000000000909
 20
120.8515060100288991
 30
-0.0000000000000268
 11
-37.9000000000000909
 21
141.1281710573138071
 31
-0.0000000000000313
210
0.0
220
1.0
230
-0.0000000000000002
  0
LINE
  5
EF8F
  8
0
  6
VERDECKT
 62
     1
 10
37.9000000000000909
 20
120.8515060100288991
 30
-0.0000000000000268
 11
37.9000000000000909
 21
141.1281710573138071
 31
-0.0000000000000313
210
0.0
220
1.0
230
-0.0000000000000002
  0
ARC
  5
EF90
  8
0
  6
VERDECKT
 62
     1
 10
-27.4999999999993214
 20
120.8515060100289986
 30
0.0
 40
10.4000000000006594
210
0.0
220
-0.0000000000000002
230
-1.0
 50
180.0000000000009095
 51
211.3206695884111923
  0
ARC
  5
EF91
  8
0
  6
VERDECKT
 62
     1
 10
27.4999999999993214
 20
120.8515060100289986
 30
0.0
 40
10.4000000000006505
210
0.0
220
-0.0000000000000002
230
-1.0
 50
328.679330411588694
 51
359.9999999999989768
  0
ARC
  5
EF92
  8
0
  6
VERDECKT
 62
     1
 10
-44.5000000000011227
 20
110.5069422202885931
 30
0.0
 40
9.5000000000011156
210
0.0
220
-0.0000000000000002
230
-1.0
 50
0.000000000001374
 51
31.3206695884116399
  0
ARC
  5
EF93
  8
0
  6
VERDECKT
 62
     1
 10
44.5000000000011227
 20
110.5069422202885931
 30
0.0
 40
9.5000000000011191
210
0.0
220
-0.0000000000000002
230
-1.0
 50
148.6793304115882961
 51
179.9999999999986073
  0
LINE
  5
EF94
  8
0
  6
VERDECKT
 62
     1
 10
-37.8999999999999915
 20
169.3660726073889009
 30
-0.0000000000000376
 11
-39.2594616805548782
 21
170.0
 31
-0.0000000000000377
210
0.0
220
1.0
230
-0.0000000000000002
  0
LINE
  5
EF95
  8
0
  6
VERDECKT
 62
     1
 10
37.8999999999999915
 20
169.3660726073889009
 30
-0.0000000000000376
 11
39.2594616805548711
 21
170.0
 31
-0.0000000000000377
210
0.0
220
1.0
230
-0.0000000000000002
  0
LINE
  5
EF96
  8
0
  6
VERDECKT
 62
     1
 10
37.8999999999999773
 20
169.3660726073889009
 30
-0.0000000000000376
 11
38.2076022166576195
 21
168.7064175250025926
 31
-0.0000000000000375
210
0.0
220
1.0
230
-0.0000000000000002
  0
LINE
  5
EF97
  8
0
  6
VERDECKT
 62
     1
 10
-37.8999999999999773
 20
169.3660726073889009
 30
-0.0000000000000376
 11
-38.2076022166576195
 21
168.7064175250025926
 31
-0.0000000000000375
210
0.0
220
1.0
230
-0.0000000000000002
  0
ARC
  5
EF98
  8
0
  6
VERDECKT
 62
     1
 10
-17.0000000000205311
 20
158.8171502002778936
 30
0.0
 40
23.3999999999781991
210
0.0
220
-0.0000000000000002
230
-1.0
 50
154.9999999999955946
 51
180.0000000000190994
  0
ARC
  5
EF99
  8
0
  6
VERDECKT
 62
     1
 10
17.0000000000205205
 20
158.8171502002778936
 30
0.0
 40
23.3999999999781991
210
0.0
220
-0.0000000000000002
230
-1.0
 50
359.9999999999807869
 51
25.0000000000043414
  0
LINE
  5
EF9A
  8
0
  6
VERDECKT
 62
     1
 10
-40.3999999999994088
 20
154.6392734874038126
 30
-0.0000000000000343
 11
-40.3999999999994088
 21
158.8171502002699924
 31
-0.0000000000000353
210
0.0
220
1.0
230
-0.0000000000000002
  0
LINE
  5
EF9B
  8
0
  6
VERDECKT
 62
     1
 10
40.3999999999994088
 20
154.6392734874038126
 30
-0.0000000000000343
 11
40.3999999999994088
 21
158.8171502002699924
 31
-0.0000000000000353
210
0.0
220
1.0
230
-0.0000000000000002
  0
LINE
  5
EF9C
  8
0
  6
VERDECKT
 62
     1
 10
-35.9090692073249897
 20
236.000000000000199
 30
-0.0000000000000524
 11
35.9090692073248832
 21
236.0
 31
-0.0000000000000524
210
0.0
220
1.0
230
-0.0000000000000002
  0
ARC
  5
EF9D
  8
0
  6
VERDECKT
 62
     1
 10
38.5636276829299902
 20
254.500000000000199
 30
0.0
 40
0.5
210
0.0
220
-0.0000000000000002
230
-1.0
 50
90.0
 51
176.2359651350948013
  0
ARC
  5
EF9E
  8
0
  6
VERDECKT
 62
     1
 10
-38.5636276829298623
 20
254.5
 30
0.0
 40
0.4999999999999897
210
0.0
220
-0.0000000000000002
230
-1.0
 50
3.7640348649052999
 51
90.00000000000081
  0
LINE
  5
EF9F
  8
0
  6
VERDECKT
 62
     1
 10
-36.9069120798290768
 20
236.9343524425985947
 30
-0.0000000000000526
 11
-38.0647062466779218
 21
254.5328237787009868
 31
-0.0000000000000565
210
0.0
220
1.0
230
-0.0000000000000002
  0
LINE
  5
EFA0
  8
0
  6
VERDECKT
 62
     1
 10
36.9069120798289205
 20
236.9343524425983958
 30
-0.0000000000000526
 11
38.0647062466778507
 21
254.5328237787007879
 31
-0.0000000000000565
210
0.0
220
1.0
230
-0.0000000000000002
  0
ARC
  5
EFA1
  8
0
  6
VERDECKT
 62
     1
 10
35.9090692073249684
 20
237.000000000000199
 30
0.0
 40
1.0
210
0.0
220
-0.0000000000000002
230
-1.0
 50
270.0000000000011937
 51
356.2359651350947729
  0
ARC
  5
EFA2
  8
0
  6
VERDECKT
 62
     1
 10
-35.9090692073248405
 20
237.0
 30
0.0
 40
1.000000000000014
210
0.0
220
-0.0000000000000002
230
-1.0
 50
183.7640348649051134
 51
269.9999999999992042
  0
LINE
  5
EFA3
  8
0
  6
VERDECKT
 62
     1
 10
-34.6921457176084687
 20
445.1045868912972878
 30
-0.0000000000000988
 11
34.6921457176084687
 21
445.1045868912972878
 31
-0.0000000000000988
210
0.0
220
1.0
230
-0.0000000000000002
  0
LINE
  5
EFA4
  8
0
  6
VERDECKT
 62
     1
 10
34.6921457176084687
 20
445.1045868912972878
 30
-0.0000000000000988
 11
35.8875793553185076
 21
445.0000000000001137
 31
-0.0000000000000988
210
0.0
220
1.0
230
-0.0000000000000002
  0
LINE
  5
EFA5
  8
0
  6
VERDECKT
 62
     1
 10
-34.6921457176084687
 20
445.1045868912972878
 30
-0.0000000000000988
 11
-35.8875793553185076
 21
445.0000000000001137
 31
-0.0000000000000988
210
0.0
220
1.0
230
-0.0000000000000002
  0
LINE
  5
EFA6
  8
0
  6
VERDECKT
 62
     1
 10
-34.6921457176084118
 20
445.1045868912972878
 30
-0.0000000000000988
 11
-35.2999999999998977
 21
452.0523931314872925
 31
-0.0000000000001004
210
0.0
220
1.0
230
-0.0000000000000002
  0
LINE
  5
EFA7
  8
0
  6
VERDECKT
 62
     1
 10
34.6921457176084118
 20
445.1045868912972878
 30
-0.0000000000000988
 11
35.2999999999998977
 21
452.0523931314872925
 31
-0.0000000000001004
210
0.0
220
1.0
230
-0.0000000000000002
  0
LINE
  5
EFA8
  8
0
  6
VERDECKT
 62
     1
 10
35.2999999999999616
 20
653.9045868912972992
 30
-0.0000000000001452
 11
35.2999999999999616
 21
452.0523931314872925
 31
-0.0000000000001004
210
0.0
220
1.0
230
-0.0000000000000002
  0
LINE
  5
EFA9
  8
0
  6
VERDECKT
 62
     1
 10
-35.2999999999999616
 20
583.3045868912972765
 30
-0.0000000000001295
 11
-35.2999999999999616
 21
452.0523931314872925
 31
-0.0000000000001004
210
0.0
220
1.0
230
-0.0000000000000002
  0
LINE
  5
EFAA
  8
0
  6
VERDECKT
 62
     1
 10
-37.0
 20
374.0
 30
-0.000000000000083
 11
37.0
 21
374.0
 31
-0.000000000000083
210
0.0
220
1.0
230
-0.0000000000000002
  0
LINE
  5
EFAB
  8
0
  6
VERDECKT
 62
     1
 10
40.172763368164162
 20
361.5328179858481121
 30
-0.0000000000000803
 11
41.0
 21
360.0
 31
-0.0000000000000799
210
0.0
220
1.0
230
-0.0000000000000002
  0
LINE
  5
EFAC
  8
0
  6
VERDECKT
 62
     1
 10
-40.172763368164162
 20
361.5328179858481121
 30
-0.0000000000000803
 11
-41.0
 21
360.0
 31
-0.0000000000000799
210
0.0
220
1.0
230
-0.0000000000000002
  0
ARC
  5
EFAD
  8
0
  6
VERDECKT
 62
     1
 10
39.3897574288158197
 20
361.1102425711841875
 30
0.0
 40
0.889757428815807
210
0.0
220
-0.0000000000000002
230
-1.0
 50
28.3550060284091003
 51
90.000000000000469
  0
ARC
  5
EFAE
  8
0
  6
VERDECKT
 62
     1
 10
39.3897574288157628
 20
361.1102425711843011
 30
0.0
 40
0.8897574288157555
210
0.0
220
-0.0000000000000002
230
-1.0
 50
89.9999999999963336
 51
180.0000000000036096
  0
ARC
  5
EFAF
  8
0
  6
VERDECKT
 62
     1
 10
-39.3897574288157628
 20
361.1102425711843011
 30
0.0
 40
0.8897574288157555
210
0.0
220
-0.0000000000000002
230
-1.0
 50
359.9999999999964189
 51
90.0000000000036664
  0
ARC
  5
EFB0
  8
0
  6
VERDECKT
 62
     1
 10
-39.3897574288158197
 20
361.1102425711841875
 30
0.0
 40
0.8897574288158125
210
0.0
220
-0.0000000000000002
230
-1.0
 50
89.9999999999995453
 51
151.6449939715909068
  0
LINE
  5
EFB1
  8
0
  6
VERDECKT
 62
     1
 10
39.3897574288158125
 20
362.0
 30
-0.0000000000000804
 11
-39.3897574288158125
 21
362.0
 31
-0.0000000000000804
210
0.0
220
1.0
230
-0.0000000000000002
  0
LINE
  5
EFB2
  8
0
  6
VERDECKT
 62
     1
 10
38.5
 20
361.1102425711841875
 30
-0.0000000000000802
 11
38.5
 21
360.0
 31
-0.0000000000000799
210
0.0
220
1.0
230
-0.0000000000000002
  0
LINE
  5
EFB3
  8
0
  6
VERDECKT
 62
     1
 10
-38.5
 20
361.1102425711841875
 30
-0.0000000000000802
 11
-38.5
 21
360.0
 31
-0.0000000000000799
210
0.0
220
1.0
230
-0.0000000000000002
  0
ARC
  5
EFB4
  8
0
  6
VERDECKT
 62
     1
 10
38.0000000000000568
 20
326.5000000000002274
 30
0.0
 40
1.5000000000000411
210
0.0
220
-0.0000000000000002
230
-1.0
 50
146.4426902380791944
 51
269.9999999999977831
  0
ARC
  5
EFB5
  8
0
  6
VERDECKT
 62
     1
 10
-38.0000000000000782
 20
326.5000000000002274
 30
0.0
 40
1.500000000000056
210
0.0
220
-0.0000000000000002
230
-1.0
 50
270.0
 51
33.5573097619147021
  0
ARC
  5
EFB6
  8
0
  6
VERDECKT
 62
     1
 10
35.4999999999999076
 20
328.158312395177802
 30
0.0
 40
1.500000000000091
210
0.0
220
-0.0000000000000002
230
-1.0
 50
326.4426902380780007
 51
359.9999999999977831
  0
ARC
  5
EFB7
  8
0
  6
VERDECKT
 62
     1
 10
-35.5000000000001776
 20
328.158312395177802
 30
0.0
 40
1.4999999999998219
210
0.0
220
-0.0000000000000002
230
-1.0
 50
179.9999999999978115
 51
213.5573097619214877
  0
LINE
  5
EFB8
  8
0
  6
VERDECKT
 62
     1
 10
37.0000000000000568
 20
357.4019237886469114
 30
-0.0000000000000794
 11
37.0000000000000568
 21
328.158312395177802
 31
-0.0000000000000729
210
0.0
220
1.0
230
-0.0000000000000002
  0
LINE
  5
EFB9
  8
0
  6
VERDECKT
 62
     1
 10
-37.0000000000000568
 20
357.4019237886469114
 30
-0.0000000000000794
 11
-37.0000000000000568
 21
328.158312395177802
 31
-0.0000000000000729
210
0.0
220
1.0
230
-0.0000000000000002
  0
ARC
  5
EFBA
  8
0
  6
VERDECKT
 62
     1
 10
35.5000000000002203
 20
357.4019237886469114
 30
0.0
 40
1.4999999999999001
210
0.0
220
-0.0000000000000002
230
-1.0
 50
0.0000000000021755
 51
60.00000000000216
  0
ARC
  5
EFBB
  8
0
  6
VERDECKT
 62
     1
 10
-35.5000000000002203
 20
357.4019237886469114
 30
0.0
 40
1.499999999999869
210
0.0
220
-0.0000000000000002
230
-1.0
 50
119.9999999999977973
 51
179.9999999999978115
  0
ARC
  5
EFBC
  8
0
  6
VERDECKT
 62
     1
 10
37.0000000000001634
 20
360.0000000000001137
 30
0.0
 40
1.5000000000000331
210
0.0
220
-0.0000000000000002
230
-1.0
 50
131.8103148957789017
 51
239.999999999997101
  0
ARC
  5
EFBD
  8
0
  6
VERDECKT
 62
     1
 10
-37.0000000000001634
 20
360.0000000000001137
 30
0.0
 40
1.50000000000001
210
0.0
220
-0.0000000000000002
230
-1.0
 50
300.0000000000027853
 51
48.1896851042210983
  0
ARC
  5
EFBE
  8
0
  6
VERDECKT
 62
     1
 10
33.9999999999997584
 20
363.3541019662500275
 30
0.0
 40
3.000000000000369
210
0.0
220
-0.0000000000000002
230
-1.0
 50
311.8103148957821986
 51
359.9999999999977831
  0
ARC
  5
EFBF
  8
0
  6
VERDECKT
 62
     1
 10
-33.9999999999997584
 20
363.3541019662500275
 30
0.0
 40
3.0000000000003548
210
0.0
220
-0.0000000000000002
230
-1.0
 50
180.0000000000021032
 51
228.1896851042178866
  0
LINE
  5
EFC0
  8
0
  6
VERDECKT
 62
     1
 10
37.0000000000000568
 20
374.0
 30
-0.000000000000083
 11
37.0000000000000568
 21
363.3541019662498002
 31
-0.0000000000000807
210
0.0
220
1.0
230
-0.0000000000000002
  0
LINE
  5
EFC1
  8
0
  6
VERDECKT
 62
     1
 10
-37.0000000000000568
 20
374.0
 30
-0.000000000000083
 11
-37.0000000000000568
 21
363.3541019662498002
 31
-0.0000000000000807
210
0.0
220
1.0
230
-0.0000000000000002
  0
LINE
  5
EFC2
  8
0
  6
VERDECKT
 62
     1
 10
-37.0
 20
374.0
 30
-0.000000000000083
 11
-37.9122537624158369
 21
379.1736481776670189
 31
-0.0000000000000842
210
0.0
220
1.0
230
-0.0000000000000002
  0
LINE
  5
EFC3
  8
0
  6
VERDECKT
 62
     1
 10
37.0
 20
374.0
 30
-0.000000000000083
 11
37.9122537624158369
 21
379.1736481776670189
 31
-0.0000000000000842
210
0.0
220
1.0
230
-0.0000000000000002
  0
ARC
  5
EFC4
  8
0
  6
VERDECKT
 62
     1
 10
38.8970615154279997
 20
379.0
 30
0.0
 40
1.0
210
0.0
220
-0.0000000000000002
230
-1.0
 50
89.9999999999971436
 51
169.9999999999944862
  0
ARC
  5
EFC5
  8
0
  6
VERDECKT
 62
     1
 10
-38.8970615154280708
 20
379.0
 30
0.0
 40
1.0000000000000371
210
0.0
220
-0.0000000000000002
230
-1.0
 50
10.0000000000014602
 51
89.9999999999987921
  0
ENDBLK
  5
EFC7
  8
0
  0
BLOCK
  8
0
  2
A$C4BE0CDB0
 70
     0
 10
0.0
 20
0.0
 30
0.0
  3
A$C4BE0CDB0
  1

  0
LINE
  5
EFCB
  8
0
  6
CONTINUOUS
 62
     3
 10
35.8875793553185432
 20
0.0000000000000102
 30
0.0
 11
-35.8875793553184934
 21
-0.0000000000000102
 31
0.0
210
-0.0000000000000002
220
1.0
230
-0.0000000000000002
  0
LINE
  5
EFCC
  8
0
  6
CONTINUOUS
 62
     3
 10
39.2594616805548426
 20
170.0000000000001137
 30
-0.0000000000000377
 11
-39.2594616805548924
 21
170.0000000000001137
 31
-0.0000000000000377
210
-0.0000000000000002
220
1.0
230
-0.0000000000000002
  0
LINE
  5
EFCD
  8
0
  6
CONTINUOUS
 62
     3
 10
-35.8875793553184508
 20
-0.0000000000000062
 30
0.0
 11
-36.4999999999999432
 21
6.9999999999982911
 31
-0.0000000000000016
210
-0.0000000000000002
220
1.0
230
-0.0000000000000002
  0
LINE
  5
EFCE
  8
0
  6
CONTINUOUS
 62
     3
 10
35.8875793553184934
 20
0.0000000000000142
 30
0.0
 11
36.4999999999999787
 21
6.9999999999983116
 31
-0.0000000000000016
210
-0.0000000000000002
220
1.0
230
-0.0000000000000002
  0
LINE
  5
EFCF
  8
0
  6
CONTINUOUS
 62
     3
 10
-36.4999999999999929
 20
6.9999999999982858
 30
-0.0000000000000016
 11
-36.5000000000000213
 21
110.5069422202888063
 31
-0.0000000000000245
210
-0.0000000000000002
220
1.0
230
-0.0000000000000002
  0
LINE
  5
EFD0
  8
0
  6
CONTINUOUS
 62
     3
 10
36.5000000000000284
 20
6.999999999998308
 30
-0.0000000000000016
 11
36.5
 21
110.5069422202887068
 31
-0.0000000000000245
210
-0.0000000000000002
220
1.0
230
-0.0000000000000002
  0
ARC
  5
EFD1
  8
0
  6
CONTINUOUS
 62
     3
 10
-44.5000000000012932
 20
110.5069422202887068
 30
0.0
 40
8.0000000000012932
210
0.0
220
-0.0000000000000002
230
-1.0
 50
0.0000000000000891
 51
31.3206695884097108
  0
ARC
  5
EFD2
  8
0
  6
CONTINUOUS
 62
     3
 10
44.5000000000012577
 20
110.5069422202887068
 30
0.0
 40
8.0000000000012506
210
0.0
220
-0.0000000000000002
230
-1.0
 50
148.6793304115902004
 51
179.9999999999992042
  0
ARC
  5
EFD3
  8
0
  6
CONTINUOUS
 62
     3
 10
-27.4999999999993605
 20
120.8515060100291976
 30
0.0
 40
11.9000000000006096
210
0.0
220
-0.0000000000000002
230
-1.0
 50
180.0000000000015064
 51
211.320669588412386
  0
ARC
  5
EFD4
  8
0
  6
CONTINUOUS
 62
     3
 10
27.4999999999993889
 20
120.8515060100291976
 30
0.0
 40
11.9000000000006096
210
0.0
220
-0.0000000000000002
230
-1.0
 50
328.6793304115875003
 51
359.9999999999984084
  0
LINE
  5
EFD5
  8
0
  6
CONTINUOUS
 62
     3
 10
-39.4000000000001123
 20
120.8515060100288991
 30
-0.0000000000000268
 11
-39.4000000000001123
 21
141.1281710573138071
 31
-0.0000000000000313
210
-0.0000000000000002
220
1.0
230
-0.0000000000000002
  0
LINE
  5
EFD6
  8
0
  6
CONTINUOUS
 62
     3
 10
39.4000000000000767
 20
120.8515060100288991
 30
-0.0000000000000268
 11
39.4000000000000767
 21
141.1281710573138071
 31
-0.0000000000000313
210
-0.0000000000000002
220
1.0
230
-0.0000000000000002
  0
ARC
  5
EFD7
  8
0
  6
CONTINUOUS
 62
     3
 10
-51.9000000000035371
 20
141.1281710573132955
 30
0.0
 40
12.5000000000034497
210
0.0
220
-0.0000000000000002
230
-1.0
 50
0.0
 51
21.16685203977854
  0
ARC
  5
EFD8
  8
0
  6
CONTINUOUS
 62
     3
 10
51.9000000000037431
 20
141.1281710573132955
 30
0.0
 40
12.5000000000036202
210
0.0
220
-0.0000000000000002
230
-1.0
 50
158.8331479602186107
 51
179.9999999999969873
  0
ARC
  5
EFD9
  8
0
  6
CONTINUOUS
 62
     3
 10
-17.6632712343801792
 20
154.3849407818975124
 30
0.0
 40
24.2136969004929306
210
0.0
220
-0.0000000000000002
230
-1.0
 50
190.3489560495995931
 51
201.1668520397925874
  0
ARC
  5
EFDA
  8
0
  6
CONTINUOUS
 62
     3
 10
17.6632712343802183
 20
154.3849407818975124
 30
0.0
 40
24.2136969004929306
210
0.0
220
-0.0000000000000002
230
-1.0
 50
338.8331479602073273
 51
349.6510439504003216
  0
ARC
  5
EFDB
  8
0
  6
CONTINUOUS
 62
     3
 10
-16.2705343039151415
 20
154.6392734874046084
 30
0.0
 40
25.6294656960848215
210
0.0
220
-0.0000000000000002
230
-1.0
 50
180.0000000000017906
 51
190.348956049596211
  0
ARC
  5
EFDC
  8
0
  6
CONTINUOUS
 62
     3
 10
16.2705343039160404
 20
154.6392734874046084
 30
0.0
 40
25.6294656960839617
210
0.0
220
-0.0000000000000002
230
-1.0
 50
349.6510439504035048
 51
359.9999999999982947
  0
LINE
  5
EFDD
  8
0
  6
CONTINUOUS
 62
     3
 10
-41.9000000000001123
 20
154.6392734874038126
 30
-0.0000000000000343
 11
-41.9000000000001123
 21
158.8171502002699924
 31
-0.0000000000000353
210
-0.0000000000000002
220
1.0
230
-0.0000000000000002
  0
LINE
  5
EFDE
  8
0
  6
CONTINUOUS
 62
     3
 10
41.9000000000000696
 20
154.6392734874038126
 30
-0.0000000000000343
 11
41.9000000000000696
 21
158.8171502002699924
 31
-0.0000000000000353
210
-0.0000000000000002
220
1.0
230
-0.0000000000000002
  0
ARC
  5
EFDF
  8
0
  6
CONTINUOUS
 62
     3
 10
-17.0000000000229292
 20
158.8171502002751083
 30
0.0
 40
24.8999999999771617
210
0.0
220
-0.0000000000000002
230
-1.0
 50
154.9999999999874092
 51
180.0000000000115961
  0
ARC
  5
EFE0
  8
0
  6
CONTINUOUS
 62
     3
 10
17.0000000000229683
 20
158.8171502002751083
 30
0.0
 40
24.8999999999771617
210
0.0
220
-0.0000000000000002
230
-1.0
 50
359.9999999999882903
 51
25.0000000000125304
  0
LINE
  5
EFE1
  8
0
  6
CONTINUOUS
 62
     3
 10
39.2594616805548426
 20
170.0000000000001137
 30
-0.0000000000000377
 11
39.5670638972124991
 21
169.3403449176138054
 31
-0.0000000000000376
210
-0.0000000000000002
220
1.0
230
-0.0000000000000002
  0
LINE
  5
EFE2
  8
0
  6
CONTINUOUS
 62
     3
 10
-39.2594616805548924
 20
170.0000000000001137
 30
-0.0000000000000377
 11
-39.5670638972125417
 21
169.3403449176138054
 31
-0.0000000000000376
210
-0.0000000000000002
220
1.0
230
-0.0000000000000002
  0
LINE
  5
EFE3
  8
0
  6
CONTINUOUS
 62
     3
 10
-43.5
 20
255.000000000000199
 30
-0.0000000000000566
 11
-0.0000000000000566
 21
255.0000000000003126
 31
-0.0000000000000566
210
-0.0000000000000002
220
1.0
230
-0.0000000000000002
  0
LINE
  5
EFE4
  8
0
  6
CONTINUOUS
 62
     3
 10
-0.0000000000000443
 20
255.0000000000003126
 30
-0.0000000000000566
 11
43.4999999999999218
 21
255.000000000000199
 31
-0.0000000000000566
210
-0.0000000000000002
220
1.0
230
-0.0000000000000002
  0
LINE
  5
EFE5
  8
0
  6
CONTINUOUS
 62
     3
 10
35.440883048789928
 20
234.500000000000199
 30
-0.0000000000000521
 11
-0.0000000000000379
 21
234.5000000000003126
 31
-0.0000000000000521
210
-0.0000000000000002
220
1.0
230
-0.0000000000000002
  0
LINE
  5
EFE6
  8
0
  6
CONTINUOUS
 62
     3
 10
-0.0000000000000462
 20
234.5000000000003126
 30
-0.0000000000000521
 11
-35.4408830487900275
 21
234.500000000000199
 31
-0.0000000000000521
210
-0.0000000000000002
220
1.0
230
-0.0000000000000002
  0
LINE
  5
EFE7
  8
0
  6
CONTINUOUS
 62
     3
 10
-43.5000000000000426
 20
253.5000000000001137
 30
-0.0000000000000563
 11
-0.0000000000000563
 21
253.500000000000199
 31
-0.0000000000000563
210
-0.0000000000000002
220
1.0
230
-0.0000000000000002
  0
LINE
  5
EFE8
  8
0
  6
CONTINUOUS
 62
     3
 10
-0.000000000000043
 20
253.5000000000003126
 30
-0.0000000000000563
 11
43.4999999999999503
 21
253.5000000000001137
 31
-0.0000000000000563
210
-0.0000000000000002
220
1.0
230
-0.0000000000000002
  0
ARC
  5
EFE9
  8
0
  6
CONTINUOUS
 62
     3
 10
35.4408830487900417
 20
237.500000000000199
 30
0.0
 40
3.0
210
0.0
220
-0.0000000000000002
230
-1.0
 50
270.0
 51
356.235965135093295
  0
ARC
  5
EFEA
  8
0
  6
CONTINUOUS
 62
     3
 10
-35.440883048789928
 20
237.5000000000003126
 30
0.0
 40
3.0000000000000271
210
0.0
220
-0.0000000000000002
230
-1.0
 50
183.7640348649061934
 51
269.9999999999994884
  0
LINE
  5
EFEB
  8
0
  6
CONTINUOUS
 62
     3
 10
-38.4344116663022888
 20
237.3030573277953863
 30
-0.0000000000000527
 11
-39.5000000000000284
 21
253.500000000000199
 31
-0.0000000000000563
210
-0.0000000000000002
220
1.0
230
-0.0000000000000002
  0
LINE
  5
EFEC
  8
0
  6
CONTINUOUS
 62
     3
 10
38.4344116663022106
 20
237.3030573277955
 30
-0.0000000000000527
 11
39.4999999999999218
 21
253.500000000000199
 31
-0.0000000000000563
210
-0.0000000000000002
220
1.0
230
-0.0000000000000002
  0
LINE
  5
EFED
  8
0
  6
CONTINUOUS
 62
     3
 10
43.4999999999999503
 20
255.000000000000199
 30
-0.0000000000000566
 11
43.4999999999999503
 21
253.5000000000001137
 31
-0.0000000000000563
210
-0.0000000000000002
220
1.0
230
-0.0000000000000002
  0
LINE
  5
EFEE
  8
0
  6
CONTINUOUS
 62
     3
 10
-43.5000000000000568
 20
255.000000000000199
 30
-0.0000000000000566
 11
-43.5000000000000568
 21
253.5000000000001137
 31
-0.0000000000000563
210
-0.0000000000000002
220
1.0
230
-0.0000000000000002
  0
CIRCLE
  5
EFEF
  8
0
  6
CONTINUOUS
 62
     3
 10
-0.0000000000001374
 20
618.6045868912973447
 30
-0.0000000000001374
 40
35.2999999999999616
  0
CIRCLE
  5
EFF0
  8
0
  6
CONTINUOUS
 62
     3
 10
0.0000000000001374
 20
618.6045868912973447
 30
0.0
 40
36.5000000000000071
210
0.0
220
-0.0000000000000002
230
-1.0
  0
LINE
  5
EFF1
  8
0
  6
CONTINUOUS
 62
     3
 10
-35.8875793553186071
 20
445.0000000000001137
 30
-0.0000000000000988
 11
35.8875793553184081
 21
445.0000000000001137
 31
-0.0000000000000988
210
-0.0000000000000002
220
1.0
230
-0.0000000000000002
  0
LINE
  5
EFF2
  8
0
  6
CONTINUOUS
 62
     3
 10
-35.8875793553185716
 20
445.0000000000001137
 30
-0.0000000000000988
 11
-36.5000000000000568
 21
451.9999999999985221
 31
-0.0000000000001004
210
-0.0000000000000002
220
1.0
230
-0.0000000000000002
  0
LINE
  5
EFF3
  8
0
  6
CONTINUOUS
 62
     3
 10
35.8875793553183726
 20
445.0000000000001137
 30
-0.0000000000000988
 11
36.4999999999998579
 21
451.9999999999985221
 31
-0.0000000000001004
210
-0.0000000000000002
220
1.0
230
-0.0000000000000002
  0
LINE
  5
EFF4
  8
0
  6
CONTINUOUS
 62
     3
 10
36.4999999999998721
 20
618.6045868912973447
 30
-0.0000000000001374
 11
36.4999999999999076
 21
451.9999999999985221
 31
-0.0000000000001004
210
-0.0000000000000002
220
1.0
230
-0.0000000000000002
  0
LINE
  5
EFF5
  8
0
  6
CONTINUOUS
 62
     3
 10
-36.5000000000001492
 20
618.6045868912973447
 30
-0.0000000000001374
 11
-36.5000000000001066
 21
451.9999999999985221
 31
-0.0000000000001004
210
-0.0000000000000002
220
1.0
230
-0.0000000000000002
  0
LINE
  5
EFF6
  8
0
  6
CONTINUOUS
 62
     3
 10
-41.9000000000001833
 20
367.0000000000002274
 30
-0.0000000000000815
 11
41.9000000000000128
 21
367.0000000000002274
 31
-0.0000000000000815
210
-0.0000000000000002
220
1.0
230
-0.0000000000000002
  0
LINE
  5
EFF7
  8
0
  6
CONTINUOUS
 62
     3
 10
-40.5000000000000995
 20
368.4000000000000909
 30
-0.0000000000000818
 11
40.4999999999999076
 21
368.4000000000000909
 31
-0.0000000000000818
210
-0.0000000000000002
220
1.0
230
-0.0000000000000002
  0
LINE
  5
EFF8
  8
0
  6
CONTINUOUS
 62
     3
 10
-41.9000000000001833
 20
366.0000000000002274
 30
-0.0000000000000813
 11
41.9000000000000128
 21
366.0000000000002274
 31
-0.0000000000000813
210
-0.0000000000000002
220
1.0
230
-0.0000000000000002
  0
LINE
  5
EFF9
  8
0
  6
CONTINUOUS
 62
     3
 10
-40.500000000000199
 20
364.6000000000001933
 30
-0.000000000000081
 11
40.5000000000000284
 21
364.6000000000001933
 31
-0.000000000000081
210
-0.0000000000000002
220
1.0
230
-0.0000000000000002
  0
LINE
  5
EFFA
  8
0
  6
CONTINUOUS
 62
     3
 10
-40.500000000000199
 20
364.0000000000002274
 30
-0.0000000000000808
 11
40.5000000000000284
 21
364.0000000000002274
 31
-0.0000000000000808
210
-0.0000000000000002
220
1.0
230
-0.0000000000000002
  0
LINE
  5
EFFB
  8
0
  6
CONTINUOUS
 62
     3
 10
-42.8000000000001606
 20
360.0000000000002274
 30
-0.0000000000000799
 11
42.7999999999999901
 21
360.0000000000002274
 31
-0.0000000000000799
210
-0.0000000000000002
220
1.0
230
-0.0000000000000002
  0
LINE
  5
EFFC
  8
0
  6
CONTINUOUS
 62
     3
 10
-38.0000000000000924
 20
325.0000000000002274
 30
-0.0000000000000722
 11
37.9999999999999289
 21
325.0000000000002274
 31
-0.0000000000000722
210
-0.0000000000000002
220
1.0
230
-0.0000000000000002
  0
LINE
  5
EFFD
  8
0
  6
CONTINUOUS
 62
     3
 10
-40.8000000000001606
 20
380.0000000000002274
 30
-0.0000000000000844
 11
40.7999999999999829
 21
380.0000000000002274
 31
-0.0000000000000844
210
-0.0000000000000002
220
1.0
230
-0.0000000000000002
  0
LINE
  5
EFFE
  8
0
  6
CONTINUOUS
 62
     3
 10
-42.3000000000001677
 20
375.0000000000002274
 30
-0.0000000000000833
 11
42.2999999999999829
 21
375.0000000000002274
 31
-0.0000000000000833
210
-0.0000000000000002
220
1.0
230
-0.0000000000000002
  0
LINE
  5
EFFF
  8
0
  6
CONTINUOUS
 62
     3
 10
-40.5000000000000995
 20
369.505045161091175
 30
-0.000000000000082
 11
40.4999999999999076
 21
369.505045161091175
 31
-0.000000000000082
210
-0.0000000000000002
220
1.0
230
-0.0000000000000002
  0
LINE
  5
F000
  8
0
  6
CONTINUOUS
 62
     3
 10
40.4999999999999432
 20
368.4000000000000909
 30
-0.0000000000000818
 11
41.900000000000027
 21
367.0000000000002274
 31
-0.0000000000000815
210
-0.0000000000000002
220
1.0
230
-0.0000000000000002
  0
LINE
  5
F001
  8
0
  6
CONTINUOUS
 62
     3
 10
-40.5000000000001279
 20
368.4000000000000909
 30
-0.0000000000000818
 11
-41.9000000000002117
 21
367.0000000000002274
 31
-0.0000000000000815
210
-0.0000000000000002
220
1.0
230
-0.0000000000000002
  0
LINE
  5
F002
  8
0
  6
CONTINUOUS
 62
     3
 10
41.9000000000000128
 20
367.0000000000002274
 30
-0.0000000000000815
 11
41.9000000000000128
 21
366.0000000000002274
 31
-0.0000000000000813
210
-0.0000000000000002
220
1.0
230
-0.0000000000000002
  0
LINE
  5
F003
  8
0
  6
CONTINUOUS
 62
     3
 10
-41.9000000000001833
 20
367.0000000000002274
 30
-0.0000000000000815
 11
-41.9000000000001833
 21
366.0000000000002274
 31
-0.0000000000000813
210
-0.0000000000000002
220
1.0
230
-0.0000000000000002
  0
LINE
  5
F004
  8
0
  6
CONTINUOUS
 62
     3
 10
-40.500000000000199
 20
364.6000000000001933
 30
-0.000000000000081
 11
-41.9000000000001904
 21
366.0000000000002274
 31
-0.0000000000000813
210
-0.0000000000000002
220
1.0
230
-0.0000000000000002
  0
LINE
  5
F005
  8
0
  6
CONTINUOUS
 62
     3
 10
40.5000000000000284
 20
364.6000000000001933
 30
-0.000000000000081
 11
41.9000000000000199
 21
366.0000000000002274
 31
-0.0000000000000813
210
-0.0000000000000002
220
1.0
230
-0.0000000000000002
  0
LINE
  5
F006
  8
0
  6
CONTINUOUS
 62
     3
 10
40.5000000000000284
 20
364.6000000000001933
 30
-0.000000000000081
 11
40.5000000000000284
 21
364.0000000000002842
 31
-0.0000000000000808
210
-0.0000000000000002
220
1.0
230
-0.0000000000000002
  0
LINE
  5
F007
  8
0
  6
CONTINUOUS
 62
     3
 10
-40.5000000000002132
 20
364.6000000000001933
 30
-0.000000000000081
 11
-40.5000000000002132
 21
364.0000000000002842
 31
-0.0000000000000808
210
-0.0000000000000002
220
1.0
230
-0.0000000000000002
  0
LINE
  5
F008
  8
0
  6
CONTINUOUS
 62
     3
 10
40.5000000000000497
 20
364.0000000000002274
 30
-0.0000000000000808
 11
42.7999999999999901
 21
360.0000000000002274
 31
-0.0000000000000799
210
-0.0000000000000002
220
1.0
230
-0.0000000000000002
  0
LINE
  5
F009
  8
0
  6
CONTINUOUS
 62
     3
 10
-40.5000000000002132
 20
364.0000000000002274
 30
-0.0000000000000808
 11
-42.8000000000001393
 21
360.0000000000002274
 31
-0.0000000000000799
210
-0.0000000000000002
220
1.0
230
-0.0000000000000002
  0
LINE
  5
F00A
  8
0
  6
CONTINUOUS
 62
     3
 10
38.4999999999999289
 20
360.0000000000002274
 30
-0.0000000000000799
 11
38.4999999999999432
 21
330.9999999999997726
 31
-0.0000000000000735
210
-0.0000000000000002
220
1.0
230
-0.0000000000000002
  0
LINE
  5
F00B
  8
0
  6
CONTINUOUS
 62
     3
 10
-38.5000000000000782
 20
360.0000000000001137
 30
-0.0000000000000799
 11
-38.5000000000000782
 21
330.9999999999997726
 31
-0.0000000000000735
210
-0.0000000000000002
220
1.0
230
-0.0000000000000002
  0
LINE
  5
F00C
  8
0
  6
CONTINUOUS
 62
     3
 10
-38.0000000000000782
 20
325.0000000000002842
 30
-0.0000000000000722
 11
-38.5000000000000782
 21
330.9999999999997726
 31
-0.0000000000000735
210
-0.0000000000000002
220
1.0
230
-0.0000000000000002
  0
LINE
  5
F00D
  8
0
  6
CONTINUOUS
 62
     3
 10
37.9999999999999432
 20
325.0000000000002842
 30
-0.0000000000000722
 11
38.4999999999999432
 21
330.9999999999997726
 31
-0.0000000000000735
210
-0.0000000000000002
220
1.0
230
-0.0000000000000002
  0
ARC
  5
F00E
  8
0
  6
CONTINUOUS
 62
     3
 10
40.8000000000001819
 20
378.5000000000002274
 30
0.0
 40
1.4999999999999849
210
0.0
220
-0.0000000000000002
230
-1.0
 50
0.0
 51
90.0000000000005542
  0
ARC
  5
F00F
  8
0
  6
CONTINUOUS
 62
     3
 10
-40.7999999999999972
 20
378.5000000000002274
 30
0.0
 40
1.5
210
0.0
220
-0.0000000000000002
230
-1.0
 50
89.9999999999994458
 51
180.0
  0
LINE
  5
F010
  8
0
  6
CONTINUOUS
 62
     3
 10
42.2999999999999829
 20
378.5000000000002274
 30
-0.000000000000084
 11
42.2999999999999829
 21
375.0000000000002274
 31
-0.0000000000000833
210
-0.0000000000000002
220
1.0
230
-0.0000000000000002
  0
LINE
  5
F011
  8
0
  6
CONTINUOUS
 62
     3
 10
-42.3000000000001677
 20
378.5000000000002274
 30
-0.000000000000084
 11
-42.3000000000001677
 21
375.0000000000002274
 31
-0.0000000000000833
210
-0.0000000000000002
220
1.0
230
-0.0000000000000002
  0
ARC
  5
F012
  8
0
  6
CONTINUOUS
 62
     3
 10
39.2140740033712234
 20
374.5000000000002274
 30
0.0
 40
0.500000000000057
210
0.0
220
-0.0000000000000002
230
-1.0
 50
89.9999999999983373
 51
199.9999999999888871
  0
ARC
  5
F013
  8
0
  6
CONTINUOUS
 62
     3
 10
-39.2140740033710387
 20
374.5000000000002274
 30
0.0
 40
0.5000000000000164
210
0.0
220
-0.0000000000000002
230
-1.0
 50
340.0000000000110276
 51
90.0000000000016058
  0
LINE
  5
F014
  8
0
  6
CONTINUOUS
 62
     3
 10
38.7442276929780505
 20
374.3289899283374211
 30
-0.0000000000000831
 11
40.4999999999999218
 21
369.5050451610911182
 31
-0.000000000000082
210
-0.0000000000000002
220
1.0
230
-0.0000000000000002
  0
LINE
  5
F015
  8
0
  6
CONTINUOUS
 62
     3
 10
-38.7442276929782281
 20
374.3289899283374211
 30
-0.0000000000000831
 11
-40.5000000000001066
 21
369.5050451610911182
 31
-0.000000000000082
210
-0.0000000000000002
220
1.0
230
-0.0000000000000002
  0
LINE
  5
F016
  8
0
  6
CONTINUOUS
 62
     3
 10
40.4999999999999076
 20
369.5050451610911182
 30
-0.000000000000082
 11
40.4999999999999076
 21
368.4000000000000909
 31
-0.0000000000000818
210
-0.0000000000000002
220
1.0
230
-0.0000000000000002
  0
LINE
  5
F017
  8
0
  6
CONTINUOUS
 62
     3
 10
-40.5000000000000995
 20
369.5050451610911182
 30
-0.000000000000082
 11
-40.5000000000000995
 21
368.4000000000000909
 31
-0.0000000000000818
210
-0.0000000000000002
220
1.0
230
-0.0000000000000002
  0
LINE
  5
F018
  8
0
  6
VERDECKT
 62
     1
 10
34.3932873081809305
 20
0.1307336141214917
 30
0.0
 11
-34.3932873081808879
 21
0.1307336141214722
 31
0.0
210
-0.0000000000000002
220
1.0
230
-0.0000000000000002
  0
LINE
  5
F019
  8
0
  6
VERDECKT
 62
     1
 10
37.8999999999999631
 20
169.3660726073889862
 30
-0.0000000000000376
 11
-37.9000000000000128
 21
169.3660726073889862
 31
-0.0000000000000376
210
-0.0000000000000002
220
1.0
230
-0.0000000000000002
  0
LINE
  5
F01A
  8
0
  6
VERDECKT
 62
     1
 10
-34.9999999999999929
 20
7.0654914143614107
 30
-0.0000000000000016
 11
-35.0000000000000213
 21
110.5069422202888063
 31
-0.0000000000000245
210
-0.0000000000000002
220
1.0
230
-0.0000000000000002
  0
LINE
  5
F01B
  8
0
  6
VERDECKT
 62
     1
 10
35.0000000000000284
 20
7.0654914143614311
 30
-0.0000000000000016
 11
35.0
 21
110.5069422202888063
 31
-0.0000000000000245
210
-0.0000000000000002
220
1.0
230
-0.0000000000000002
  0
LINE
  5
F01C
  8
0
  6
VERDECKT
 62
     1
 10
-34.3932873081809021
 20
0.1307336141214712
 30
0.0
 11
-35.0000000000001066
 21
7.0654914143614107
 31
-0.0000000000000016
210
-0.0000000000000002
220
1.0
230
-0.0000000000000002
  0
LINE
  5
F01D
  8
0
  6
VERDECKT
 62
     1
 10
34.3932873081809376
 20
0.1307336141214909
 30
0.0
 11
35.0000000000001492
 21
7.0654914143614311
 31
-0.0000000000000016
210
-0.0000000000000002
220
1.0
230
-0.0000000000000002
  0
LINE
  5
F01E
  8
0
  6
VERDECKT
 62
     1
 10
34.3932873081809305
 20
0.1307336141214917
 30
0.0
 11
35.8875793553185432
 21
0.0000000000000102
 31
0.0
210
-0.0000000000000002
220
1.0
230
-0.0000000000000002
  0
LINE
  5
F01F
  8
0
  6
VERDECKT
 62
     1
 10
-34.3932873081808879
 20
0.1307336141214722
 30
0.0
 11
-35.8875793553184934
 21
-0.0000000000000102
 31
0.0
210
-0.0000000000000002
220
1.0
230
-0.0000000000000002
  0
ARC
  5
F020
  8
0
  6
VERDECKT
 62
     1
 10
-16.2705343039314911
 20
154.6392734874035
 30
0.0
 40
24.129465696068479
210
0.0
220
-0.0000000000000002
230
-1.0
 50
179.9999999999992042
 51
190.3489560496005026
  0
ARC
  5
F021
  8
0
  6
VERDECKT
 62
     1
 10
16.2705343039306705
 20
154.6392734874036137
 30
0.0
 40
24.1294656960693601
210
0.0
220
-0.0000000000000002
230
-1.0
 50
349.6510439503995258
 51
0.0000000000005343
  0
ARC
  5
F022
  8
0
  6
VERDECKT
 62
     1
 10
-17.6632712343688212
 20
154.3849407819002977
 30
0.0
 40
22.7136969005045408
210
0.0
220
-0.0000000000000002
230
-1.0
 50
190.3489560496014121
 51
201.1668520397892905
  0
ARC
  5
F023
  8
0
  6
VERDECKT
 62
     1
 10
17.663271234367361
 20
154.3849407819006956
 30
0.0
 40
22.7136969005061005
210
0.0
220
-0.0000000000000002
230
-1.0
 50
338.8331479602110221
 51
349.6510439503981047
  0
ARC
  5
F024
  8
0
  6
VERDECKT
 62
     1
 10
-51.9000000000007518
 20
141.1281710573136081
 30
0.0
 40
14.0000000000006697
210
0.0
220
-0.0000000000000002
230
-1.0
 50
0.0000000000012722
 51
21.1668520397846187
  0
ARC
  5
F025
  8
0
  6
VERDECKT
 62
     1
 10
51.9000000000007873
 20
141.1281710573136081
 30
0.0
 40
14.0000000000006697
210
0.0
220
-0.0000000000000002
230
-1.0
 50
158.8331479602153138
 51
179.9999999999986073
  0
LINE
  5
F026
  8
0
  6
VERDECKT
 62
     1
 10
-37.9000000000001194
 20
120.8515060100288991
 30
-0.0000000000000268
 11
-37.9000000000001194
 21
141.1281710573138071
 31
-0.0000000000000313
210
-0.0000000000000002
220
1.0
230
-0.0000000000000002
  0
LINE
  5
F027
  8
0
  6
VERDECKT
 62
     1
 10
37.9000000000000767
 20
120.8515060100288991
 30
-0.0000000000000268
 11
37.9000000000000767
 21
141.1281710573138071
 31
-0.0000000000000313
210
-0.0000000000000002
220
1.0
230
-0.0000000000000002
  0
ARC
  5
F028
  8
0
  6
VERDECKT
 62
     1
 10
-27.4999999999993108
 20
120.8515060100290981
 30
0.0
 40
10.4000000000006594
210
0.0
220
-0.0000000000000002
230
-1.0
 50
180.0000000000009095
 51
211.3206695884111923
  0
ARC
  5
F029
  8
0
  6
VERDECKT
 62
     1
 10
27.4999999999993392
 20
120.8515060100290981
 30
0.0
 40
10.4000000000006594
210
0.0
220
-0.0000000000000002
230
-1.0
 50
328.679330411588694
 51
359.9999999999989768
  0
ARC
  5
F02A
  8
0
  6
VERDECKT
 62
     1
 10
-44.5000000000011227
 20
110.5069422202885931
 30
0.0
 40
9.5000000000011173
210
0.0
220
-0.0000000000000002
230
-1.0
 50
0.0000000000013613
 51
31.3206695884116186
  0
ARC
  5
F02B
  8
0
  6
VERDECKT
 62
     1
 10
44.5000000000011227
 20
110.5069422202885931
 30
0.0
 40
9.5000000000011209
210
0.0
220
-0.0000000000000002
230
-1.0
 50
148.6793304115882961
 51
179.9999999999986073
  0
LINE
  5
F02C
  8
0
  6
VERDECKT
 62
     1
 10
-37.9000000000000128
 20
169.3660726073889862
 30
-0.0000000000000376
 11
-39.2594616805549066
 21
170.0000000000001137
 31
-0.0000000000000377
210
-0.0000000000000002
220
1.0
230
-0.0000000000000002
  0
LINE
  5
F02D
  8
0
  6
VERDECKT
 62
     1
 10
37.8999999999999702
 20
169.3660726073889862
 30
-0.0000000000000376
 11
39.2594616805548711
 21
170.0000000000001137
 31
-0.0000000000000377
210
-0.0000000000000002
220
1.0
230
-0.0000000000000002
  0
LINE
  5
F02E
  8
0
  6
VERDECKT
 62
     1
 10
37.8999999999999631
 20
169.3660726073889862
 30
-0.0000000000000376
 11
38.2076022166576124
 21
168.7064175250027063
 31
-0.0000000000000375
210
-0.0000000000000002
220
1.0
230
-0.0000000000000002
  0
LINE
  5
F02F
  8
0
  6
VERDECKT
 62
     1
 10
-37.9000000000000128
 20
169.3660726073889862
 30
-0.0000000000000376
 11
-38.2076022166576479
 21
168.7064175250027063
 31
-0.0000000000000375
210
-0.0000000000000002
220
1.0
230
-0.0000000000000002
  0
ARC
  5
F030
  8
0
  6
VERDECKT
 62
     1
 10
-17.0000000000205098
 20
158.8171502002778936
 30
0.0
 40
23.3999999999782098
210
0.0
220
-0.0000000000000002
230
-1.0
 50
154.9999999999955946
 51
180.0000000000190994
  0
ARC
  5
F031
  8
0
  6
VERDECKT
 62
     1
 10
17.0000000000205489
 20
158.8171502002778936
 30
0.0
 40
23.3999999999781991
210
0.0
220
-0.0000000000000002
230
-1.0
 50
359.9999999999807869
 51
25.0000000000043308
  0
LINE
  5
F032
  8
0
  6
VERDECKT
 62
     1
 10
-40.3999999999994373
 20
154.6392734874038126
 30
-0.0000000000000343
 11
-40.3999999999994373
 21
158.8171502002699924
 31
-0.0000000000000353
210
-0.0000000000000002
220
1.0
230
-0.0000000000000002
  0
LINE
  5
F033
  8
0
  6
VERDECKT
 62
     1
 10
40.3999999999993875
 20
154.6392734874038126
 30
-0.0000000000000343
 11
40.3999999999993875
 21
158.8171502002699924
 31
-0.0000000000000353
210
-0.0000000000000002
220
1.0
230
-0.0000000000000002
  0
LINE
  5
F034
  8
0
  6
VERDECKT
 62
     1
 10
-35.90906920732494
 20
236.000000000000199
 30
-0.0000000000000524
 11
-0.0000000000000453
 21
236.000000000000199
 31
-0.0000000000000524
210
-0.0000000000000002
220
1.0
230
-0.0000000000000002
  0
LINE
  5
F035
  8
0
  6
VERDECKT
 62
     1
 10
-0.0000000000000424
 20
236.000000000000199
 30
-0.0000000000000524
 11
35.9090692073248832
 21
236.000000000000199
 31
-0.0000000000000524
210
-0.0000000000000002
220
1.0
230
-0.0000000000000002
  0
ARC
  5
F036
  8
0
  6
VERDECKT
 62
     1
 10
38.5636276829299831
 20
254.500000000000199
 30
0.0
 40
0.5000000000000001
210
0.0
220
-0.0000000000000002
230
-1.0
 50
89.9999999999991758
 51
176.2359651350946876
  0
ARC
  5
F037
  8
0
  6
VERDECKT
 62
     1
 10
-38.5636276829298694
 20
254.500000000000199
 30
0.0
 40
0.4999999999999898
210
0.0
220
-0.0000000000000002
230
-1.0
 50
3.764034864905287
 51
90.00000000000081
  0
LINE
  5
F038
  8
0
  6
VERDECKT
 62
     1
 10
-36.9069120798290484
 20
236.9343524425985947
 30
-0.0000000000000526
 11
-38.0647062466779431
 21
254.5328237787009868
 31
-0.0000000000000565
210
-0.0000000000000002
220
1.0
230
-0.0000000000000002
  0
LINE
  5
F039
  8
0
  6
VERDECKT
 62
     1
 10
36.9069120798289632
 20
236.9343524425985947
 30
-0.0000000000000526
 11
38.0647062466778365
 21
254.5328237787009868
 31
-0.0000000000000565
210
-0.0000000000000002
220
1.0
230
-0.0000000000000002
  0
ARC
  5
F03A
  8
0
  6
VERDECKT
 62
     1
 10
35.9090692073249471
 20
237.0000000000001137
 30
0.0
 40
1.0
210
0.0
220
-0.0000000000000002
230
-1.0
 50
270.0000000000007958
 51
356.2359651350947729
  0
ARC
  5
F03B
  8
0
  6
VERDECKT
 62
     1
 10
-35.9090692073248618
 20
237.0000000000001137
 30
0.0
 40
1.000000000000014
210
0.0
220
-0.0000000000000002
230
-1.0
 50
183.7640348649051134
 51
269.9999999999992042
  0
LINE
  5
F03C
  8
0
  6
VERDECKT
 62
     1
 10
-34.6921457176085823
 20
445.1045868912974015
 30
-0.0000000000000988
 11
34.6921457176083834
 21
445.1045868912974015
 31
-0.0000000000000988
210
-0.0000000000000002
220
1.0
230
-0.0000000000000002
  0
LINE
  5
F03D
  8
0
  6
VERDECKT
 62
     1
 10
34.6921457176083834
 20
445.1045868912974015
 30
-0.0000000000000988
 11
35.8875793553184081
 21
445.0000000000001137
 31
-0.0000000000000988
210
-0.0000000000000002
220
1.0
230
-0.0000000000000002
  0
LINE
  5
F03E
  8
0
  6
VERDECKT
 62
     1
 10
-34.6921457176085823
 20
445.1045868912974015
 30
-0.0000000000000988
 11
-35.8875793553186071
 21
445.0000000000001137
 31
-0.0000000000000988
210
-0.0000000000000002
220
1.0
230
-0.0000000000000002
  0
LINE
  5
F03F
  8
0
  6
VERDECKT
 62
     1
 10
-34.6921457176085184
 20
445.1045868912974015
 30
-0.0000000000000988
 11
-35.3000000000000114
 21
452.0523931314872925
 31
-0.0000000000001004
210
-0.0000000000000002
220
1.0
230
-0.0000000000000002
  0
LINE
  5
F040
  8
0
  6
VERDECKT
 62
     1
 10
34.6921457176083194
 20
445.1045868912974015
 30
-0.0000000000000988
 11
35.2999999999998124
 21
452.0523931314872925
 31
-0.0000000000001004
210
-0.0000000000000002
220
1.0
230
-0.0000000000000002
  0
LINE
  5
F041
  8
0
  6
VERDECKT
 62
     1
 10
35.2999999999998195
 20
618.6045868912973447
 30
-0.0000000000001374
 11
35.2999999999998622
 21
452.0523931314872925
 31
-0.0000000000001004
210
-0.0000000000000002
220
1.0
230
-0.0000000000000002
  0
LINE
  5
F042
  8
0
  6
VERDECKT
 62
     1
 10
-35.3000000000000966
 20
618.6045868912973447
 30
-0.0000000000001374
 11
-35.3000000000000611
 21
452.0523931314872925
 31
-0.0000000000001004
210
-0.0000000000000002
220
1.0
230
-0.0000000000000002
  0
LINE
  5
F043
  8
0
  6
VERDECKT
 62
     1
 10
-37.0000000000000995
 20
374.0000000000001137
 30
-0.000000000000083
 11
36.9999999999999218
 21
374.0000000000001137
 31
-0.000000000000083
210
-0.0000000000000002
220
1.0
230
-0.0000000000000002
  0
LINE
  5
F044
  8
0
  6
VERDECKT
 62
     1
 10
40.172763368164091
 20
361.5328179858482258
 30
-0.0000000000000803
 11
40.9999999999999289
 21
360.0000000000002274
 31
-0.0000000000000799
210
-0.0000000000000002
220
1.0
230
-0.0000000000000002
  0
LINE
  5
F045
  8
0
  6
VERDECKT
 62
     1
 10
-40.1727633681642473
 20
361.5328179858482258
 30
-0.0000000000000803
 11
-41.0000000000000782
 21
360.0000000000002274
 31
-0.0000000000000799
210
-0.0000000000000002
220
1.0
230
-0.0000000000000002
  0
ARC
  5
F046
  8
0
  6
VERDECKT
 62
     1
 10
39.389757428815912
 20
361.1102425711844148
 30
0.0
 40
0.8897574288158073
210
0.0
220
-0.0000000000000002
230
-1.0
 50
28.3550060284090684
 51
90.0000000000004547
  0
ARC
  5
F047
  8
0
  6
VERDECKT
 62
     1
 10
39.389757428815841
 20
361.1102425711844148
 30
0.0
 40
0.8897574288157558
210
0.0
220
-0.0000000000000002
230
-1.0
 50
89.9999999999963194
 51
180.0000000000036096
  0
ARC
  5
F048
  8
0
  6
VERDECKT
 62
     1
 10
-39.3897574288156918
 20
361.1102425711844148
 30
0.0
 40
0.8897574288157558
210
0.0
220
-0.0000000000000002
230
-1.0
 50
359.9999999999964189
 51
90.0000000000036522
  0
ARC
  5
F049
  8
0
  6
VERDECKT
 62
     1
 10
-39.3897574288157486
 20
361.1102425711844148
 30
0.0
 40
0.8897574288158127
210
0.0
220
-0.0000000000000002
230
-1.0
 50
89.999999999999531
 51
151.6449939715909068
  0
LINE
  5
F04A
  8
0
  6
VERDECKT
 62
     1
 10
39.3897574288157415
 20
362.0000000000002274
 30
-0.0000000000000804
 11
-39.3897574288158978
 21
362.0000000000002274
 31
-0.0000000000000804
210
-0.0000000000000002
220
1.0
230
-0.0000000000000002
  0
LINE
  5
F04B
  8
0
  6
VERDECKT
 62
     1
 10
38.4999999999999289
 20
361.1102425711844148
 30
-0.0000000000000802
 11
38.4999999999999289
 21
360.0000000000002274
 31
-0.0000000000000799
210
-0.0000000000000002
220
1.0
230
-0.0000000000000002
  0
LINE
  5
F04C
  8
0
  6
VERDECKT
 62
     1
 10
-38.5000000000000782
 20
361.1102425711844148
 30
-0.0000000000000802
 11
-38.5000000000000782
 21
360.0000000000001137
 31
-0.0000000000000799
210
-0.0000000000000002
220
1.0
230
-0.0000000000000002
  0
ARC
  5
F04D
  8
0
  6
VERDECKT
 62
     1
 10
38.0000000000001421
 20
326.5000000000002842
 30
0.0
 40
1.500000000000042
210
0.0
220
-0.0000000000000002
230
-1.0
 50
146.4426902380791944
 51
269.9999999999977831
  0
ARC
  5
F04E
  8
0
  6
VERDECKT
 62
     1
 10
-37.9999999999999929
 20
326.5000000000002842
 30
0.0
 40
1.5000000000000571
210
0.0
220
-0.0000000000000002
230
-1.0
 50
270.0
 51
33.5573097619184892
  0
ARC
  5
F04F
  8
0
  6
VERDECKT
 62
     1
 10
35.4999999999999929
 20
328.1583123951779726
 30
0.0
 40
1.500000000000091
210
0.0
220
-0.0000000000000002
230
-1.0
 50
326.4426902380780007
 51
359.9999999999977831
  0
ARC
  5
F050
  8
0
  6
VERDECKT
 62
     1
 10
-35.4999999999998508
 20
328.1583123951779726
 30
0.0
 40
1.5000000000000919
210
0.0
220
-0.0000000000000002
230
-1.0
 50
180.0000000000019895
 51
213.5573097619219993
  0
LINE
  5
F051
  8
0
  6
VERDECKT
 62
     1
 10
36.9999999999999929
 20
357.401923788647025
 30
-0.0000000000000794
 11
36.9999999999999929
 21
328.1583123951779157
 31
-0.0000000000000729
210
-0.0000000000000002
220
1.0
230
-0.0000000000000002
  0
LINE
  5
F052
  8
0
  6
VERDECKT
 62
     1
 10
-37.0000000000001421
 20
357.401923788647025
 30
-0.0000000000000794
 11
-37.0000000000001279
 21
328.1583123951779157
 31
-0.0000000000000729
210
-0.0000000000000002
220
1.0
230
-0.0000000000000002
  0
ARC
  5
F053
  8
0
  6
VERDECKT
 62
     1
 10
35.5000000000003126
 20
357.401923788647025
 30
0.0
 40
1.4999999999999001
210
0.0
220
-0.0000000000000002
230
-1.0
 50
0.0000000000021628
 51
60.0000000000021387
  0
ARC
  5
F054
  8
0
  6
VERDECKT
 62
     1
 10
-35.5000000000001492
 20
357.401923788647025
 30
0.0
 40
1.499999999999869
210
0.0
220
-0.0000000000000002
230
-1.0
 50
119.9999999999977973
 51
179.9999999999978115
  0
ARC
  5
F055
  8
0
  6
VERDECKT
 62
     1
 10
37.0000000000002416
 20
360.0000000000002274
 30
0.0
 40
1.5000000000000331
210
0.0
220
-0.0000000000000002
230
-1.0
 50
131.8103148957789017
 51
239.999999999997101
  0
ARC
  5
F056
  8
0
  6
VERDECKT
 62
     1
 10
-37.0000000000000924
 20
360.0000000000002274
 30
0.0
 40
1.5000000000000111
210
0.0
220
-0.0000000000000002
230
-1.0
 50
300.0000000000027853
 51
48.1896851042210912
  0
ARC
  5
F057
  8
0
  6
VERDECKT
 62
     1
 10
33.9999999999998366
 20
363.3541019662500844
 30
0.0
 40
3.0000000000003699
210
0.0
220
-0.0000000000000002
230
-1.0
 50
311.8103148957820849
 51
359.9999999999977831
  0
ARC
  5
F058
  8
0
  6
VERDECKT
 62
     1
 10
-33.9999999999996874
 20
363.3541019662500844
 30
0.0
 40
3.0000000000003562
210
0.0
220
-0.0000000000000002
230
-1.0
 50
180.0000000000021032
 51
228.1896851042178866
  0
LINE
  5
F059
  8
0
  6
VERDECKT
 62
     1
 10
36.9999999999999716
 20
374.0000000000001137
 30
-0.000000000000083
 11
36.9999999999999787
 21
363.3541019662500275
 31
-0.0000000000000807
210
-0.0000000000000002
220
1.0
230
-0.0000000000000002
  0
LINE
  5
F05A
  8
0
  6
VERDECKT
 62
     1
 10
-37.0000000000001634
 20
374.0000000000001137
 30
-0.000000000000083
 11
-37.0000000000001492
 21
363.3541019662500275
 31
-0.0000000000000807
210
-0.0000000000000002
220
1.0
230
-0.0000000000000002
  0
LINE
  5
F05B
  8
0
  6
VERDECKT
 62
     1
 10
-37.0000000000000995
 20
374.0000000000001137
 30
-0.000000000000083
 11
-37.9122537624159506
 21
379.1736481776670757
 31
-0.0000000000000842
210
-0.0000000000000002
220
1.0
230
-0.0000000000000002
  0
LINE
  5
F05C
  8
0
  6
VERDECKT
 62
     1
 10
36.9999999999999218
 20
374.0000000000001137
 30
-0.000000000000083
 11
37.9122537624157587
 21
379.1736481776670757
 31
-0.0000000000000842
210
-0.0000000000000002
220
1.0
230
-0.0000000000000002
  0
ARC
  5
F05D
  8
0
  6
VERDECKT
 62
     1
 10
38.8970615154280921
 20
379.0000000000002274
 30
0.0
 40
1.0
210
0.0
220
-0.0000000000000002
230
-1.0
 50
89.9999999999967315
 51
169.9999999999944009
  0
ARC
  5
F05E
  8
0
  6
VERDECKT
 62
     1
 10
-38.8970615154279074
 20
379.0000000000002274
 30
0.0
 40
0.9999999999999571
210
0.0
220
-0.0000000000000002
230
-1.0
 50
10.0000000000055902
 51
90.0000000000032543
  0
ENDBLK
  5
F060
  8
0
  0
ENDSEC
  0
SECTION
  2
ENTITIES
  0
TEXT
  5
A55
  8
TEXT
 62
     1
 10
790.1294755517468502
 20
62.9470459695668723
 30
0.0
 40
7.0
  1

 41
0.8
  7
GREEKS
 72
     1
 11
790.1294755517468502
 21
62.9470459695668723
 31
0.0
  0
INSERT
  5
30AA
  8
ADSK_ASSOC_ENTITY_BACKUPS
  2
*S0
 10
0.0
 20
0.0
 30
0.0
  0
INSERT
  5
EFC8
  8
STEMPEL
  2
A$C3E2DD676
 10
-133.8000000000002103
 20
0.0
 30
0.0
  0
INSERT
  5
F061
  8
STEMPEL
  2
A$C4BE0CDB0
 10
0.0
 20
0.0
 30
0.0
  0
VIEWPORT
  5
2672
 67
     1
  8
0
 10
205.7117805017205114
 20
145.4660656388541042
 30
0.0
 40
558.2924048900665639
 41
298.840176673062615
 68
     1
 69
     1
1001
ACAD
1000
MVIEW
1002
{
1070
    16
1010
0.0
1020
0.0
1030
0.0
1010
0.0
1020
0.0
1030
1.0
1040
0.0
1040
298.840176673062615
1040
205.7117805017205114
1040
145.4660656388541042
1040
50.0
1040
0.0
1040
0.0
1070
     0
1070
  1500
1070
     1
1070
     1
1070
     0
1070
     0
1070
     0
1070
     0
1040
0.0
1040
0.0
1040
0.0
1040
10.0
1040
10.0
1040
10.0
1040
10.0
1070
     0
1002
{
1002
}
1002
}
  0
ENDSEC
  0
EOF
