  0
SECTION
  2
HEADER
  9
$ACADVER
  1
AC1009
  9
$INSBASE
 10
0.0
 20
0.0
 30
0.0
  9
$EXTMIN
 10
-143.8000000000000966
 20
-0.0000000000000147
 30
-0.0000000000001243
  9
$EXTMAX
 10
31.9999999999999183
 20
560.0000000000002274
 30
0.0
  9
$LIMMIN
 10
0.0
 20
0.0
  9
$LIMMAX
 10
594.0000000000002274
 20
840.0
  9
$ORTHOMODE
 70
     1
  9
$REGENMODE
 70
     1
  9
$FILLMODE
 70
     1
  9
$QTEXTMODE
 70
     0
  9
$MIRRTEXT
 70
     1
  9
$DRAGMODE
 70
     2
  9
$LTSCALE
 40
20.0
  9
$OSMODE
 70
  2559
  9
$ATTMODE
 70
     1
  9
$TEXTSIZE
 40
3.5
  9
$TRACEWID
 40
1.0
  9
$TEXTSTYLE
  7
STANDARD
  9
$CLAYER
  8
STEMPEL
  9
$CELTYPE
  6
BYLAYER
  9
$CECOLOR
 62
   256
  9
$DIMSCALE
 40
1.0
  9
$DIMASZ
 40
3.5
  9
$DIMEXO
 40
1.0
  9
$DIMDLI
 40
7.0
  9
$DIMRND
 40
0.0
  9
$DIMDLE
 40
0.0
  9
$DIMEXE
 40
1.0
  9
$DIMTP
 40
0.0
  9
$DIMTM
 40
0.0
  9
$DIMTXT
 40
3.5
  9
$DIMCEN
 40
1.5
  9
$DIMTSZ
 40
0.0
  9
$DIMTOL
 70
     0
  9
$DIMLIM
 70
     0
  9
$DIMTIH
 70
     0
  9
$DIMTOH
 70
     0
  9
$DIMSE1
 70
     0
  9
$DIMSE2
 70
     0
  9
$DIMTAD
 70
     1
  9
$DIMZIN
 70
     8
  9
$DIMBLK
  1

  9
$DIMASO
 70
     1
  9
$DIMSHO
 70
     0
  9
$DIMPOST
  1

  9
$DIMAPOST
  1

  9
$DIMALT
 70
     0
  9
$DIMALTD
 70
     2
  9
$DIMALTF
 40
25.3999999999999986
  9
$DIMLFAC
 40
2.0
  9
$DIMTOFL
 70
     1
  9
$DIMTVP
 40
0.0
  9
$DIMTIX
 70
     0
  9
$DIMSOXD
 70
     0
  9
$DIMSAH
 70
     0
  9
$DIMBLK1
  1

  9
$DIMBLK2
  1

  9
$DIMSTYLE
  2
STANDARD
  9
$DIMCLRD
 70
     0
  9
$DIMCLRE
 70
     0
  9
$DIMCLRT
 70
     1
  9
$DIMTFAC
 40
0.5
  9
$DIMGAP
 40
1.5
  9
$LUNITS
 70
     2
  9
$LUPREC
 70
     2
  9
$SKETCHINC
 40
1.0
  9
$FILLETRAD
 40
6.0
  9
$AUNITS
 70
     0
  9
$AUPREC
 70
     0
  9
$MENU
  1
ACAD
  9
$ELEVATION
 40
0.0
  9
$PELEVATION
 40
0.0
  9
$THICKNESS
 40
0.0
  9
$LIMCHECK
 70
     0
  9
$BLIPMODE
 70
     0
  9
$CHAMFERA
 40
0.0
  9
$CHAMFERB
 40
0.0
  9
$SKPOLY
 70
     0
  9
$TDCREATE
 40
2455397.867048610933125
  9
$TDUPDATE
 40
2458885.4231712957844138
  9
$TDINDWG
 40
2.9978379282000001
  9
$TDUSRTIMER
 40
2.9978379282000001
  9
$USRTIMER
 70
     1
  9
$ANGBASE
 50
0.0
  9
$ANGDIR
 70
     0
  9
$PDMODE
 70
     0
  9
$PDSIZE
 40
0.0
  9
$PLINEWID
 40
0.0
  9
$COORDS
 70
     1
  9
$SPLFRAME
 70
     0
  9
$SPLINETYPE
 70
     6
  9
$SPLINESEGS
 70
     8
  9
$ATTDIA
 70
     1
  9
$ATTREQ
 70
     1
  9
$HANDLING
 70
     1
  9
$HANDSEED
  5
F1CE
  9
$SURFTAB1
 70
     6
  9
$SURFTAB2
 70
     6
  9
$SURFTYPE
 70
     6
  9
$SURFU
 70
     6
  9
$SURFV
 70
     6
  9
$UCSNAME
  2

  9
$UCSORG
 10
0.0
 20
0.0
 30
0.0
  9
$UCSXDIR
 10
1.0
 20
0.0
 30
0.0
  9
$UCSYDIR
 10
0.0
 20
1.0
 30
0.0
  9
$PUCSNAME
  2

  9
$PUCSORG
 10
0.0
 20
0.0
 30
0.0
  9
$PUCSXDIR
 10
1.0
 20
0.0
 30
0.0
  9
$PUCSYDIR
 10
0.0
 20
1.0
 30
0.0
  9
$USERI1
 70
     0
  9
$USERI2
 70
     0
  9
$USERI3
 70
     0
  9
$USERI4
 70
     0
  9
$USERI5
 70
     0
  9
$USERR1
 40
0.0
  9
$USERR2
 40
0.0
  9
$USERR3
 40
0.0
  9
$USERR4
 40
0.0
  9
$USERR5
 40
0.0
  9
$WORLDVIEW
 70
     1
  9
$SHADEDGE
 70
     3
  9
$SHADEDIF
 70
    70
  9
$TILEMODE
 70
     1
  9
$MAXACTVP
 70
    16
  9
$PLIMCHECK
 70
     0
  9
$PEXTMIN
 10
1.0000000000000000E+20
 20
1.0000000000000000E+20
 30
1.0000000000000000E+20
  9
$PEXTMAX
 10
-1.0000000000000000E+20
 20
-1.0000000000000000E+20
 30
-1.0000000000000000E+20
  9
$PLIMMIN
 10
-4.5326673356396894
 20
-3.1961862395036729
  9
$PLIMMAX
 10
415.9600466401856806
 20
294.1283175172118831
  9
$UNITMODE
 70
     0
  9
$VISRETAIN
 70
     0
  9
$PLINEGEN
 70
     0
  9
$PSLTSCALE
 70
     0
  0
ENDSEC
  0
SECTION
  2
TABLES
  0
TABLE
  2
VPORT
 70
     1
  0
VPORT
  2
*ACTIVE
 70
     0
 10
0.0
 20
0.0
 11
1.0
 21
1.0
 12
-55.9000000000000909
 22
0.0000000000001137
 13
0.0
 23
0.0
 14
1.0
 24
1.0
 15
10.0
 25
10.0
 16
0.0000000000003219
 26
0.0
 36
1449.5228448165639747
 17
0.0
 27
280.0
 37
-0.0000000000000622
 40
562.854715378079959
 41
1.868197278911564
 42
50.0
 43
0.0
 44
0.0
 50
0.0
 51
0.0
 71
     0
 72
  1500
 73
     1
 74
     1
 75
     0
 76
     0
 77
     0
 78
     0
  0
ENDTAB
  0
TABLE
  2
LTYPE
 70
     5
  0
LTYPE
  2
CONTINUOUS
 70
     0
  3
Solid line
 72
    65
 73
     0
 40
0.0
  0
LTYPE
  2
STRICHPUNKT
 70
     0
  3
__ . __ . __ . __ . __ . __ . __ . __ . __ . __
 72
    65
 73
     4
 40
1.0
 49
0.5
 49
-0.25
 49
0.0
 49
-0.25
  0
LTYPE
  2
AUSGEZOGEN
 70
     0
  3
Ausgezogene Linie
 72
    65
 73
     0
 40
0.0
  0
LTYPE
  2
VERDECKT
 70
     0
  3
Verdeckt __ __ __ __ __ __ __ __ __ __ __ __ __
 72
    65
 73
     2
 40
0.375
 49
0.25
 49
-0.125
  0
ENDTAB
  0
TABLE
  2
LAYER
 70
    17
  0
LAYER
  2
0
 70
     0
 62
     7
  6
CONTINUOUS
  0
LAYER
  2
STEMPEL
 70
     0
 62
     3
  6
CONTINUOUS
  0
LAYER
  2
TEXT
 70
     0
 62
     7
  6
CONTINUOUS
  0
LAYER
  2
DEFPOINTS
 70
     0
 62
     7
  6
CONTINUOUS
  0
LAYER
  2
ADSK_ASSOC_ENTITY_BACKUPS
 70
     1
 62
    -7
  6
CONTINUOUS
  0
ENDTAB
  0
TABLE
  2
STYLE
 70
     3
  0
STYLE
  2
STANDARD
 70
     0
 40
0.0
 41
0.8
 50
0.0
 71
     0
 42
3.5
  3
simplex.shx
  4

  0
STYLE
  2
GREEKS
 70
     0
 40
0.0
 41
0.8
 50
0.0
 71
     0
 42
2.5
  3
SIMPLEX.shx
  4

  0
ENDTAB
  0
TABLE
  2
VIEW
 70
     1
  0
ENDTAB
  0
TABLE
  2
UCS
 70
     0
  0
ENDTAB
  0
TABLE
  2
APPID
 70
    48
  0
APPID
  2
ACAD
 70
     0
  0
APPID
  2
ACAD_EXEMPT_FROM_CAD_STANDARDS
 70
     0
  0
APPID
  2
ACAD_NAV_VCDISPLAY
 70
     0
  0
APPID
  2
ACAD_PSEXT
 70
     0
  0
APPID
  2
ACAECLAYERSTANDARD
 70
     0
  0
APPID
  2
ACCMTRANSPARENCY
 70
     0
  0
APPID
  2
ACAD_STEPID
 70
     0
  0
APPID
  2
ACADANNOMONITORALERTICONDI
 70
     0
  0
APPID
  2
ACAD_MLEADERVER
 70
     0
  0
APPID
  2
ACAD_OBJECT_CHANGE_GUID
 70
     0
  0
APPID
  2
ACADANNOPO
 70
     0
  0
APPID
  2
GRADIENTCOLOR1ACI
 70
     0
  0
APPID
  2
GRADIENTCOLOR2ACI
 70
     0
  0
APPID
  2
ACAD_DSTYLE_DIMRADIAL_EXTENSION
 70
     0
  0
APPID
  2
MCAD_NO_VIS
 70
     0
  0
APPID
  2
ACAD_TEMP_GRAPHIC
 70
     0
  0
APPID
  2
ACATTRIBSERVICES
 70
     0
  0
APPID
  2
DESIGNERASSEMBLIES
 70
     0
  0
APPID
  2
ACAD_DSTYLE_DIMJAG
 70
     0
  0
APPID
  2
ACAD_DSTYLE_DIMBREAK
 70
     0
  0
APPID
  2
GENIUS_GENSCREG_15
 70
     0
  0
APPID
  2
GENIUS_GENOBJ-N-SDF_13
 70
     0
  0
APPID
  2
GENIUS_GENODEF_13
 70
     0
  0
APPID
  2
ACAD_DSTYLE_DIMARC_LENGTH_
 70
     0
  0
APPID
  2
ACAD_DSTYLE_DIM_LINETYPE
 70
     0
  0
APPID
  2
ACAD_DSTYLE_DIM_EXT1_LINETYPE
 70
     0
  0
APPID
  2
ACAD_DSTYLE_DIM_EXT2_LINETYPE
 70
     0
  0
APPID
  2
RAK
 70
     0
  0
APPID
  2
ACSYNERGY
 70
     0
  0
APPID
  2
SYNERGY_BODY_TBR_ID
 70
     0
  0
APPID
  2
ACAD_VIEW_EDGE_ID
 70
     0
  0
APPID
  2
ACSYNERGYSKETCH
 70
     0
  0
APPID
  2
ACAD_MODELDOC_XFORM
 70
     0
  0
APPID
  2
GENIUS_GENDTOL_13
 70
     0
  0
APPID
  2
ACAD_DSTYLE_DIMINSPECT
 70
     0
  0
APPID
  2
ACAD_DSTYLE_DIMANGULAR_EXT
 70
     0
  0
APPID
  2
PLOTTRANSPARENCY
 70
     0
  0
APPID
  2
ACAUTHENVIRON
 70
     0
  0
APPID
  2
ACDBDYNAMICBLOCKTRUENAME
 70
     0
  0
APPID
  2
ACDBDYNAMICBLOCKGUID
 70
     0
  0
APPID
  2
PE_URL
 70
     0
  0
APPID
  2
SYNERGY_EXCLUDED_FROM_SNAPSHOT
 70
     0
  0
APPID
  2
ACAD_DSTYLE_DIMTALN
 70
     0
  0
APPID
  2
ACAD_DIMASSOC_CALC_DIMLFAC
 70
     0
  0
APPID
  2
ACAD_DIMASSOC_DIMLFAC
 70
     0
  0
APPID
  2
ACAD_DIMASSOC_OVERRIDDEN_D
 70
     0
  0
APPID
  2
ACADANNOAV
 70
     0
  0
APPID
  2
AcDbAttr
 70
     0
  0
ENDTAB
  0
TABLE
  2
DIMSTYLE
 70
     3
  0
DIMSTYLE
  2
STANDARD
 70
     0
  3

  4

  5

  6

  7

 40
1.0
 41
0.18
 42
0.0625
 43
0.38
 44
0.18
 45
0.0
 46
0.0
 47
0.0
 48
0.0
140
0.18
141
0.09
142
0.0
143
25.3999999999999986
144
1.0
145
0.0
146
1.0
147
0.09
 71
     0
 72
     0
 73
     1
 74
     1
 75
     0
 76
     0
 77
     0
 78
     0
170
     0
171
     2
172
     0
173
     0
174
     0
175
     0
176
     0
177
     0
178
     0
  0
ENDTAB
  0
ENDSEC
  0
SECTION
  2
BLOCKS
  0
BLOCK
  8
0
  2
$MODEL_SPACE
 70
     0
 10
0.0
 20
0.0
 30
0.0
  3
$MODEL_SPACE
  1

  0
ENDBLK
  5
38
  8
0
  0
BLOCK
 67
     1
  8
0
  2
$PAPER_SPACE
 70
     0
 10
0.0
 20
0.0
 30
0.0
  3
$PAPER_SPACE
  1

  0
ENDBLK
  5
36
 67
     1
  8
0
  0
BLOCK
  8
0
  2
*S0
 70
     1
 10
0.0
 20
0.0
 30
0.0
  3
*S0
  1

  0
ENDBLK
  5
30A9
  8
0
  0
BLOCK
  8
0
  2
A$C15B061FA
 70
     0
 10
0.0
 20
0.0
 30
0.0
  3
A$C15B061FA
  1

  0
LINE
  5
F030
  8
0
  6
CONTINUOUS
 62
     3
 10
-30.5893004943133597
 20
235.0
 30
-0.0000000000000522
 11
-0.0000000000000699
 21
235.0
 31
-0.0000000000000522
210
-0.0000000000000002
220
1.0
230
-0.0000000000000002
  0
LINE
  5
F031
  8
0
  6
CONTINUOUS
 62
     3
 10
-0.0000000000000633
 20
235.0
 30
-0.0000000000000522
 11
30.5893004943132212
 21
235.0
 31
-0.0000000000000522
210
-0.0000000000000002
220
1.0
230
-0.0000000000000002
  0
LINE
  5
F032
  8
0
  6
CONTINUOUS
 62
     3
 10
-30.5893004943133597
 20
234.0000000000001137
 30
-0.000000000000052
 11
-0.0000000000000697
 21
234.0000000000001137
 31
-0.000000000000052
210
-0.0000000000000002
220
1.0
230
-0.0000000000000002
  0
LINE
  5
F033
  8
0
  6
CONTINUOUS
 62
     3
 10
-0.000000000000063
 20
234.0000000000001137
 30
-0.000000000000052
 11
30.5893004943132212
 21
234.0000000000001137
 31
-0.000000000000052
210
-0.0000000000000002
220
1.0
230
-0.0000000000000002
  0
LINE
  5
F034
  8
0
  6
CONTINUOUS
 62
     3
 10
-27.2651479849881184
 20
221.0
 30
-0.0000000000000491
 11
-0.0000000000000668
 21
221.0
 31
-0.0000000000000491
210
-0.0000000000000002
220
1.0
230
-0.0000000000000002
  0
LINE
  5
F035
  8
0
  6
CONTINUOUS
 62
     3
 10
-0.0000000000000603
 20
221.0
 30
-0.0000000000000491
 11
27.2651479849879799
 21
221.0
 31
-0.0000000000000491
210
-0.0000000000000002
220
1.0
230
-0.0000000000000002
  0
LINE
  5
F036
  8
0
  6
CONTINUOUS
 62
     3
 10
30.5893004943132212
 20
235.0
 30
-0.0000000000000522
 11
30.5893004943132212
 21
234.0000000000001137
 31
-0.000000000000052
210
-0.0000000000000002
220
1.0
230
-0.0000000000000002
  0
LINE
  5
F037
  8
0
  6
CONTINUOUS
 62
     3
 10
-30.5893004943133597
 20
235.0
 30
-0.0000000000000522
 11
-30.5893004943133597
 21
234.0000000000001137
 31
-0.000000000000052
210
-0.0000000000000002
220
1.0
230
-0.0000000000000002
  0
LINE
  5
F038
  8
0
  6
CONTINUOUS
 62
     3
 10
-27.7649114665264314
 20
221.4846226621064886
 30
-0.0000000000000492
 11
-28.150000000000059
 21
234.0000000000001137
 31
-0.000000000000052
210
-0.0000000000000002
220
1.0
230
-0.0000000000000002
  0
LINE
  5
F039
  8
0
  6
CONTINUOUS
 62
     3
 10
27.7649114665262999
 20
221.4846226621064886
 30
-0.0000000000000492
 11
28.1499999999999311
 21
234.0000000000001137
 31
-0.000000000000052
210
-0.0000000000000002
220
1.0
230
-0.0000000000000002
  0
ARC
  5
F03A
  8
0
  6
CONTINUOUS
 62
     3
 10
27.2651479849880793
 20
221.5
 30
0.0
 40
0.5000000000000285
210
0.0
220
-0.0000000000000002
230
-1.0
 50
270.0
 51
358.2376089763371851
  0
ARC
  5
F03B
  8
0
  6
CONTINUOUS
 62
     3
 10
-27.2651479849879514
 20
221.5
 30
0.0
 40
0.5000000000000216
210
0.0
220
-0.0000000000000002
230
-1.0
 50
181.7623910236598874
 51
269.9999999999972147
  0
LINE
  5
F03C
  8
0
  6
CONTINUOUS
 62
     3
 10
26.0625566823704311
 20
-0.0000000000000031
 30
0.0
 11
-26.0625566823704418
 21
-0.0000000000000147
 31
0.0
210
-0.0000000000000002
220
1.0
230
-0.0000000000000002
  0
LINE
  5
F03D
  8
0
  6
CONTINUOUS
 62
     3
 10
-29.0172427686263887
 20
170.0
 30
-0.0000000000000377
 11
-0.0000000000000697
 21
170.0
 31
-0.0000000000000377
210
-0.0000000000000002
220
1.0
230
-0.0000000000000002
  0
LINE
  5
F03E
  8
0
  6
CONTINUOUS
 62
     3
 10
-0.0000000000000627
 20
170.0
 30
-0.0000000000000377
 11
29.0172427686262004
 21
170.0
 31
-0.0000000000000377
210
-0.0000000000000002
220
1.0
230
-0.0000000000000002
  0
LINE
  5
F03F
  8
0
  6
CONTINUOUS
 62
     3
 10
-26.0625566823704418
 20
-0.0000000000000147
 30
0.0
 11
-26.5000000000000107
 21
4.9999999999974278
 31
-0.0000000000000011
210
-0.0000000000000002
220
1.0
230
-0.0000000000000002
  0
LINE
  5
F040
  8
0
  6
CONTINUOUS
 62
     3
 10
26.0625566823704311
 20
0.0000000000000005
 30
0.0
 11
26.5
 21
4.9999999999974438
 31
-0.0000000000000011
210
-0.0000000000000002
220
1.0
230
-0.0000000000000002
  0
LINE
  5
F041
  8
0
  6
CONTINUOUS
 62
     3
 10
-26.5000000000000213
 20
4.9999999999974278
 30
-0.0000000000000011
 11
-26.5000000000000497
 21
127.8768943743878026
 31
-0.0000000000000284
210
-0.0000000000000002
220
1.0
230
-0.0000000000000002
  0
LINE
  5
F042
  8
0
  6
CONTINUOUS
 62
     3
 10
26.5
 20
4.9999999999974438
 30
-0.0000000000000011
 11
26.4999999999999716
 21
127.8768943743878026
 31
-0.0000000000000284
210
-0.0000000000000002
220
1.0
230
-0.0000000000000002
  0
ARC
  5
F043
  8
0
  6
CONTINUOUS
 62
     3
 10
40.8999999999605492
 20
161.6388625592738038
 30
0.0
 40
9.9999999999605098
210
0.0
220
-0.0000000000000002
230
-1.0
 50
178.8200568062287914
 51
180.0000000000025011
  0
ARC
  5
F044
  8
0
  6
CONTINUOUS
 62
     3
 10
-40.8999999999939376
 20
161.6388625592732922
 30
0.0
 40
9.999999999994019
210
0.0
220
-0.0000000000000002
230
-1.0
 50
0.0
 51
1.1799431937698119
  0
ARC
  5
F045
  8
0
  6
CONTINUOUS
 62
     3
 10
14.0757080698251205
 20
162.1913572844416933
 30
0.0
 40
16.8299811400713786
210
0.0
220
-0.0000000000000002
230
-1.0
 50
358.8200568062308093
 51
24.2325657076153789
  0
ARC
  5
F046
  8
0
  6
CONTINUOUS
 62
     3
 10
-14.0757080698249997
 20
162.1913572844416933
 30
0.0
 40
16.8299811400713786
210
0.0
220
-0.0000000000000002
230
-1.0
 50
155.7674342923845927
 51
181.1799431937691054
  0
LINE
  5
F047
  8
0
  6
CONTINUOUS
 62
     3
 10
30.8999999999999204
 20
161.6388625592734059
 30
-0.0000000000000359
 11
30.8999999999999204
 21
157.1223666767849068
 31
-0.0000000000000349
210
-0.0000000000000002
220
1.0
230
-0.0000000000000002
  0
LINE
  5
F048
  8
0
  6
CONTINUOUS
 62
     3
 10
-30.9000000000000483
 20
161.6388625592734059
 30
-0.0000000000000359
 11
-30.9000000000000483
 21
157.1223666767849068
 31
-0.0000000000000349
210
-0.0000000000000002
220
1.0
230
-0.0000000000000002
  0
LINE
  5
F049
  8
0
  6
CONTINUOUS
 62
     3
 10
29.0172427686262502
 20
170.0
 30
-0.0000000000000377
 11
29.4227486993552105
 21
169.0990782610525116
 31
-0.0000000000000375
210
-0.0000000000000002
220
1.0
230
-0.0000000000000002
  0
LINE
  5
F04A
  8
0
  6
CONTINUOUS
 62
     3
 10
-29.0172427686263816
 20
170.0
 30
-0.0000000000000377
 11
-29.4227486993553384
 21
169.0990782610525116
 31
-0.0000000000000375
210
-0.0000000000000002
220
1.0
230
-0.0000000000000002
  0
ARC
  5
F04B
  8
0
  6
CONTINUOUS
 62
     3
 10
6.6299814877459342
 20
157.122366676785191
 30
0.0
 40
24.2700185122541114
210
0.0
220
-0.0000000000000002
230
-1.0
 50
340.4442140178521186
 51
359.9999999999992042
  0
ARC
  5
F04C
  8
0
  6
CONTINUOUS
 62
     3
 10
-6.6299814877458081
 20
157.122366676785191
 30
0.0
 40
24.2700185122541185
210
0.0
220
-0.0000000000000002
230
-1.0
 50
180.0000000000007105
 51
199.5557859821477962
  0
ARC
  5
F04D
  8
0
  6
CONTINUOUS
 62
     3
 10
39.3018834053813322
 20
145.516826988049786
 30
0.0
 40
10.4018970157694302
210
0.0
220
-0.0000000000000002
230
-1.0
 50
160.444214017854506
 51
180.0926865374553074
  0
ARC
  5
F04E
  8
0
  6
CONTINUOUS
 62
     3
 10
-39.3018834053812114
 20
145.516826988049786
 30
0.0
 40
10.4018970157694408
210
0.0
220
-0.0000000000000002
230
-1.0
 50
359.9073134625446073
 51
19.5557859821454301
  0
LINE
  5
F04F
  8
0
  6
CONTINUOUS
 62
     3
 10
28.8999999999999311
 20
145.5000000000054001
 30
-0.0000000000000323
 11
28.8999999999999311
 21
137.249193985475813
 31
-0.0000000000000305
210
-0.0000000000000002
220
1.0
230
-0.0000000000000002
  0
LINE
  5
F050
  8
0
  6
CONTINUOUS
 62
     3
 10
-28.9000000000000483
 20
145.5000000000054001
 30
-0.0000000000000323
 11
-28.9000000000000483
 21
137.249193985475813
 31
-0.0000000000000305
210
-0.0000000000000002
220
1.0
230
-0.0000000000000002
  0
ARC
  5
F051
  8
0
  6
CONTINUOUS
 62
     3
 10
17.4000000000007589
 20
137.249193985475614
 30
0.0
 40
11.4999999999992699
210
0.0
220
-0.0000000000000002
230
-1.0
 50
331.2733946518573021
 51
0.0000000000008397
  0
ARC
  5
F052
  8
0
  6
CONTINUOUS
 62
     3
 10
-17.4000000000007518
 20
137.249193985475614
 30
0.0
 40
11.4999999999991598
210
0.0
220
-0.0000000000000002
230
-1.0
 50
179.9999999999990052
 51
208.7266053481428116
  0
ARC
  5
F053
  8
0
  6
CONTINUOUS
 62
     3
 10
34.4999999999988418
 20
127.8768943743882005
 30
0.0
 40
7.9999999999987743
210
0.0
220
-0.0000000000000002
230
-1.0
 50
151.2733946518584958
 51
180.0000000000027001
  0
ARC
  5
F054
  8
0
  6
CONTINUOUS
 62
     3
 10
-34.499999999998721
 20
127.8768943743882005
 30
0.0
 40
7.9999999999987681
210
0.0
220
-0.0000000000000002
230
-1.0
 50
359.9999999999973284
 51
28.726605348141419
  0
CIRCLE
  5
F055
  8
0
  6
CONTINUOUS
 62
     3
 10
-0.0000000000001337
 20
533.5000000000002274
 30
-0.0000000000001185
 40
25.5000000000000107
  0
CIRCLE
  5
F056
  8
0
  6
CONTINUOUS
 62
     3
 10
0.0000000000001337
 20
533.5000000000002274
 30
0.0
 40
26.5000000000000107
210
0.0
220
-0.0000000000000002
230
-1.0
  0
LINE
  5
F057
  8
0
  6
CONTINUOUS
 62
     3
 10
26.0625566823703494
 20
375.0
 30
-0.0000000000000833
 11
-26.0625566823705199
 21
375.0
 31
-0.0000000000000833
210
-0.0000000000000002
220
1.0
230
-0.0000000000000002
  0
LINE
  5
F058
  8
0
  6
CONTINUOUS
 62
     3
 10
-26.0625566823705199
 20
375.0
 30
-0.0000000000000833
 11
-26.5000000000000888
 21
379.9999999999973852
 31
-0.0000000000000844
210
-0.0000000000000002
220
1.0
230
-0.0000000000000002
  0
LINE
  5
F059
  8
0
  6
CONTINUOUS
 62
     3
 10
26.0625566823703494
 20
375.0
 30
-0.0000000000000833
 11
26.4999999999999112
 21
379.9999999999973852
 31
-0.0000000000000844
210
-0.0000000000000002
220
1.0
230
-0.0000000000000002
  0
LINE
  5
F05A
  8
0
  6
CONTINUOUS
 62
     3
 10
-26.5000000000000995
 20
379.9999999999973852
 30
-0.0000000000000844
 11
-26.5000000000001492
 21
533.5000000000002274
 31
-0.0000000000001185
210
-0.0000000000000002
220
1.0
230
-0.0000000000000002
  0
LINE
  5
F05B
  8
0
  6
CONTINUOUS
 62
     3
 10
26.4999999999999112
 20
379.9999999999973852
 30
-0.0000000000000844
 11
26.4999999999998685
 21
533.5000000000002274
 31
-0.0000000000001185
210
-0.0000000000000002
220
1.0
230
-0.0000000000000002
  0
LINE
  5
F05C
  8
0
  6
CONTINUOUS
 62
     3
 10
-30.2500000000001101
 20
314.6000000000000227
 30
-0.0000000000000699
 11
30.2499999999999112
 21
314.6000000000000227
 31
-0.0000000000000699
210
-0.0000000000000002
220
1.0
230
-0.0000000000000002
  0
LINE
  5
F05D
  8
0
  6
CONTINUOUS
 62
     3
 10
-30.2500000000001101
 20
315.466662257899884
 30
-0.00000000000007
 11
30.2499999999999112
 21
315.466662257899884
 31
-0.00000000000007
210
-0.0000000000000002
220
1.0
230
-0.0000000000000002
  0
LINE
  5
F05E
  8
0
  6
CONTINUOUS
 62
     3
 10
-30.8500000000001187
 20
314.0
 30
-0.0000000000000697
 11
30.849999999999941
 21
314.0
 31
-0.0000000000000697
210
-0.0000000000000002
220
1.0
230
-0.0000000000000002
  0
LINE
  5
F05F
  8
0
  6
CONTINUOUS
 62
     3
 10
-30.8500000000001187
 20
313.0
 30
-0.0000000000000695
 11
30.849999999999941
 21
313.0
 31
-0.0000000000000695
210
-0.0000000000000002
220
1.0
230
-0.0000000000000002
  0
LINE
  5
F060
  8
0
  6
CONTINUOUS
 62
     3
 10
-30.2500000000001101
 20
312.3999999999999773
 30
-0.0000000000000694
 11
30.2499999999999112
 21
312.3999999999999773
 31
-0.0000000000000694
210
-0.0000000000000002
220
1.0
230
-0.0000000000000002
  0
LINE
  5
F061
  8
0
  6
CONTINUOUS
 62
     3
 10
-30.2500000000001101
 20
311.752887110891777
 30
-0.0000000000000692
 11
30.2499999999999183
 21
311.752887110891777
 31
-0.0000000000000692
210
-0.0000000000000002
220
1.0
230
-0.0000000000000002
  0
LINE
  5
F062
  8
0
  6
CONTINUOUS
 62
     3
 10
-32.0000000000000995
 20
308.0
 30
-0.0000000000000684
 11
31.9999999999999183
 21
308.0
 31
-0.0000000000000684
210
-0.0000000000000002
220
1.0
230
-0.0000000000000002
  0
LINE
  5
F063
  8
0
  6
CONTINUOUS
 62
     3
 10
-28.000000000000199
 20
285.0000000000001137
 30
-0.0000000000000633
 11
28.0000000000000284
 21
285.0000000000001137
 31
-0.0000000000000633
210
-0.0000000000000002
220
1.0
230
-0.0000000000000002
  0
LINE
  5
F064
  8
0
  6
CONTINUOUS
 62
     3
 10
-30.5000000000000995
 20
325.0
 30
-0.0000000000000722
 11
30.4999999999999112
 21
325.0
 31
-0.0000000000000722
210
-0.0000000000000002
220
1.0
230
-0.0000000000000002
  0
LINE
  5
F065
  8
0
  6
CONTINUOUS
 62
     3
 10
-32.0000000000000995
 20
320.0
 30
-0.0000000000000711
 11
31.9999999999999183
 21
320.0
 31
-0.0000000000000711
210
-0.0000000000000002
220
1.0
230
-0.0000000000000002
  0
LINE
  5
F066
  8
0
  6
CONTINUOUS
 62
     3
 10
30.2499999999999112
 20
315.466662257899884
 30
-0.00000000000007
 11
30.2499999999999112
 21
314.6000000000000227
 31
-0.0000000000000699
210
-0.0000000000000002
220
1.0
230
-0.0000000000000002
  0
LINE
  5
F067
  8
0
  6
CONTINUOUS
 62
     3
 10
-30.2500000000000995
 20
315.466662257899884
 30
-0.00000000000007
 11
-30.2500000000000995
 21
314.6000000000000227
 31
-0.0000000000000699
210
-0.0000000000000002
220
1.0
230
-0.0000000000000002
  0
LINE
  5
F068
  8
0
  6
CONTINUOUS
 62
     3
 10
30.2499999999999112
 20
314.6000000000000227
 30
-0.0000000000000699
 11
30.849999999999941
 21
314.0
 31
-0.0000000000000697
210
-0.0000000000000002
220
1.0
230
-0.0000000000000002
  0
LINE
  5
F069
  8
0
  6
CONTINUOUS
 62
     3
 10
-30.2500000000000995
 20
314.6000000000000227
 30
-0.0000000000000699
 11
-30.8500000000001187
 21
314.0
 31
-0.0000000000000697
210
-0.0000000000000002
220
1.0
230
-0.0000000000000002
  0
LINE
  5
F06A
  8
0
  6
CONTINUOUS
 62
     3
 10
30.849999999999941
 20
314.0
 30
-0.0000000000000697
 11
30.849999999999941
 21
313.0
 31
-0.0000000000000695
210
-0.0000000000000002
220
1.0
230
-0.0000000000000002
  0
LINE
  5
F06B
  8
0
  6
CONTINUOUS
 62
     3
 10
-30.8500000000001187
 20
314.0
 30
-0.0000000000000697
 11
-30.8500000000001187
 21
313.0
 31
-0.0000000000000695
210
-0.0000000000000002
220
1.0
230
-0.0000000000000002
  0
LINE
  5
F06C
  8
0
  6
CONTINUOUS
 62
     3
 10
-30.2500000000001101
 20
312.4000000000000909
 30
-0.0000000000000694
 11
-30.8500000000001116
 21
313.0
 31
-0.0000000000000695
210
-0.0000000000000002
220
1.0
230
-0.0000000000000002
  0
LINE
  5
F06D
  8
0
  6
CONTINUOUS
 62
     3
 10
30.2499999999999289
 20
312.4000000000000909
 30
-0.0000000000000694
 11
30.8499999999999197
 21
313.0
 31
-0.0000000000000695
210
-0.0000000000000002
220
1.0
230
-0.0000000000000002
  0
LINE
  5
F06E
  8
0
  6
CONTINUOUS
 62
     3
 10
30.2499999999999112
 20
312.3999999999999773
 30
-0.0000000000000694
 11
30.2499999999999183
 21
311.752887110891777
 31
-0.0000000000000692
210
-0.0000000000000002
220
1.0
230
-0.0000000000000002
  0
LINE
  5
F06F
  8
0
  6
CONTINUOUS
 62
     3
 10
-30.2500000000000995
 20
312.3999999999999773
 30
-0.0000000000000694
 11
-30.2500000000000995
 21
311.752887110891777
 31
-0.0000000000000692
210
-0.0000000000000002
220
1.0
230
-0.0000000000000002
  0
LINE
  5
F070
  8
0
  6
CONTINUOUS
 62
     3
 10
30.2499999999999396
 20
311.7528871108917201
 30
-0.0000000000000692
 11
31.9999999999999005
 21
308.0000000000001137
 31
-0.0000000000000684
210
-0.0000000000000002
220
1.0
230
-0.0000000000000002
  0
LINE
  5
F071
  8
0
  6
CONTINUOUS
 62
     3
 10
-30.2500000000001208
 20
311.7528871108917201
 30
-0.0000000000000692
 11
-32.0000000000000782
 21
308.0000000000001137
 31
-0.0000000000000684
210
-0.0000000000000002
220
1.0
230
-0.0000000000000002
  0
LINE
  5
F072
  8
0
  6
CONTINUOUS
 62
     3
 10
28.4999999999999183
 20
308.0
 30
-0.0000000000000684
 11
28.4999999999999183
 21
290.9999999999996021
 31
-0.0000000000000646
210
-0.0000000000000002
220
1.0
230
-0.0000000000000002
  0
LINE
  5
F073
  8
0
  6
CONTINUOUS
 62
     3
 10
-28.5000000000000995
 20
308.0
 30
-0.0000000000000684
 11
-28.5000000000000888
 21
290.9999999999996021
 31
-0.0000000000000646
210
-0.0000000000000002
220
1.0
230
-0.0000000000000002
  0
LINE
  5
F074
  8
0
  6
CONTINUOUS
 62
     3
 10
-28.0000000000002096
 20
285.0000000000001137
 30
-0.0000000000000633
 11
-28.5000000000000995
 21
290.9999999999996021
 31
-0.0000000000000646
210
-0.0000000000000002
220
1.0
230
-0.0000000000000002
  0
LINE
  5
F075
  8
0
  6
CONTINUOUS
 62
     3
 10
28.0000000000000391
 20
285.0000000000001137
 30
-0.0000000000000633
 11
28.4999999999999183
 21
290.9999999999996021
 31
-0.0000000000000646
210
-0.0000000000000002
220
1.0
230
-0.0000000000000002
  0
ARC
  5
F076
  8
0
  6
CONTINUOUS
 62
     3
 10
30.5000000000001386
 20
323.5000000000001137
 30
0.0
 40
1.499999999999964
210
0.0
220
-0.0000000000000002
230
-1.0
 50
0.0000000000021628
 51
90.0000000000014637
  0
ARC
  5
F077
  8
0
  6
CONTINUOUS
 62
     3
 10
-30.4999999999999503
 20
323.5000000000001137
 30
0.0
 40
1.4999999999999429
210
0.0
220
-0.0000000000000002
230
-1.0
 50
89.9999999999983373
 51
179.9999999999978115
  0
LINE
  5
F078
  8
0
  6
CONTINUOUS
 62
     3
 10
31.9999999999999183
 20
323.5000000000002274
 30
-0.0000000000000718
 11
31.9999999999999183
 21
320.0
 31
-0.0000000000000711
210
-0.0000000000000002
220
1.0
230
-0.0000000000000002
  0
LINE
  5
F079
  8
0
  6
CONTINUOUS
 62
     3
 10
-32.0000000000000995
 20
323.5000000000002274
 30
-0.0000000000000718
 11
-32.0000000000000995
 21
320.0
 31
-0.0000000000000711
210
-0.0000000000000002
220
1.0
230
-0.0000000000000002
  0
ARC
  5
F07A
  8
0
  6
CONTINUOUS
 62
     3
 10
29.3140740033711289
 20
319.5
 30
0.0
 40
0.5000000000000001
210
0.0
220
-0.0000000000000002
230
-1.0
 50
89.9999999999983373
 51
199.9999999999888871
  0
ARC
  5
F07B
  8
0
  6
CONTINUOUS
 62
     3
 10
-29.3140740033709513
 20
319.5
 30
0.0
 40
0.5000000000000164
210
0.0
220
-0.0000000000000002
230
-1.0
 50
340.0000000000110276
 51
90.0000000000016058
  0
LINE
  5
F07C
  8
0
  6
CONTINUOUS
 62
     3
 10
28.8442276929779418
 20
319.3289899283373074
 30
-0.0000000000000709
 11
30.2499999999999112
 21
315.466662257899884
 31
-0.00000000000007
210
-0.0000000000000002
220
1.0
230
-0.0000000000000002
  0
LINE
  5
F07D
  8
0
  6
CONTINUOUS
 62
     3
 10
-28.8442276929781194
 20
319.3289899283373074
 30
-0.0000000000000709
 11
-30.2500000000000888
 21
315.466662257899884
 31
-0.00000000000007
210
-0.0000000000000002
220
1.0
230
-0.0000000000000002
  0
LINE
  5
F07E
  8
0
  6
VERDECKT
 62
     1
 10
-26.2954439549641492
 20
222.0
 30
-0.0000000000000493
 11
-0.0000000000000671
 21
222.0
 31
-0.0000000000000493
210
-0.0000000000000002
220
1.0
230
-0.0000000000000002
  0
LINE
  5
F07F
  8
0
  6
VERDECKT
 62
     1
 10
-0.0000000000000582
 20
222.0
 30
-0.0000000000000493
 11
26.2954439549640284
 21
222.0
 31
-0.0000000000000493
210
-0.0000000000000002
220
1.0
230
-0.0000000000000002
  0
ARC
  5
F080
  8
0
  6
VERDECKT
 62
     1
 10
26.2954439549641208
 20
222.5
 30
0.0
 40
0.5000000000000001
210
0.0
220
-0.0000000000000002
230
-1.0
 50
270.0
 51
358.2376089763358777
  0
ARC
  5
F081
  8
0
  6
VERDECKT
 62
     1
 10
-26.2954439549639893
 20
222.5
 30
0.0
 40
0.5000000000000075
210
0.0
220
-0.0000000000000002
230
-1.0
 50
181.7623910236600011
 51
269.9999999999959073
  0
LINE
  5
F082
  8
0
  6
VERDECKT
 62
     1
 10
-26.7952074365024906
 20
222.4846226621064886
 30
-0.0000000000000494
 11
-27.1653845034498005
 21
234.5153773378935114
 31
-0.0000000000000521
210
-0.0000000000000002
220
1.0
230
-0.0000000000000002
  0
LINE
  5
F083
  8
0
  6
VERDECKT
 62
     1
 10
26.7952074365023591
 20
222.4846226621064886
 30
-0.0000000000000494
 11
27.1653845034496584
 21
234.5153773378935114
 31
-0.0000000000000521
210
-0.0000000000000002
220
1.0
230
-0.0000000000000002
  0
ARC
  5
F084
  8
0
  6
VERDECKT
 62
     1
 10
27.665147984988149
 20
234.5
 30
0.0
 40
0.500000000000057
210
0.0
220
-0.0000000000000002
230
-1.0
 50
90.0000000000040643
 51
178.2376089763334903
  0
ARC
  5
F085
  8
0
  6
VERDECKT
 62
     1
 10
-27.6651479849880211
 20
234.5
 30
0.0
 40
0.5000000000000341
210
0.0
220
-0.0000000000000002
230
-1.0
 50
1.762391023666438
 51
89.9999999999959357
  0
LINE
  5
F086
  8
0
  6
VERDECKT
 62
     1
 10
25.0663619842787284
 20
0.0871557427476549
 30
0.0
 11
-25.0663619842787391
 21
0.0871557427476402
 31
0.0
210
-0.0000000000000002
220
1.0
230
-0.0000000000000002
  0
LINE
  5
F087
  8
0
  6
VERDECKT
 62
     1
 10
-28.1163352544880816
 20
169.5659888815141869
 30
-0.0000000000000377
 11
-0.0000000000000696
 21
169.5659888815141869
 31
-0.0000000000000377
210
-0.0000000000000002
220
1.0
230
-0.0000000000000002
  0
LINE
  5
F088
  8
0
  6
VERDECKT
 62
     1
 10
-0.0000000000000598
 20
169.5659888815141869
 30
-0.0000000000000377
 11
28.1163352544879714
 21
169.5659888815141869
 31
-0.0000000000000377
210
-0.0000000000000002
220
1.0
230
-0.0000000000000002
  0
LINE
  5
F089
  8
0
  6
VERDECKT
 62
     1
 10
-25.5000000000000213
 20
5.0436609429091721
 30
-0.0000000000000011
 11
-25.5000000000000497
 21
127.8768943743878026
 31
-0.0000000000000284
210
-0.0000000000000002
220
1.0
230
-0.0000000000000002
  0
LINE
  5
F08A
  8
0
  6
VERDECKT
 62
     1
 10
25.5
 20
5.0436609429091872
 30
-0.0000000000000011
 11
25.4999999999999716
 21
127.8768943743877031
 31
-0.0000000000000284
210
-0.0000000000000002
220
1.0
230
-0.0000000000000002
  0
LINE
  5
F08B
  8
0
  6
VERDECKT
 62
     1
 10
-25.0663619842787497
 20
0.0871557427476402
 30
0.0
 11
-25.5000000000000213
 21
5.0436609429091721
 31
-0.0000000000000011
210
-0.0000000000000002
220
1.0
230
-0.0000000000000002
  0
LINE
  5
F08C
  8
0
  6
VERDECKT
 62
     1
 10
25.0663619842787284
 20
0.087155742747654
 30
0.0
 11
25.5000000000000107
 21
5.0436609429091872
 31
-0.0000000000000011
210
-0.0000000000000002
220
1.0
230
-0.0000000000000002
  0
LINE
  5
F08D
  8
0
  6
VERDECKT
 62
     1
 10
25.0663619842787284
 20
0.0871557427476546
 30
0.0
 11
26.0625566823704311
 21
0.0000000000000003
 31
0.0
210
-0.0000000000000002
220
1.0
230
-0.0000000000000002
  0
LINE
  5
F08E
  8
0
  6
VERDECKT
 62
     1
 10
-25.0663619842787391
 20
0.0871557427476404
 30
0.0
 11
-26.0625566823704418
 21
-0.0000000000000145
 31
0.0
210
-0.0000000000000002
220
1.0
230
-0.0000000000000002
  0
ARC
  5
F08F
  8
0
  6
VERDECKT
 62
     1
 10
34.5000000000001208
 20
127.8768943743878026
 30
0.0
 40
9.0000000000000515
210
0.0
220
-0.0000000000000002
230
-1.0
 50
151.2733946518586094
 51
180.000000000000199
  0
ARC
  5
F090
  8
0
  6
VERDECKT
 62
     1
 10
-34.5000000000002771
 20
127.8768943743878026
 30
0.0
 40
9.0000000000003286
210
0.0
220
-0.0000000000000002
230
-1.0
 50
359.9999999999993747
 51
28.7266053481408683
  0
ARC
  5
F091
  8
0
  6
VERDECKT
 62
     1
 10
17.399999999998311
 20
137.2491939854762961
 30
0.0
 40
10.5000000000017302
210
0.0
220
-0.0000000000000002
230
-1.0
 50
331.2733946518621906
 51
359.9999999999974989
  0
ARC
  5
F092
  8
0
  6
VERDECKT
 62
     1
 10
-17.3999999999981902
 20
137.2491939854762961
 30
0.0
 40
10.5000000000017408
210
0.0
220
-0.0000000000000002
230
-1.0
 50
180.0000000000023874
 51
208.7266053481376957
  0
LINE
  5
F093
  8
0
  6
VERDECKT
 62
     1
 10
27.8999999999999204
 20
145.5000000000054001
 30
-0.0000000000000323
 11
27.8999999999999204
 21
137.249193985475813
 31
-0.0000000000000305
210
-0.0000000000000002
220
1.0
230
-0.0000000000000002
  0
LINE
  5
F094
  8
0
  6
VERDECKT
 62
     1
 10
-27.9000000000000412
 20
145.5000000000054001
 30
-0.0000000000000323
 11
-27.9000000000000412
 21
137.249193985475813
 31
-0.0000000000000305
210
-0.0000000000000002
220
1.0
230
-0.0000000000000002
  0
ARC
  5
F095
  8
0
  6
VERDECKT
 62
     1
 10
39.4000000000004817
 20
145.5000000000055138
 30
0.0
 40
11.5000000000004299
210
0.0
220
-0.0000000000000002
230
-1.0
 50
160.536900555311405
 51
180.000000000000199
  0
ARC
  5
F096
  8
0
  6
VERDECKT
 62
     1
 10
-39.4000000000003467
 20
145.5000000000055138
 30
0.0
 40
11.5000000000004299
210
0.0
220
-0.0000000000000002
230
-1.0
 50
359.9999999999997158
 51
19.463099444688531
  0
ARC
  5
F097
  8
0
  6
VERDECKT
 62
     1
 10
6.3999772691690211
 20
157.1620080329429072
 30
0.0
 40
23.5000561656072016
210
0.0
220
-0.0000000000000002
230
-1.0
 50
340.5369005553126271
 51
359.9033498701797953
  0
ARC
  5
F098
  8
0
  6
VERDECKT
 62
     1
 10
-6.399977269169133
 20
157.1620080329429072
 30
0.0
 40
23.50005616560696
210
0.0
220
-0.0000000000000002
230
-1.0
 50
180.0966501298200058
 51
199.4630994446874865
  0
LINE
  5
F099
  8
0
  6
VERDECKT
 62
     1
 10
29.8999999999999204
 20
161.7537887487700914
 30
-0.0000000000000359
 11
29.8999999999999204
 21
157.1223666767849068
 31
-0.0000000000000349
210
-0.0000000000000002
220
1.0
230
-0.0000000000000002
  0
LINE
  5
F09A
  8
0
  6
VERDECKT
 62
     1
 10
-29.9000000000000483
 20
161.7537887487700914
 30
-0.0000000000000359
 11
-29.9000000000000483
 21
157.1223666767849068
 31
-0.0000000000000349
210
-0.0000000000000002
220
1.0
230
-0.0000000000000002
  0
ARC
  5
F09B
  8
0
  6
VERDECKT
 62
     1
 10
11.8999999999990393
 20
161.7537887487698924
 30
0.0
 40
18.0000000000009983
210
0.0
220
-0.0000000000000002
230
-1.0
 50
0.0000000000007124
 51
25.7223864921818404
  0
ARC
  5
F09C
  8
0
  6
VERDECKT
 62
     1
 10
-11.8999999999988297
 20
161.7537887487698072
 30
0.0
 40
18.0000000000010907
210
0.0
220
-0.0000000000000002
230
-1.0
 50
154.2776135078181028
 51
179.9999999999992042
  0
LINE
  5
F09D
  8
0
  6
VERDECKT
 62
     1
 10
-28.11633525448811
 20
169.5659888815141869
 30
-0.0000000000000377
 11
-29.017242768626339
 21
170.0
 31
-0.0000000000000377
210
-0.0000000000000002
220
1.0
230
-0.0000000000000002
  0
LINE
  5
F09E
  8
0
  6
VERDECKT
 62
     1
 10
28.1163352544879785
 20
169.5659888815141869
 30
-0.0000000000000377
 11
29.0172427686262004
 21
170.0
 31
-0.0000000000000377
210
-0.0000000000000002
220
1.0
230
-0.0000000000000002
  0
LINE
  5
F09F
  8
0
  6
VERDECKT
 62
     1
 10
25.0663619842786503
 20
375.0871557427477114
 30
-0.0000000000000833
 11
-25.0663619842788208
 21
375.0871557427477114
 31
-0.0000000000000833
210
-0.0000000000000002
220
1.0
230
-0.0000000000000002
  0
LINE
  5
F0A0
  8
0
  6
VERDECKT
 62
     1
 10
-25.5000000000000995
 20
380.0436609429092982
 30
-0.0000000000000844
 11
-25.5000000000001386
 21
533.5000000000002274
 31
-0.0000000000001185
210
-0.0000000000000002
220
1.0
230
-0.0000000000000002
  0
LINE
  5
F0A1
  8
0
  6
VERDECKT
 62
     1
 10
25.4999999999999183
 20
380.0436609429092982
 30
-0.0000000000000844
 11
25.4999999999998685
 21
533.5000000000002274
 31
-0.0000000000001185
210
-0.0000000000000002
220
1.0
230
-0.0000000000000002
  0
LINE
  5
F0A2
  8
0
  6
VERDECKT
 62
     1
 10
-25.0663619842788314
 20
375.0871557427477114
 30
-0.0000000000000833
 11
-25.5000000000001101
 21
380.0436609429092982
 31
-0.0000000000000844
210
-0.0000000000000002
220
1.0
230
-0.0000000000000002
  0
LINE
  5
F0A3
  8
0
  6
VERDECKT
 62
     1
 10
25.0663619842786503
 20
375.0871557427477114
 30
-0.0000000000000833
 11
25.4999999999999183
 21
380.0436609429092982
 31
-0.0000000000000844
210
-0.0000000000000002
220
1.0
230
-0.0000000000000002
  0
LINE
  5
F0A4
  8
0
  6
VERDECKT
 62
     1
 10
25.0663619842786503
 20
375.0871557427477114
 30
-0.0000000000000833
 11
26.0625566823703494
 21
375.0
 31
-0.0000000000000833
210
-0.0000000000000002
220
1.0
230
-0.0000000000000002
  0
LINE
  5
F0A5
  8
0
  6
VERDECKT
 62
     1
 10
-25.0663619842788208
 20
375.0871557427477114
 30
-0.0000000000000833
 11
-26.0625566823705199
 21
375.0
 31
-0.0000000000000833
210
-0.0000000000000002
220
1.0
230
-0.0000000000000002
  0
LINE
  5
F0A6
  8
0
  6
VERDECKT
 62
     1
 10
-27.0000000000000995
 20
319.0
 30
-0.0000000000000708
 11
26.9999999999999183
 21
319.0
 31
-0.0000000000000708
210
-0.0000000000000002
220
1.0
230
-0.0000000000000002
  0
LINE
  5
F0A7
  8
0
  6
VERDECKT
 62
     1
 10
29.9999999999999183
 20
309.25
 30
-0.0000000000000687
 11
29.9999999999999183
 21
308.0
 31
-0.0000000000000684
210
-0.0000000000000002
220
1.0
230
-0.0000000000000002
  0
LINE
  5
F0A8
  8
0
  6
VERDECKT
 62
     1
 10
-30.0000000000000995
 20
309.25
 30
-0.0000000000000687
 11
-30.0000000000000995
 21
308.0
 31
-0.0000000000000684
210
-0.0000000000000002
220
1.0
230
-0.0000000000000002
  0
ARC
  5
F0A9
  8
0
  6
VERDECKT
 62
     1
 10
29.2500000000000604
 20
309.25
 30
0.0
 40
0.7500000000000392
210
0.0
220
-0.0000000000000002
230
-1.0
 50
0.0000000000043383
 51
89.9999999999970157
  0
ARC
  5
F0AA
  8
0
  6
VERDECKT
 62
     1
 10
29.2500000000001386
 20
309.25
 30
0.0
 40
0.7500000000000571
210
0.0
220
-0.0000000000000002
230
-1.0
 50
90.0000000000029559
 51
179.9999999999955946
  0
ARC
  5
F0AB
  8
0
  6
VERDECKT
 62
     1
 10
-29.2499999999999609
 20
309.25
 30
0.0
 40
0.7500000000000392
210
0.0
220
-0.0000000000000002
230
-1.0
 50
0.0000000000043383
 51
89.9999999999970157
  0
ARC
  5
F0AC
  8
0
  6
VERDECKT
 62
     1
 10
-29.2499999999998792
 20
309.25
 30
0.0
 40
0.7500000000000571
210
0.0
220
-0.0000000000000002
230
-1.0
 50
90.0000000000029559
 51
179.9999999999955946
  0
LINE
  5
F0AD
  8
0
  6
VERDECKT
 62
     1
 10
29.2499999999999183
 20
310.0
 30
-0.0000000000000688
 11
-29.2500000000000888
 21
310.0
 31
-0.0000000000000688
210
-0.0000000000000002
220
1.0
230
-0.0000000000000002
  0
LINE
  5
F0AE
  8
0
  6
VERDECKT
 62
     1
 10
28.4999999999999183
 20
309.2500000000001137
 30
-0.0000000000000687
 11
28.4999999999999183
 21
308.0
 31
-0.0000000000000684
210
-0.0000000000000002
220
1.0
230
-0.0000000000000002
  0
LINE
  5
F0AF
  8
0
  6
VERDECKT
 62
     1
 10
-28.5000000000000995
 20
309.2500000000001137
 30
-0.0000000000000687
 11
-28.5000000000000995
 21
308.0
 31
-0.0000000000000684
210
-0.0000000000000002
220
1.0
230
-0.0000000000000002
  0
ARC
  5
F0B0
  8
0
  6
VERDECKT
 62
     1
 10
28.0000000000002487
 20
286.5000000000001137
 30
0.0
 40
1.4999999999999909
210
0.0
220
-0.0000000000000002
230
-1.0
 50
146.4426902380832018
 51
269.9999999999982947
  0
ARC
  5
F0B1
  8
0
  6
VERDECKT
 62
     1
 10
-28.0000000000000817
 20
286.5000000000001137
 30
0.0
 40
1.5000000000000571
210
0.0
220
-0.0000000000000002
230
-1.0
 50
270.0
 51
33.5573097619149792
  0
ARC
  5
F0B2
  8
0
  6
VERDECKT
 62
     1
 10
25.5000000000003801
 20
288.1583123951776884
 30
0.0
 40
1.4999999999998099
210
0.0
220
-0.0000000000000002
230
-1.0
 50
326.442690238078626
 51
0.0000000000021615
  0
ARC
  5
F0B3
  8
0
  6
VERDECKT
 62
     1
 10
-25.5000000000002096
 20
288.1583123951776884
 30
0.0
 40
1.4999999999998259
210
0.0
220
-0.0000000000000002
230
-1.0
 50
179.9999999999978115
 51
213.5573097619212888
  0
LINE
  5
F0B4
  8
0
  6
VERDECKT
 62
     1
 10
26.9999999999999716
 20
305.4019237886465135
 30
-0.0000000000000678
 11
26.9999999999999787
 21
288.1583123951779157
 31
-0.000000000000064
210
-0.0000000000000002
220
1.0
230
-0.0000000000000002
  0
LINE
  5
F0B5
  8
0
  6
VERDECKT
 62
     1
 10
-27.0000000000001492
 20
305.4019237886465135
 30
-0.0000000000000678
 11
-27.0000000000001492
 21
288.1583123951779157
 31
-0.000000000000064
210
-0.0000000000000002
220
1.0
230
-0.0000000000000002
  0
ARC
  5
F0B6
  8
0
  6
VERDECKT
 62
     1
 10
25.5000000000001883
 20
305.4019237886466271
 30
0.0
 40
1.499999999999907
210
0.0
220
-0.0000000000000002
230
-1.0
 50
0.0
 51
60.0000000000017621
  0
ARC
  5
F0B7
  8
0
  6
VERDECKT
 62
     1
 10
-25.5000000000000107
 20
305.4019237886466271
 30
0.0
 40
1.4999999999998741
210
0.0
220
-0.0000000000000002
230
-1.0
 50
119.9999999999980957
 51
180.0
  0
ARC
  5
F0B8
  8
0
  6
VERDECKT
 62
     1
 10
27.0000000000000213
 20
308.0
 30
0.0
 40
1.4999999999999949
210
0.0
220
-0.0000000000000002
230
-1.0
 50
131.8103148957740132
 51
240.0000000000048885
  0
ARC
  5
F0B9
  8
0
  6
VERDECKT
 62
     1
 10
-26.9999999999998401
 20
308.0
 30
0.0
 40
1.500000000000024
210
0.0
220
-0.0000000000000002
230
-1.0
 50
299.9999999999951115
 51
48.1896851042259797
  0
ARC
  5
F0BA
  8
0
  6
VERDECKT
 62
     1
 10
24.0000000000003197
 20
311.3541019662495728
 30
0.0
 40
2.9999999999997771
210
0.0
220
-0.0000000000000002
230
-1.0
 50
311.8103148957775943
 51
0.0000000000032442
  0
ARC
  5
F0BB
  8
0
  6
VERDECKT
 62
     1
 10
-24.0000000000001492
 20
311.3541019662495728
 30
0.0
 40
2.9999999999997722
210
0.0
220
-0.0000000000000002
230
-1.0
 50
179.9999999999967031
 51
228.189685104222292
  0
LINE
  5
F0BC
  8
0
  6
VERDECKT
 62
     1
 10
26.9999999999999183
 20
319.0
 30
-0.0000000000000708
 11
26.9999999999999183
 21
311.3541019662498002
 31
-0.0000000000000691
210
-0.0000000000000002
220
1.0
230
-0.0000000000000002
  0
LINE
  5
F0BD
  8
0
  6
VERDECKT
 62
     1
 10
-27.0000000000000995
 20
319.0
 30
-0.0000000000000708
 11
-27.0000000000000995
 21
311.3541019662498002
 31
-0.0000000000000691
210
-0.0000000000000002
220
1.0
230
-0.0000000000000002
  0
LINE
  5
F0BE
  8
0
  6
VERDECKT
 62
     1
 10
-27.0000000000000995
 20
319.0
 30
-0.0000000000000708
 11
-28.0579618842508509
 21
325.0
 31
-0.0000000000000722
210
-0.0000000000000002
220
1.0
230
-0.0000000000000002
  0
LINE
  5
F0BF
  8
0
  6
VERDECKT
 62
     1
 10
26.9999999999999112
 20
319.0
 30
-0.0000000000000708
 11
28.0579618842506591
 21
325.0
 31
-0.0000000000000722
210
-0.0000000000000002
220
1.0
230
-0.0000000000000002
  0
ENDBLK
  5
F0C1
  8
0
  0
BLOCK
  8
0
  2
A$CE088D284
 70
     0
 10
0.0
 20
0.0
 30
0.0
  3
A$CE088D284
  1

  0
LINE
  5
F0C5
  8
0
  6
CONTINUOUS
 62
     3
 10
-30.5893004943132816
 20
235.0
 30
-0.0000000000000522
 11
30.58930049431331
 21
235.0
 31
-0.0000000000000522
210
0.0
220
1.0
230
-0.0000000000000002
  0
LINE
  5
F0C6
  8
0
  6
CONTINUOUS
 62
     3
 10
-30.5893004943132816
 20
234.0
 30
-0.000000000000052
 11
30.58930049431331
 21
234.0
 31
-0.000000000000052
210
0.0
220
1.0
230
-0.0000000000000002
  0
LINE
  5
F0C7
  8
0
  6
CONTINUOUS
 62
     3
 10
-27.2651479849880012
 20
221.0
 30
-0.0000000000000491
 11
27.2651479849880616
 21
221.0
 31
-0.0000000000000491
210
0.0
220
1.0
230
-0.0000000000000002
  0
LINE
  5
F0C8
  8
0
  6
CONTINUOUS
 62
     3
 10
30.5893004943132887
 20
235.0
 30
-0.0000000000000522
 11
30.5893004943132887
 21
234.0
 31
-0.000000000000052
210
0.0
220
1.0
230
-0.0000000000000002
  0
LINE
  5
F0C9
  8
0
  6
CONTINUOUS
 62
     3
 10
-30.5893004943132709
 20
235.0
 30
-0.0000000000000522
 11
-30.5893004943132709
 21
234.0
 31
-0.000000000000052
210
0.0
220
1.0
230
-0.0000000000000002
  0
LINE
  5
F0CA
  8
0
  6
CONTINUOUS
 62
     3
 10
-27.764911466526339
 20
221.4846226621064886
 30
-0.0000000000000492
 11
-28.1499999999999808
 21
234.0
 31
-0.000000000000052
210
0.0
220
1.0
230
-0.0000000000000002
  0
LINE
  5
F0CB
  8
0
  6
CONTINUOUS
 62
     3
 10
27.764911466526371
 20
221.4846226621064886
 30
-0.0000000000000492
 11
28.1500000000000092
 21
234.0000000000001137
 31
-0.000000000000052
210
0.0
220
1.0
230
-0.0000000000000002
  0
ARC
  5
F0CC
  8
0
  6
CONTINUOUS
 62
     3
 10
27.2651479849879799
 20
221.5
 30
0.0
 40
0.5000000000000285
210
0.0
220
-0.0000000000000002
230
-1.0
 50
270.0
 51
358.2376089763326945
  0
ARC
  5
F0CD
  8
0
  6
CONTINUOUS
 62
     3
 10
-27.2651479849880189
 20
221.5
 30
0.0
 40
0.5000000000000215
210
0.0
220
-0.0000000000000002
230
-1.0
 50
181.7623910236598874
 51
269.9999999999972147
  0
LINE
  5
F0CE
  8
0
  6
CONTINUOUS
 62
     3
 10
26.0625566823704311
 20
-0.0000000000000071
 30
0.0
 11
-26.0625566823704311
 21
-0.0000000000000071
 31
0.0
210
0.0
220
1.0
230
-0.0000000000000002
  0
LINE
  5
F0CF
  8
0
  6
CONTINUOUS
 62
     3
 10
-29.0172427686261507
 20
170.0
 30
-0.0000000000000377
 11
29.017242768626371
 21
170.0
 31
-0.0000000000000377
210
0.0
220
1.0
230
-0.0000000000000002
  0
LINE
  5
F0D0
  8
0
  6
CONTINUOUS
 62
     3
 10
-26.0625566823704311
 20
-0.0000000000000071
 30
0.0
 11
-26.5
 21
4.9999999999974349
 31
-0.0000000000000011
210
0.0
220
1.0
230
-0.0000000000000002
  0
LINE
  5
F0D1
  8
0
  6
CONTINUOUS
 62
     3
 10
26.0625566823704311
 20
-0.0000000000000071
 30
0.0
 11
26.5
 21
4.9999999999974349
 31
-0.0000000000000011
210
0.0
220
1.0
230
-0.0000000000000002
  0
LINE
  5
F0D2
  8
0
  6
CONTINUOUS
 62
     3
 10
-26.5
 20
4.9999999999974349
 30
-0.0000000000000011
 11
-26.5
 21
127.8768943743878026
 31
-0.0000000000000284
210
0.0
220
1.0
230
-0.0000000000000002
  0
LINE
  5
F0D3
  8
0
  6
CONTINUOUS
 62
     3
 10
26.5
 20
4.9999999999974349
 30
-0.0000000000000011
 11
26.5
 21
127.8768943743878026
 31
-0.0000000000000284
210
0.0
220
1.0
230
-0.0000000000000002
  0
ARC
  5
F0D4
  8
0
  6
CONTINUOUS
 62
     3
 10
40.8999999999603716
 20
161.6388625592738038
 30
0.0
 40
9.999999999960508
210
0.0
220
-0.0000000000000002
230
-1.0
 50
178.8200568062287914
 51
180.0000000000025011
  0
ARC
  5
F0D5
  8
0
  6
CONTINUOUS
 62
     3
 10
-40.8999999999941011
 20
161.6388625592732922
 30
0.0
 40
9.9999999999940172
210
0.0
220
-0.0000000000000002
230
-1.0
 50
0.0
 51
1.1799431937698239
  0
ARC
  5
F0D6
  8
0
  6
CONTINUOUS
 62
     3
 10
14.0757080698249393
 20
162.191357284441608
 30
0.0
 40
16.8299811400713786
210
0.0
220
-0.0000000000000002
230
-1.0
 50
358.8200568062308093
 51
24.2325657076154002
  0
ARC
  5
F0D7
  8
0
  6
CONTINUOUS
 62
     3
 10
-14.0757080698251702
 20
162.191357284441608
 30
0.0
 40
16.8299811400713786
210
0.0
220
-0.0000000000000002
230
-1.0
 50
155.7674342923845927
 51
181.1799431937691054
  0
LINE
  5
F0D8
  8
0
  6
CONTINUOUS
 62
     3
 10
30.9000000000000909
 20
161.6388625592732922
 30
-0.0000000000000359
 11
30.9000000000000909
 21
157.1223666767847931
 31
-0.0000000000000349
210
0.0
220
1.0
230
-0.0000000000000002
  0
LINE
  5
F0D9
  8
0
  6
CONTINUOUS
 62
     3
 10
-30.89999999999986
 20
161.6388625592732922
 30
-0.0000000000000359
 11
-30.89999999999986
 21
157.1223666767847931
 31
-0.0000000000000349
210
0.0
220
1.0
230
-0.0000000000000002
  0
LINE
  5
F0DA
  8
0
  6
CONTINUOUS
 62
     3
 10
29.0172427686264207
 20
170.0
 30
-0.0000000000000377
 11
29.4227486993553811
 21
169.0990782610523979
 31
-0.0000000000000375
210
0.0
220
1.0
230
-0.0000000000000002
  0
LINE
  5
F0DB
  8
0
  6
CONTINUOUS
 62
     3
 10
-29.0172427686262004
 20
170.0
 30
-0.0000000000000377
 11
-29.4227486993551608
 21
169.0990782610523979
 31
-0.0000000000000375
210
0.0
220
1.0
230
-0.0000000000000002
  0
ARC
  5
F0DC
  8
0
  6
CONTINUOUS
 62
     3
 10
6.6299814877457548
 20
157.122366676785191
 30
0.0
 40
24.2700185122541114
210
0.0
220
-0.0000000000000002
230
-1.0
 50
340.4442140178521754
 51
359.9999999999992042
  0
ARC
  5
F0DD
  8
0
  6
CONTINUOUS
 62
     3
 10
-6.6299814877459831
 20
157.122366676785191
 30
0.0
 40
24.2700185122541114
210
0.0
220
-0.0000000000000002
230
-1.0
 50
180.0000000000007105
 51
199.5557859821477962
  0
ARC
  5
F0DE
  8
0
  6
CONTINUOUS
 62
     3
 10
39.3018834053809911
 20
145.516826988049786
 30
0.0
 40
10.4018970157692792
210
0.0
220
-0.0000000000000002
230
-1.0
 50
160.4442140178543923
 51
180.0926865374555916
  0
ARC
  5
F0DF
  8
0
  6
CONTINUOUS
 62
     3
 10
-39.3018834053813677
 20
145.516826988049786
 30
0.0
 40
10.4018970157694408
210
0.0
220
-0.0000000000000002
230
-1.0
 50
359.9073134625446073
 51
19.5557859821454407
  0
LINE
  5
F0E0
  8
0
  6
CONTINUOUS
 62
     3
 10
28.9000000000000909
 20
145.5000000000054001
 30
-0.0000000000000323
 11
28.9000000000000909
 21
137.249193985475813
 31
-0.0000000000000305
210
0.0
220
1.0
230
-0.0000000000000002
  0
LINE
  5
F0E1
  8
0
  6
CONTINUOUS
 62
     3
 10
-28.89999999999986
 20
145.5000000000054001
 30
-0.0000000000000323
 11
-28.89999999999986
 21
137.249193985475813
 31
-0.0000000000000305
210
0.0
220
1.0
230
-0.0000000000000002
  0
ARC
  5
F0E2
  8
0
  6
CONTINUOUS
 62
     3
 10
17.4000000000005883
 20
137.249193985475614
 30
0.0
 40
11.4999999999992593
210
0.0
220
-0.0000000000000002
230
-1.0
 50
331.2733946518573021
 51
0.0000000000008524
  0
ARC
  5
F0E3
  8
0
  6
CONTINUOUS
 62
     3
 10
-17.4000000000009187
 20
137.249193985475614
 30
0.0
 40
11.4999999999991598
210
0.0
220
-0.0000000000000002
230
-1.0
 50
179.9999999999990052
 51
208.7266053481428116
  0
ARC
  5
F0E4
  8
0
  6
CONTINUOUS
 62
     3
 10
34.4999999999986571
 20
127.876894374388101
 30
0.0
 40
7.9999999999987716
210
0.0
220
-0.0000000000000002
230
-1.0
 50
151.2733946518584958
 51
180.0000000000027001
  0
ARC
  5
F0E5
  8
0
  6
CONTINUOUS
 62
     3
 10
-34.4999999999988916
 20
127.876894374388101
 30
0.0
 40
7.9999999999987672
210
0.0
220
-0.0000000000000002
230
-1.0
 50
359.9999999999973284
 51
28.7266053481414403
  0
LINE
  5
F0E6
  8
0
  6
CONTINUOUS
 62
     3
 10
-26.5
 20
507.0000000000001137
 30
-0.0000000000001126
 11
26.5
 21
560.0000000000001137
 31
-0.0000000000001243
210
0.0
220
1.0
230
-0.0000000000000002
  0
LINE
  5
F0E7
  8
0
  6
CONTINUOUS
 62
     3
 10
26.0625566823704311
 20
375.0
 30
-0.0000000000000833
 11
-26.0625566823704311
 21
375.0
 31
-0.0000000000000833
210
0.0
220
1.0
230
-0.0000000000000002
  0
LINE
  5
F0E8
  8
0
  6
CONTINUOUS
 62
     3
 10
-26.0625566823704311
 20
375.0
 30
-0.0000000000000833
 11
-26.4999999999999893
 21
379.9999999999973284
 31
-0.0000000000000844
210
0.0
220
1.0
230
-0.0000000000000002
  0
LINE
  5
F0E9
  8
0
  6
CONTINUOUS
 62
     3
 10
26.0625566823704311
 20
375.0
 30
-0.0000000000000833
 11
26.5
 21
379.9999999999973852
 31
-0.0000000000000844
210
0.0
220
1.0
230
-0.0000000000000002
  0
LINE
  5
F0EA
  8
0
  6
CONTINUOUS
 62
     3
 10
-26.5
 20
379.9999999999973284
 30
-0.0000000000000844
 11
-26.5
 21
507.0
 31
-0.0000000000001126
210
0.0
220
1.0
230
-0.0000000000000002
  0
LINE
  5
F0EB
  8
0
  6
CONTINUOUS
 62
     3
 10
26.5
 20
379.9999999999973852
 30
-0.0000000000000844
 11
26.5
 21
560.0000000000001137
 31
-0.0000000000001243
210
0.0
220
1.0
230
-0.0000000000000002
  0
LINE
  5
F0EC
  8
0
  6
CONTINUOUS
 62
     3
 10
-30.2499999999999716
 20
314.6000000000000227
 30
-0.0000000000000699
 11
30.2500000000000284
 21
314.6000000000000227
 31
-0.0000000000000699
210
0.0
220
1.0
230
-0.0000000000000002
  0
LINE
  5
F0ED
  8
0
  6
CONTINUOUS
 62
     3
 10
-30.2499999999999716
 20
315.4666622578998272
 30
-0.00000000000007
 11
30.2500000000000284
 21
315.4666622578998272
 31
-0.00000000000007
210
0.0
220
1.0
230
-0.0000000000000002
  0
LINE
  5
F0EE
  8
0
  6
CONTINUOUS
 62
     3
 10
-30.8499999999999908
 20
314.0
 30
-0.0000000000000697
 11
30.8500000000000512
 21
314.0
 31
-0.0000000000000697
210
0.0
220
1.0
230
-0.0000000000000002
  0
LINE
  5
F0EF
  8
0
  6
CONTINUOUS
 62
     3
 10
-30.8499999999999908
 20
312.9999999999998863
 30
-0.0000000000000695
 11
30.8500000000000512
 21
312.9999999999998863
 31
-0.0000000000000695
210
0.0
220
1.0
230
-0.0000000000000002
  0
LINE
  5
F0F0
  8
0
  6
CONTINUOUS
 62
     3
 10
-30.2499999999999716
 20
312.3999999999999773
 30
-0.0000000000000694
 11
30.2500000000000284
 21
312.3999999999999773
 31
-0.0000000000000694
210
0.0
220
1.0
230
-0.0000000000000002
  0
LINE
  5
F0F1
  8
0
  6
CONTINUOUS
 62
     3
 10
-30.2499999999999716
 20
311.7528871108917201
 30
-0.0000000000000692
 11
30.2500000000000284
 21
311.7528871108917201
 31
-0.0000000000000692
210
0.0
220
1.0
230
-0.0000000000000002
  0
LINE
  5
F0F2
  8
0
  6
CONTINUOUS
 62
     3
 10
-31.9999999999999716
 20
308.0
 30
-0.0000000000000684
 11
32.0000000000000284
 21
308.0
 31
-0.0000000000000684
210
0.0
220
1.0
230
-0.0000000000000002
  0
LINE
  5
F0F3
  8
0
  6
CONTINUOUS
 62
     3
 10
-28.0000000000000817
 20
285.0
 30
-0.0000000000000633
 11
28.0000000000001386
 21
285.0
 31
-0.0000000000000633
210
0.0
220
1.0
230
-0.0000000000000002
  0
LINE
  5
F0F4
  8
0
  6
CONTINUOUS
 62
     3
 10
-30.4999999999999716
 20
325.0
 30
-0.0000000000000722
 11
30.5000000000000284
 21
325.0
 31
-0.0000000000000722
210
0.0
220
1.0
230
-0.0000000000000002
  0
LINE
  5
F0F5
  8
0
  6
CONTINUOUS
 62
     3
 10
-31.9999999999999716
 20
319.9999999999998863
 30
-0.0000000000000711
 11
32.0000000000000284
 21
319.9999999999998863
 31
-0.0000000000000711
210
0.0
220
1.0
230
-0.0000000000000002
  0
LINE
  5
F0F6
  8
0
  6
CONTINUOUS
 62
     3
 10
30.25
 20
315.4666622578998272
 30
-0.00000000000007
 11
30.25
 21
314.6000000000000227
 31
-0.0000000000000699
210
0.0
220
1.0
230
-0.0000000000000002
  0
LINE
  5
F0F7
  8
0
  6
CONTINUOUS
 62
     3
 10
-30.25
 20
315.4666622578998272
 30
-0.00000000000007
 11
-30.25
 21
314.6000000000000227
 31
-0.0000000000000699
210
0.0
220
1.0
230
-0.0000000000000002
  0
LINE
  5
F0F8
  8
0
  6
CONTINUOUS
 62
     3
 10
30.2500000000000213
 20
314.6000000000000227
 30
-0.0000000000000699
 11
30.8500000000000405
 21
314.0
 31
-0.0000000000000697
210
0.0
220
1.0
230
-0.0000000000000002
  0
LINE
  5
F0F9
  8
0
  6
CONTINUOUS
 62
     3
 10
-30.25
 20
314.6000000000000227
 30
-0.0000000000000699
 11
-30.8500000000000298
 21
314.0
 31
-0.0000000000000697
210
0.0
220
1.0
230
-0.0000000000000002
  0
LINE
  5
F0FA
  8
0
  6
CONTINUOUS
 62
     3
 10
30.8500000000000298
 20
314.0
 30
-0.0000000000000697
 11
30.8500000000000298
 21
312.9999999999998863
 31
-0.0000000000000695
210
0.0
220
1.0
230
-0.0000000000000002
  0
LINE
  5
F0FB
  8
0
  6
CONTINUOUS
 62
     3
 10
-30.8500000000000298
 20
314.0
 30
-0.0000000000000697
 11
-30.8500000000000298
 21
312.9999999999998863
 31
-0.0000000000000695
210
0.0
220
1.0
230
-0.0000000000000002
  0
LINE
  5
F0FC
  8
0
  6
CONTINUOUS
 62
     3
 10
-30.2500000000000213
 20
312.3999999999999773
 30
-0.0000000000000694
 11
-30.8500000000000085
 21
312.9999999999998863
 31
-0.0000000000000695
210
0.0
220
1.0
230
-0.0000000000000002
  0
LINE
  5
F0FD
  8
0
  6
CONTINUOUS
 62
     3
 10
30.25
 20
312.3999999999999773
 30
-0.0000000000000694
 11
30.8500000000000298
 21
312.9999999999998863
 31
-0.0000000000000695
210
0.0
220
1.0
230
-0.0000000000000002
  0
LINE
  5
F0FE
  8
0
  6
CONTINUOUS
 62
     3
 10
30.25
 20
312.3999999999999773
 30
-0.0000000000000694
 11
30.25
 21
311.7528871108917201
 31
-0.0000000000000692
210
0.0
220
1.0
230
-0.0000000000000002
  0
LINE
  5
F0FF
  8
0
  6
CONTINUOUS
 62
     3
 10
-30.25
 20
312.3999999999999773
 30
-0.0000000000000694
 11
-30.25
 21
311.7528871108917201
 31
-0.0000000000000692
210
0.0
220
1.0
230
-0.0000000000000002
  0
LINE
  5
F100
  8
0
  6
CONTINUOUS
 62
     3
 10
30.25
 20
311.7528871108917201
 30
-0.0000000000000692
 11
32.0000000000000071
 21
308.0
 31
-0.0000000000000684
210
0.0
220
1.0
230
-0.0000000000000002
  0
LINE
  5
F101
  8
0
  6
CONTINUOUS
 62
     3
 10
-30.2500000000000213
 20
311.7528871108917201
 30
-0.0000000000000692
 11
-31.9999999999999787
 21
308.0
 31
-0.0000000000000684
210
0.0
220
1.0
230
-0.0000000000000002
  0
LINE
  5
F102
  8
0
  6
CONTINUOUS
 62
     3
 10
28.5
 20
308.0
 30
-0.0000000000000684
 11
28.5
 21
290.9999999999996021
 31
-0.0000000000000646
210
0.0
220
1.0
230
-0.0000000000000002
  0
LINE
  5
F103
  8
0
  6
CONTINUOUS
 62
     3
 10
-28.5
 20
308.0
 30
-0.0000000000000684
 11
-28.5
 21
290.9999999999996021
 31
-0.0000000000000646
210
0.0
220
1.0
230
-0.0000000000000002
  0
LINE
  5
F104
  8
0
  6
CONTINUOUS
 62
     3
 10
-28.0000000000001101
 20
285.0
 30
-0.0000000000000633
 11
-28.5000000000000107
 21
290.9999999999996021
 31
-0.0000000000000646
210
0.0
220
1.0
230
-0.0000000000000002
  0
LINE
  5
F105
  8
0
  6
CONTINUOUS
 62
     3
 10
28.0000000000001101
 20
285.0
 30
-0.0000000000000633
 11
28.5000000000000107
 21
290.9999999999996021
 31
-0.0000000000000646
210
0.0
220
1.0
230
-0.0000000000000002
  0
ARC
  5
F106
  8
0
  6
CONTINUOUS
 62
     3
 10
30.5000000000000391
 20
323.5
 30
0.0
 40
1.4999999999999569
210
0.0
220
-0.0000000000000002
230
-1.0
 50
0.0
 51
89.99999999999946
  0
ARC
  5
F107
  8
0
  6
CONTINUOUS
 62
     3
 10
-30.4999999999999893
 20
323.4999999999998863
 30
0.0
 40
1.5
210
0.0
220
-0.0000000000000002
230
-1.0
 50
90.0000000000014637
 51
179.9999999999955946
  0
LINE
  5
F108
  8
0
  6
CONTINUOUS
 62
     3
 10
32.0
 20
323.5000000000001137
 30
-0.0000000000000718
 11
32.0
 21
319.9999999999998863
 31
-0.0000000000000711
210
0.0
220
1.0
230
-0.0000000000000002
  0
LINE
  5
F109
  8
0
  6
CONTINUOUS
 62
     3
 10
-32.0
 20
323.5000000000001137
 30
-0.0000000000000718
 11
-32.0
 21
319.9999999999998863
 31
-0.0000000000000711
210
0.0
220
1.0
230
-0.0000000000000002
  0
ARC
  5
F10A
  8
0
  6
CONTINUOUS
 62
     3
 10
29.3140740033710401
 20
319.4999999999998863
 30
0.0
 40
0.5
210
0.0
220
-0.0000000000000002
230
-1.0
 50
89.9999999999983658
 51
199.9999999999888871
  0
ARC
  5
F10B
  8
0
  6
CONTINUOUS
 62
     3
 10
-29.3140740033710401
 20
319.4999999999998863
 30
0.0
 40
0.500000000000019
210
0.0
220
-0.0000000000000002
230
-1.0
 50
340.0000000000042064
 51
90.0000000000044764
  0
LINE
  5
F10C
  8
0
  6
CONTINUOUS
 62
     3
 10
28.8442276929780483
 20
319.3289899283370801
 30
-0.0000000000000709
 11
30.2499999999999893
 21
315.4666622578998272
 31
-0.00000000000007
210
0.0
220
1.0
230
-0.0000000000000002
  0
LINE
  5
F10D
  8
0
  6
CONTINUOUS
 62
     3
 10
-28.8442276929780306
 20
319.3289899283371938
 30
-0.0000000000000709
 11
-30.2499999999999893
 21
315.4666622578998272
 31
-0.00000000000007
210
0.0
220
1.0
230
-0.0000000000000002
  0
LINE
  5
F10E
  8
0
  6
VERDECKT
 62
     1
 10
-26.2954439549640711
 20
222.0
 30
-0.0000000000000493
 11
26.2954439549640995
 21
222.0
 31
-0.0000000000000493
210
0.0
220
1.0
230
-0.0000000000000002
  0
ARC
  5
F10F
  8
0
  6
VERDECKT
 62
     1
 10
26.2954439549640391
 20
222.5
 30
0.0
 40
0.5
210
0.0
220
-0.0000000000000002
230
-1.0
 50
270.0
 51
358.2376089763358777
  0
ARC
  5
F110
  8
0
  6
VERDECKT
 62
     1
 10
-26.2954439549640604
 20
222.5
 30
0.0
 40
0.5000000000000073
210
0.0
220
-0.0000000000000002
230
-1.0
 50
181.7623910236600011
 51
269.9999999999959073
  0
LINE
  5
F111
  8
0
  6
VERDECKT
 62
     1
 10
-26.7952074365023982
 20
222.4846226621064886
 30
-0.0000000000000494
 11
-27.1653845034497117
 21
234.5153773378935114
 31
-0.0000000000000521
210
0.0
220
1.0
230
-0.0000000000000002
  0
LINE
  5
F112
  8
0
  6
VERDECKT
 62
     1
 10
26.7952074365024302
 20
222.4846226621064886
 30
-0.0000000000000494
 11
27.1653845034497401
 21
234.5153773378935114
 31
-0.0000000000000521
210
0.0
220
1.0
230
-0.0000000000000002
  0
ARC
  5
F113
  8
0
  6
VERDECKT
 62
     1
 10
27.6651479849880602
 20
234.4999999999998863
 30
0.0
 40
0.500000000000057
210
0.0
220
-0.0000000000000002
230
-1.0
 50
90.0000000000040643
 51
178.237608976333604
  0
ARC
  5
F114
  8
0
  6
VERDECKT
 62
     1
 10
-27.6651479849880886
 20
234.4999999999998863
 30
0.0
 40
0.500000000000034
210
0.0
220
-0.0000000000000002
230
-1.0
 50
1.76239102366645
 51
89.9999999999959357
  0
LINE
  5
F115
  8
0
  6
VERDECKT
 62
     1
 10
25.0663619842787284
 20
0.087155742747644
 30
0.0
 11
-25.0663619842787284
 21
0.0871557427476475
 31
0.0
210
0.0
220
1.0
230
-0.0000000000000002
  0
LINE
  5
F116
  8
0
  6
VERDECKT
 62
     1
 10
-28.1163352544879217
 20
169.5659888815141869
 30
-0.0000000000000377
 11
28.1163352544881491
 21
169.5659888815141869
 31
-0.0000000000000377
210
0.0
220
1.0
230
-0.0000000000000002
  0
LINE
  5
F117
  8
0
  6
VERDECKT
 62
     1
 10
-25.5
 20
5.0436609429091783
 30
-0.0000000000000011
 11
-25.5
 21
127.8768943743876036
 31
-0.0000000000000284
210
0.0
220
1.0
230
-0.0000000000000002
  0
LINE
  5
F118
  8
0
  6
VERDECKT
 62
     1
 10
25.5
 20
5.0436609429091783
 30
-0.0000000000000011
 11
25.5
 21
127.8768943743876036
 31
-0.0000000000000284
210
0.0
220
1.0
230
-0.0000000000000002
  0
LINE
  5
F119
  8
0
  6
VERDECKT
 62
     1
 10
-25.0663619842787284
 20
0.0871557427476471
 30
0.0
 11
-25.5000000000000107
 21
5.0436609429091783
 31
-0.0000000000000011
210
0.0
220
1.0
230
-0.0000000000000002
  0
LINE
  5
F11A
  8
0
  6
VERDECKT
 62
     1
 10
25.0663619842787284
 20
0.0871557427476471
 30
0.0
 11
25.5000000000000107
 21
5.0436609429091783
 31
-0.0000000000000011
210
0.0
220
1.0
230
-0.0000000000000002
  0
LINE
  5
F11B
  8
0
  6
VERDECKT
 62
     1
 10
25.0663619842787284
 20
0.0871557427476475
 30
0.0
 11
26.0625566823704311
 21
-0.0000000000000071
 31
0.0
210
0.0
220
1.0
230
-0.0000000000000002
  0
LINE
  5
F11C
  8
0
  6
VERDECKT
 62
     1
 10
-25.0663619842787284
 20
0.0871557427476475
 30
0.0
 11
-26.0625566823704311
 21
-0.0000000000000071
 31
0.0
210
0.0
220
1.0
230
-0.0000000000000002
  0
ARC
  5
F11D
  8
0
  6
VERDECKT
 62
     1
 10
34.5000000000002274
 20
127.8768943743877031
 30
0.0
 40
9.0000000000003482
210
0.0
220
-0.0000000000000002
230
-1.0
 50
151.2733946518588937
 51
180.0000000000003979
  0
ARC
  5
F11E
  8
0
  6
VERDECKT
 62
     1
 10
-34.5000000000004405
 20
127.8768943743877031
 30
0.0
 40
9.0000000000003268
210
0.0
220
-0.0000000000000002
230
-1.0
 50
359.9999999999993747
 51
28.726605348140879
  0
ARC
  5
F11F
  8
0
  6
VERDECKT
 62
     1
 10
17.3999999999983714
 20
137.2491939854762109
 30
0.0
 40
10.5000000000014904
210
0.0
220
-0.0000000000000002
230
-1.0
 50
331.2733946518620769
 51
359.9999999999977831
  0
ARC
  5
F120
  8
0
  6
VERDECKT
 62
     1
 10
-17.3999999999983608
 20
137.2491939854762109
 30
0.0
 40
10.5000000000017302
210
0.0
220
-0.0000000000000002
230
-1.0
 50
180.0000000000023874
 51
208.7266053481378094
  0
LINE
  5
F121
  8
0
  6
VERDECKT
 62
     1
 10
27.9000000000000909
 20
145.5000000000054001
 30
-0.0000000000000323
 11
27.9000000000000909
 21
137.249193985475813
 31
-0.0000000000000305
210
0.0
220
1.0
230
-0.0000000000000002
  0
LINE
  5
F122
  8
0
  6
VERDECKT
 62
     1
 10
-27.8999999999998707
 20
145.5000000000054001
 30
-0.0000000000000323
 11
-27.8999999999998707
 21
137.249193985475813
 31
-0.0000000000000305
210
0.0
220
1.0
230
-0.0000000000000002
  0
ARC
  5
F123
  8
0
  6
VERDECKT
 62
     1
 10
39.400000000000297
 20
145.5000000000055138
 30
0.0
 40
11.5000000000004299
210
0.0
220
-0.0000000000000002
230
-1.0
 50
160.536900555311405
 51
180.000000000000199
  0
ARC
  5
F124
  8
0
  6
VERDECKT
 62
     1
 10
-39.4000000000005315
 20
145.5000000000055138
 30
0.0
 40
11.5000000000004299
210
0.0
220
-0.0000000000000002
230
-1.0
 50
359.9999999999997158
 51
19.4630994446885417
  0
ARC
  5
F125
  8
0
  6
VERDECKT
 62
     1
 10
6.3999772691692227
 20
157.1620080329427935
 30
0.0
 40
23.5000561656068108
210
0.0
220
-0.0000000000000002
230
-1.0
 50
340.5369005553123998
 51
359.9033498701800227
  0
ARC
  5
F126
  8
0
  6
VERDECKT
 62
     1
 10
-6.399977269169308
 20
157.1620080329427935
 30
0.0
 40
23.5000561656069493
210
0.0
220
-0.0000000000000002
230
-1.0
 50
180.0966501298200058
 51
199.4630994446874865
  0
LINE
  5
F127
  8
0
  6
VERDECKT
 62
     1
 10
29.9000000000000909
 20
161.7537887487700061
 30
-0.0000000000000359
 11
29.9000000000000909
 21
157.1223666767847931
 31
-0.0000000000000349
210
0.0
220
1.0
230
-0.0000000000000002
  0
LINE
  5
F128
  8
0
  6
VERDECKT
 62
     1
 10
-29.89999999999986
 20
161.7537887487700061
 30
-0.0000000000000359
 11
-29.89999999999986
 21
157.1223666767847931
 31
-0.0000000000000349
210
0.0
220
1.0
230
-0.0000000000000002
  0
ARC
  5
F129
  8
0
  6
VERDECKT
 62
     1
 10
11.8999999999988599
 20
161.7537887487698072
 30
0.0
 40
18.0000000000009983
210
0.0
220
-0.0000000000000002
230
-1.0
 50
0.0000000000007252
 51
25.7223864921818617
  0
ARC
  5
F12A
  8
0
  6
VERDECKT
 62
     1
 10
-11.8999999999990091
 20
161.7537887487698072
 30
0.0
 40
18.00000000000108
210
0.0
220
-0.0000000000000002
230
-1.0
 50
154.2776135078181028
 51
179.9999999999992042
  0
LINE
  5
F12B
  8
0
  6
VERDECKT
 62
     1
 10
-28.1163352544879217
 20
169.5659888815141869
 30
-0.0000000000000377
 11
-29.0172427686261507
 21
170.0
 31
-0.0000000000000377
210
0.0
220
1.0
230
-0.0000000000000002
  0
LINE
  5
F12C
  8
0
  6
VERDECKT
 62
     1
 10
28.1163352544881491
 20
169.5659888815141869
 30
-0.0000000000000377
 11
29.017242768626371
 21
170.0
 31
-0.0000000000000377
210
0.0
220
1.0
230
-0.0000000000000002
  0
LINE
  5
F12D
  8
0
  6
VERDECKT
 62
     1
 10
25.0663619842787284
 20
375.0871557427475977
 30
-0.0000000000000833
 11
-25.0663619842787284
 21
375.0871557427475977
 31
-0.0000000000000833
210
0.0
220
1.0
230
-0.0000000000000002
  0
LINE
  5
F12E
  8
0
  6
VERDECKT
 62
     1
 10
-25.5
 20
380.0436609429091845
 30
-0.0000000000000844
 11
-25.5
 21
508.0
 31
-0.0000000000001128
210
0.0
220
1.0
230
-0.0000000000000002
  0
LINE
  5
F12F
  8
0
  6
VERDECKT
 62
     1
 10
25.5
 20
380.0436609429091277
 30
-0.0000000000000844
 11
25.5
 21
559.0000000000001137
 31
-0.0000000000001241
210
0.0
220
1.0
230
-0.0000000000000002
  0
LINE
  5
F130
  8
0
  6
VERDECKT
 62
     1
 10
-25.0663619842787284
 20
375.0871557427475977
 30
-0.0000000000000833
 11
-25.5000000000000107
 21
380.0436609429091845
 31
-0.0000000000000844
210
0.0
220
1.0
230
-0.0000000000000002
  0
LINE
  5
F131
  8
0
  6
VERDECKT
 62
     1
 10
25.0663619842787284
 20
375.0871557427475977
 30
-0.0000000000000833
 11
25.5000000000000107
 21
380.0436609429091277
 31
-0.0000000000000844
210
0.0
220
1.0
230
-0.0000000000000002
  0
LINE
  5
F132
  8
0
  6
VERDECKT
 62
     1
 10
25.0663619842787284
 20
375.0871557427475977
 30
-0.0000000000000833
 11
26.0625566823704311
 21
375.0
 31
-0.0000000000000833
210
0.0
220
1.0
230
-0.0000000000000002
  0
LINE
  5
F133
  8
0
  6
VERDECKT
 62
     1
 10
-25.0663619842787284
 20
375.0871557427475977
 30
-0.0000000000000833
 11
-26.0625566823704311
 21
375.0
 31
-0.0000000000000833
210
0.0
220
1.0
230
-0.0000000000000002
  0
LINE
  5
F134
  8
0
  6
VERDECKT
 62
     1
 10
-26.9999999999999716
 20
318.9999999999998863
 30
-0.0000000000000708
 11
27.0000000000000284
 21
318.9999999999998863
 31
-0.0000000000000708
210
0.0
220
1.0
230
-0.0000000000000002
  0
LINE
  5
F135
  8
0
  6
VERDECKT
 62
     1
 10
30.0
 20
309.25
 30
-0.0000000000000687
 11
30.0
 21
308.0
 31
-0.0000000000000684
210
0.0
220
1.0
230
-0.0000000000000002
  0
LINE
  5
F136
  8
0
  6
VERDECKT
 62
     1
 10
-30.0
 20
309.2499999999998863
 30
-0.0000000000000687
 11
-30.0
 21
308.0
 31
-0.0000000000000684
210
0.0
220
1.0
230
-0.0000000000000002
  0
ARC
  5
F137
  8
0
  6
VERDECKT
 62
     1
 10
29.2499999999999609
 20
309.2499999999998863
 30
0.0
 40
0.750000000000039
210
0.0
220
-0.0000000000000002
230
-1.0
 50
0.000000000004351
 51
89.9999999999970157
  0
ARC
  5
F138
  8
0
  6
VERDECKT
 62
     1
 10
29.2500000000000391
 20
309.2499999999998863
 30
0.0
 40
0.750000000000057
210
0.0
220
-0.0000000000000002
230
-1.0
 50
90.0000000000029559
 51
179.9999999999955946
  0
ARC
  5
F139
  8
0
  6
VERDECKT
 62
     1
 10
-29.2500000000000391
 20
309.2499999999998863
 30
0.0
 40
0.750000000000039
210
0.0
220
-0.0000000000000002
230
-1.0
 50
0.000000000004351
 51
89.9999999999970157
  0
ARC
  5
F13A
  8
0
  6
VERDECKT
 62
     1
 10
-29.2499999999999609
 20
309.2499999999998863
 30
0.0
 40
0.750000000000057
210
0.0
220
-0.0000000000000002
230
-1.0
 50
90.0000000000029559
 51
179.9999999999955946
  0
LINE
  5
F13B
  8
0
  6
VERDECKT
 62
     1
 10
29.25
 20
310.0
 30
-0.0000000000000688
 11
-29.25
 21
310.0
 31
-0.0000000000000688
210
0.0
220
1.0
230
-0.0000000000000002
  0
LINE
  5
F13C
  8
0
  6
VERDECKT
 62
     1
 10
28.5
 20
309.25
 30
-0.0000000000000687
 11
28.5
 21
308.0
 31
-0.0000000000000684
210
0.0
220
1.0
230
-0.0000000000000002
  0
LINE
  5
F13D
  8
0
  6
VERDECKT
 62
     1
 10
-28.5
 20
309.25
 30
-0.0000000000000687
 11
-28.5
 21
308.0
 31
-0.0000000000000684
210
0.0
220
1.0
230
-0.0000000000000002
  0
ARC
  5
F13E
  8
0
  6
VERDECKT
 62
     1
 10
28.0000000000001599
 20
286.5000000000001137
 30
0.0
 40
1.4999999999999909
210
0.0
220
-0.0000000000000002
230
-1.0
 50
146.4426902380832018
 51
269.9999999999982947
  0
ARC
  5
F13F
  8
0
  6
VERDECKT
 62
     1
 10
-28.0000000000001705
 20
286.5000000000001137
 30
0.0
 40
1.500000000000056
210
0.0
220
-0.0000000000000002
230
-1.0
 50
270.0
 51
33.5573097619154694
  0
ARC
  5
F140
  8
0
  6
VERDECKT
 62
     1
 10
25.5000000000002913
 20
288.1583123951775747
 30
0.0
 40
1.4999999999998099
210
0.0
220
-0.0000000000000002
230
-1.0
 50
326.4426902380786828
 51
0.0000000000021742
  0
ARC
  5
F141
  8
0
  6
VERDECKT
 62
     1
 10
-25.5000000000000213
 20
288.1583123951776884
 30
0.0
 40
1.5000000000000919
210
0.0
220
-0.0000000000000002
230
-1.0
 50
179.9999999999978115
 51
213.5573097619198961
  0
LINE
  5
F142
  8
0
  6
VERDECKT
 62
     1
 10
27.0000000000000604
 20
305.4019237886465135
 30
-0.0000000000000678
 11
27.0000000000000604
 21
288.1583123951776884
 31
-0.000000000000064
210
0.0
220
1.0
230
-0.0000000000000002
  0
LINE
  5
F143
  8
0
  6
VERDECKT
 62
     1
 10
-27.0000000000000604
 20
305.4019237886465135
 30
-0.0000000000000678
 11
-27.0000000000000604
 21
288.158312395177802
 31
-0.000000000000064
210
0.0
220
1.0
230
-0.0000000000000002
  0
ARC
  5
F144
  8
0
  6
VERDECKT
 62
     1
 10
25.5000000000000995
 20
305.4019237886466271
 30
0.0
 40
1.499999999999907
210
0.0
220
-0.0000000000000002
230
-1.0
 50
0.0
 51
60.0000000000017693
  0
ARC
  5
F145
  8
0
  6
VERDECKT
 62
     1
 10
-25.5000000000001315
 20
305.4019237886466271
 30
0.0
 40
1.499999999999865
210
0.0
220
-0.0000000000000002
230
-1.0
 50
119.9999999999975984
 51
180.0000000000021032
  0
ARC
  5
F146
  8
0
  6
VERDECKT
 62
     1
 10
26.9999999999999183
 20
307.9999999999998863
 30
0.0
 40
1.4999999999999949
210
0.0
220
-0.0000000000000002
230
-1.0
 50
131.8103148957740132
 51
240.0000000000048885
  0
ARC
  5
F147
  8
0
  6
VERDECKT
 62
     1
 10
-26.9999999999999005
 20
307.9999999999998863
 30
0.0
 40
1.500000000000006
210
0.0
220
-0.0000000000000002
230
-1.0
 50
299.9999999999939178
 51
48.1896851042289427
  0
ARC
  5
F148
  8
0
  6
VERDECKT
 62
     1
 10
24.0000000000002309
 20
311.3541019662495728
 30
0.0
 40
2.9999999999997762
210
0.0
220
-0.0000000000000002
230
-1.0
 50
311.8103148957775943
 51
0.0000000000032569
  0
ARC
  5
F149
  8
0
  6
VERDECKT
 62
     1
 10
-24.0000000000001883
 20
311.3541019662495728
 30
0.0
 40
2.9999999999998148
210
0.0
220
-0.0000000000000002
230
-1.0
 50
179.9999999999967031
 51
228.1896851042216099
  0
LINE
  5
F14A
  8
0
  6
VERDECKT
 62
     1
 10
27.0
 20
318.9999999999998863
 30
-0.0000000000000708
 11
27.0
 21
311.3541019662496865
 31
-0.0000000000000691
210
0.0
220
1.0
230
-0.0000000000000002
  0
LINE
  5
F14B
  8
0
  6
VERDECKT
 62
     1
 10
-27.0
 20
318.9999999999998863
 30
-0.0000000000000708
 11
-27.0
 21
311.3541019662496865
 31
-0.0000000000000691
210
0.0
220
1.0
230
-0.0000000000000002
  0
LINE
  5
F14C
  8
0
  6
VERDECKT
 62
     1
 10
-27.0
 20
318.9999999999998863
 30
-0.0000000000000708
 11
-28.0579618842507514
 21
325.0
 31
-0.0000000000000722
210
0.0
220
1.0
230
-0.0000000000000002
  0
LINE
  5
F14D
  8
0
  6
VERDECKT
 62
     1
 10
27.0
 20
318.9999999999998863
 30
-0.0000000000000708
 11
28.0579618842507514
 21
325.0
 31
-0.0000000000000722
210
0.0
220
1.0
230
-0.0000000000000002
  0
ENDBLK
  5
F14F
  8
0
  0
ENDSEC
  0
SECTION
  2
ENTITIES
  0
TEXT
  5
A55
  8
TEXT
 62
     1
 10
790.1294755517468502
 20
62.9470459695668723
 30
0.0
 40
7.0
  1

 41
0.8
  7
GREEKS
 72
     1
 11
790.1294755517468502
 21
62.9470459695668723
 31
0.0
  0
INSERT
  5
30AA
  8
ADSK_ASSOC_ENTITY_BACKUPS
  2
*S0
 10
0.0
 20
0.0
 30
0.0
  0
INSERT
  5
F0C2
  8
STEMPEL
  2
A$C15B061FA
 10
0.0
 20
0.0
 30
0.0
  0
INSERT
  5
F150
  8
STEMPEL
  2
A$CE088D284
 10
-111.8000000000000966
 20
0.0
 30
0.0
  0
VIEWPORT
  5
2672
 67
     1
  8
0
 10
205.7136896522729899
 20
145.4660656388541042
 30
0.0
 40
558.2924048900665639
 41
298.840176673062615
 68
     1
 69
     1
1001
ACAD
1000
MVIEW
1002
{
1070
    16
1010
0.0
1020
0.0
1030
0.0
1010
0.0
1020
0.0
1030
1.0
1040
0.0
1040
298.840176673062615
1040
205.7136896522729899
1040
145.4660656388541042
1040
50.0
1040
0.0
1040
0.0
1070
     0
1070
  1500
1070
     1
1070
     1
1070
     0
1070
     0
1070
     0
1070
     0
1040
0.0
1040
0.0
1040
0.0
1040
10.0
1040
10.0
1040
10.0
1040
10.0
1070
     0
1002
{
1002
}
1002
}
  0
ENDSEC
  0
EOF
