  0
SECTION
  2
HEADER
  9
$ACADVER
  1
AC1009
  9
$INSBASE
 10
0.0
 20
0.0
 30
0.0
  9
$EXTMIN
 10
-47.0000000000000497
 20
-47.0000000000000924
 30
-0.0000000000000107
  9
$EXTMAX
 10
47.0
 20
66.0000000000000426
 30
0.0000000000000102
  9
$LIMMIN
 10
0.0
 20
0.0
  9
$LIMMAX
 10
210.0
 20
297.0
  9
$ORTHOMODE
 70
     1
  9
$REGENMODE
 70
     1
  9
$FILLMODE
 70
     1
  9
$QTEXTMODE
 70
     0
  9
$MIRRTEXT
 70
     1
  9
$DRAGMODE
 70
     2
  9
$LTSCALE
 40
10.0
  9
$OSMODE
 70
   511
  9
$ATTMODE
 70
     1
  9
$TEXTSIZE
 40
3.5
  9
$TRACEWID
 40
0.5
  9
$TEXTSTYLE
  7
STANDARD
  9
$CLAYER
  8
STEMPEL
  9
$CELTYPE
  6
BYLAYER
  9
$CECOLOR
 62
   256
  9
$DIMSCALE
 40
1.0
  9
$DIMASZ
 40
3.5
  9
$DIMEXO
 40
1.0
  9
$DIMDLI
 40
0.38
  9
$DIMRND
 40
0.0
  9
$DIMDLE
 40
0.0
  9
$DIMEXE
 40
1.0
  9
$DIMTP
 40
0.0
  9
$DIMTM
 40
0.000000001
  9
$DIMTXT
 40
3.5
  9
$DIMCEN
 40
0.09
  9
$DIMTSZ
 40
0.0
  9
$DIMTOL
 70
     0
  9
$DIMLIM
 70
     0
  9
$DIMTIH
 70
     0
  9
$DIMTOH
 70
     0
  9
$DIMSE1
 70
     0
  9
$DIMSE2
 70
     0
  9
$DIMTAD
 70
     1
  9
$DIMZIN
 70
     8
  9
$DIMBLK
  1

  9
$DIMASO
 70
     1
  9
$DIMSHO
 70
     0
  9
$DIMPOST
  1

  9
$DIMAPOST
  1

  9
$DIMALT
 70
     0
  9
$DIMALTD
 70
     2
  9
$DIMALTF
 40
25.3999999999999986
  9
$DIMLFAC
 40
2.0
  9
$DIMTOFL
 70
     1
  9
$DIMTVP
 40
0.0
  9
$DIMTIX
 70
     0
  9
$DIMSOXD
 70
     0
  9
$DIMSAH
 70
     0
  9
$DIMBLK1
  1

  9
$DIMBLK2
  1

  9
$DIMSTYLE
  2
LORO
  9
$DIMCLRD
 70
     0
  9
$DIMCLRE
 70
     0
  9
$DIMCLRT
 70
     1
  9
$DIMTFAC
 40
0.5
  9
$DIMGAP
 40
1.5
  9
$LUNITS
 70
     2
  9
$LUPREC
 70
     2
  9
$SKETCHINC
 40
1.0
  9
$FILLETRAD
 40
2.5
  9
$AUNITS
 70
     0
  9
$AUPREC
 70
     0
  9
$MENU
  1
ACAD
  9
$ELEVATION
 40
0.0
  9
$PELEVATION
 40
0.0
  9
$THICKNESS
 40
0.0
  9
$LIMCHECK
 70
     0
  9
$BLIPMODE
 70
     0
  9
$CHAMFERA
 40
0.0
  9
$CHAMFERB
 40
0.0
  9
$SKPOLY
 70
     0
  9
$TDCREATE
 40
2455397.8646990740671754
  9
$TDUPDATE
 40
2460564.5719675929285586
  9
$TDINDWG
 40
0.3372279167
  9
$TDUSRTIMER
 40
0.3372279167
  9
$USRTIMER
 70
     1
  9
$ANGBASE
 50
0.0
  9
$ANGDIR
 70
     0
  9
$PDMODE
 70
     0
  9
$PDSIZE
 40
0.0
  9
$PLINEWID
 40
0.0
  9
$COORDS
 70
     1
  9
$SPLFRAME
 70
     0
  9
$SPLINETYPE
 70
     6
  9
$SPLINESEGS
 70
     8
  9
$ATTDIA
 70
     1
  9
$ATTREQ
 70
     1
  9
$HANDLING
 70
     1
  9
$HANDSEED
  5
4246
  9
$SURFTAB1
 70
     6
  9
$SURFTAB2
 70
     6
  9
$SURFTYPE
 70
     6
  9
$SURFU
 70
     6
  9
$SURFV
 70
     6
  9
$UCSNAME
  2

  9
$UCSORG
 10
0.0
 20
0.0
 30
0.0
  9
$UCSXDIR
 10
1.0
 20
0.0
 30
0.0
  9
$UCSYDIR
 10
0.0
 20
1.0
 30
0.0
  9
$PUCSNAME
  2

  9
$PUCSORG
 10
0.0
 20
0.0
 30
0.0
  9
$PUCSXDIR
 10
1.0
 20
0.0
 30
0.0
  9
$PUCSYDIR
 10
0.0
 20
1.0
 30
0.0
  9
$USERI1
 70
     0
  9
$USERI2
 70
     0
  9
$USERI3
 70
     0
  9
$USERI4
 70
     0
  9
$USERI5
 70
     0
  9
$USERR1
 40
0.0
  9
$USERR2
 40
0.0
  9
$USERR3
 40
0.0
  9
$USERR4
 40
0.0
  9
$USERR5
 40
0.0
  9
$WORLDVIEW
 70
     1
  9
$SHADEDGE
 70
     3
  9
$SHADEDIF
 70
    70
  9
$TILEMODE
 70
     1
  9
$MAXACTVP
 70
    16
  9
$PLIMCHECK
 70
     0
  9
$PEXTMIN
 10
1.0000000000000000E+20
 20
1.0000000000000000E+20
 30
1.0000000000000000E+20
  9
$PEXTMAX
 10
-1.0000000000000000E+20
 20
-1.0000000000000000E+20
 30
-1.0000000000000000E+20
  9
$PLIMMIN
 10
-0.2057054591714689
 20
-0.2494162867681951
  9
$PLIMMAX
 10
209.794294540828588
 20
296.7505837132317765
  9
$UNITMODE
 70
     0
  9
$VISRETAIN
 70
     0
  9
$PLINEGEN
 70
     0
  9
$PSLTSCALE
 70
     0
  0
ENDSEC
  0
SECTION
  2
TABLES
  0
TABLE
  2
VPORT
 70
     1
  0
VPORT
  2
*ACTIVE
 70
     0
 10
0.0
 20
0.0
 11
1.0
 21
1.0
 12
-0.0000000000000284
 22
9.4999999999999787
 13
0.0
 23
0.0
 14
1.0
 24
1.0
 15
10.0
 25
10.0
 16
-0.0000000000000792
 26
0.0
 36
356.7497987043373087
 17
0.0
 27
0.0
 37
-0.0000000000000002
 40
113.5824742268041945
 41
1.8847807394668961
 42
50.0
 43
0.0
 44
0.0
 50
0.0
 51
0.0
 71
     0
 72
  1500
 73
     1
 74
     0
 75
     0
 76
     0
 77
     0
 78
     0
  0
ENDTAB
  0
TABLE
  2
LTYPE
 70
     3
  0
LTYPE
  2
CONTINUOUS
 70
     0
  3
Solid line
 72
    65
 73
     0
 40
0.0
  0
LTYPE
  2
STRICHPUNKT
 70
     0
  3
__ . __ . __ . __ . __ . __ . __ . __ . __ . __
 72
    65
 73
     4
 40
1.0
 49
0.5
 49
-0.25
 49
0.0
 49
-0.25
  0
LTYPE
  2
VERDECKT
 70
     0
  3
Verdeckt __ __ __ __ __ __ __ __ __ __ __ __ __
 72
    65
 73
     2
 40
0.375
 49
0.25
 49
-0.125
  0
ENDTAB
  0
TABLE
  2
LAYER
 70
     5
  0
LAYER
  2
0
 70
     0
 62
     7
  6
CONTINUOUS
  0
LAYER
  2
VOLL
 70
     0
 62
     1
  6
CONTINUOUS
  0
LAYER
  2
STEMPEL
 70
     0
 62
     3
  6
CONTINUOUS
  0
LAYER
  2
ADSK_ASSOC_ENTITY_BACKUPS
 70
     1
 62
    -7
  6
CONTINUOUS
  0
ENDTAB
  0
TABLE
  2
STYLE
 70
     2
  0
STYLE
  2
STANDARD
 70
     0
 40
0.0
 41
0.8
 50
0.0
 71
     0
 42
3.5
  3
simplex.shx
  4

  0
STYLE
  2
GREEKS
 70
     0
 40
0.0
 41
0.8
 50
0.0
 71
     0
 42
2.5
  3
SIMPLEX.shx
  4

  0
ENDTAB
  0
TABLE
  2
VIEW
 70
     0
  0
ENDTAB
  0
TABLE
  2
UCS
 70
     0
  0
ENDTAB
  0
TABLE
  2
APPID
 70
    26
  0
APPID
  2
ACAD
 70
     0
  0
APPID
  2
ACAD_NAV_VCDISPLAY
 70
     0
  0
APPID
  2
ACAD_STEPID
 70
     0
  0
APPID
  2
ACAECLAYERSTANDARD
 70
     0
  0
APPID
  2
ACCMTRANSPARENCY
 70
     0
  0
APPID
  2
ACAD_PSEXT
 70
     0
  0
APPID
  2
ACDBDYNAMICBLOCKGUID
 70
     0
  0
APPID
  2
ACAD_DSTYLE_DIMJAG
 70
     0
  0
APPID
  2
ACAD_DSTYLE_DIMBREAK
 70
     0
  0
APPID
  2
ACAD_DSTYLE_DIMTALN
 70
     0
  0
APPID
  2
ACAD_MODELDOC_XFORM
 70
     0
  0
APPID
  2
GRADIENTCOLOR1ACI
 70
     0
  0
APPID
  2
GRADIENTCOLOR2ACI
 70
     0
  0
APPID
  2
ACAD_EXEMPT_FROM_CAD_STANDARDS
 70
     0
  0
APPID
  2
ACSYNERGY
 70
     0
  0
APPID
  2
SYNERGY_BODY_TBR_ID
 70
     0
  0
APPID
  2
ACAD_VIEW_EDGE_ID
 70
     0
  0
APPID
  2
ACSYNERGYSKETCH
 70
     0
  0
APPID
  2
ACADANNOMONITORALERTICONDI
 70
     0
  0
APPID
  2
ACADANNOPO
 70
     0
  0
APPID
  2
ACAD_DIMASSOC_CALC_DIMLFAC
 70
     0
  0
APPID
  2
ACAD_DIMASSOC_DIMLFAC
 70
     0
  0
APPID
  2
ACAD_DIMASSOC_OVERRIDDEN_D
 70
     0
  0
APPID
  2
ACAD_DSTYLE_DIMRADIAL_EXTENSION
 70
     0
  0
APPID
  2
ACADANNOTATIVE
 70
     0
  0
APPID
  2
ACAD_MLEADERVER
 70
     0
  0
ENDTAB
  0
TABLE
  2
DIMSTYLE
 70
     3
  0
DIMSTYLE
  2
LORO
 70
     0
  3

  4

  5

  6

  7

 40
1.0
 41
3.5
 42
1.0
 43
0.38
 44
1.0
 45
0.0
 46
0.0
 47
0.0
 48
0.000000001
140
3.5
141
0.09
142
0.0
143
25.3999999999999986
144
2.0
145
0.0
146
0.5
147
1.5
 71
     0
 72
     0
 73
     0
 74
     0
 75
     0
 76
     0
 77
     1
 78
     8
170
     0
171
     2
172
     1
173
     0
174
     0
175
     0
176
     0
177
     0
178
     1
  0
ENDTAB
  0
ENDSEC
  0
SECTION
  2
BLOCKS
  0
BLOCK
  8
0
  2
$MODEL_SPACE
 70
     0
 10
0.0
 20
0.0
 30
0.0
  3
$MODEL_SPACE
  1

  0
ENDBLK
  5
36
  8
0
  0
BLOCK
 67
     1
  8
0
  2
$PAPER_SPACE
 70
     0
 10
0.0
 20
0.0
 30
0.0
  3
$PAPER_SPACE
  1

  0
ENDBLK
  5
34
 67
     1
  8
0
  0
BLOCK
  8
0
  2
*S0
 70
     1
 10
0.0
 20
0.0
 30
0.0
  3
*S0
  1

  0
ENDBLK
  5
164B
  8
0
  0
BLOCK
  8
0
  2
A$C81068532
 70
     0
 10
0.0
 20
0.0
 30
0.0
  3
A$C81068532
  1

  0
LINE
  5
40F8
  8
0
  6
CONTINUOUS
 62
     3
 10
46.9999999999999503
 20
5.0000000000000284
 30
0.0000000000000102
 11
45.2635917534821601
 21
5.0000000000000293
 31
0.0000000000000098
  0
LINE
  5
40F9
  8
0
  6
CONTINUOUS
 62
     3
 10
45.263591753482153
 20
-4.9999999999999991
 30
0.0000000000000098
 11
46.9999999999999432
 21
-5.0
 31
0.0000000000000102
  0
LINE
  5
40FA
  8
0
  6
CONTINUOUS
 62
     3
 10
45.2635917534821601
 20
-5.0
 30
0.0000000000000098
 11
45.2635917534821601
 21
5.0000000000000284
 31
0.0000000000000098
  0
LINE
  5
40FB
  8
0
  6
CONTINUOUS
 62
     3
 10
46.9999999999999432
 20
-44.4999999999999787
 30
0.0000000000000102
 11
46.9999999999999432
 21
-5.0
 31
0.0000000000000102
  0
LINE
  5
40FC
  8
0
  6
CONTINUOUS
 62
     3
 10
46.9999999999999432
 20
5.0000000000000284
 30
0.0000000000000102
 11
47.0
 21
44.5000000000000213
 31
0.0000000000000102
  0
LINE
  5
40FD
  8
0
  6
CONTINUOUS
 62
     3
 10
15.9099025766972808
 20
25.1022907321224409
 30
0.0000000000000036
 11
6.0104076400856448
 21
35.0017856687341293
 31
0.0000000000000014
  0
ARC
  5
40FE
  8
0
  6
CONTINUOUS
 62
     3
 10
18.38477631085021
 20
27.5771644662753488
 30
0.000000000000004
 40
3.500000000000008
 50
224.9999999999996021
 51
44.9999999999996732
  0
ARC
  5
40FF
  8
0
  6
CONTINUOUS
 62
     3
 10
8.4852813742386388
 20
37.4766594028870088
 30
0.0000000000000018
 40
3.5000000000000271
 50
44.9999999999986713
 51
224.9999999999986926
  0
LINE
  5
4100
  8
0
  6
CONTINUOUS
 62
     3
 10
10.9601551083916302
 20
39.951533137039803
 30
0.0000000000000022
 11
20.8596500450030895
 21
30.0520382004282602
 31
0.0000000000000044
  0
ARC
  5
4101
  8
0
  6
CONTINUOUS
 62
     3
 10
9.1923881554251352
 20
18.3847763108502704
 30
0.0000000000000022
 40
3.5000000000000271
 50
225.0
 51
45.0
  0
LINE
  5
4102
  8
0
  6
CONTINUOUS
 62
     3
 10
-7.0710678118654737
 20
39.5979797464466685
 30
-0.0000000000000018
 11
11.6672618895780698
 21
20.8596500450032103
 31
0.0000000000000024
  0
LINE
  5
4103
  8
0
  6
CONTINUOUS
 62
     3
 10
6.7175144212721989
 20
15.9099025766973305
 30
0.0000000000000013
 11
-12.0208152801712895
 21
34.6482322781408314
 31
-0.0000000000000028
  0
ARC
  5
4104
  8
0
  6
CONTINUOUS
 62
     3
 10
-9.5459415460184118
 20
37.1231060122937109
 30
-0.0000000000000022
 40
3.499999999999948
 50
45.0000000000000497
 51
225.0
  0
LINE
  5
4105
  8
0
  6
CONTINUOUS
 62
     3
 10
-2.4748737341529918
 20
6.717514421272198
 30
-0.0000000000000004
 11
-24.7487373415291891
 21
28.9913780286484588
 31
-0.0000000000000054
  0
ARC
  5
4106
  8
0
  6
CONTINUOUS
 62
     3
 10
-0.0000000000000561
 20
9.1923881554251352
 30
0.0
 40
3.500000000000008
 50
224.9999999999996021
 51
44.9999999999996732
  0
ARC
  5
4107
  8
0
  6
CONTINUOUS
 62
     3
 10
-22.2738636073762599
 20
31.4662517628013099
 30
-0.0000000000000049
 40
3.499999999999968
 50
44.9999999999989981
 51
224.9999999999990052
  0
LINE
  5
4108
  8
0
  6
CONTINUOUS
 62
     3
 10
-19.79898987322332
 20
33.9411254969542711
 30
-0.0000000000000044
 11
2.474873734152879
 21
11.6672618895780396
 31
0.0000000000000005
  0
ARC
  5
4109
  8
0
  6
CONTINUOUS
 62
     3
 10
-9.1923881554251921
 20
0.0
 30
-0.0000000000000022
 40
3.500000000000008
 50
224.9999999999996021
 51
44.9999999999996732
  0
LINE
  5
410A
  8
0
  6
CONTINUOUS
 62
     3
 10
-28.9913780286483984
 20
24.748737341529079
 30
-0.0000000000000062
 11
-6.7175144212722548
 21
2.474873734152907
 31
-0.0000000000000013
  0
LINE
  5
410B
  8
0
  6
CONTINUOUS
 62
     3
 10
-11.6672618895781302
 20
-2.4748737341528511
 30
-0.0000000000000027
 11
-33.9411254969543279
 21
19.7989898732233485
 31
-0.0000000000000076
  0
ARC
  5
410C
  8
0
  6
CONTINUOUS
 62
     3
 10
-31.4662517628013916
 20
22.2738636073761995
 30
-0.0000000000000071
 40
3.499999999999988
 50
44.9999999999993392
 51
224.9999999999992895
  0
ARC
  5
410D
  8
0
  6
CONTINUOUS
 62
     3
 10
-37.1231060122937606
 20
9.5459415460183266
 30
-0.0000000000000084
 40
3.499999999999988
 50
44.9999999999993392
 51
224.9999999999992895
  0
LINE
  5
410E
  8
0
  6
CONTINUOUS
 62
     3
 10
-20.8596500450032103
 20
-11.6672618895780094
 30
-0.0000000000000044
 11
-39.5979797464466969
 21
7.0710678118654471
 31
-0.0000000000000086
  0
LINE
  5
410F
  8
0
  6
CONTINUOUS
 62
     3
 10
-34.6482322781408314
 20
12.0208152801712593
 30
-0.0000000000000075
 11
-15.9099025766973305
 21
-6.7175144212722548
 31
-0.0000000000000034
  0
ARC
  5
4110
  8
0
  6
CONTINUOUS
 62
     3
 10
-18.38477631085021
 20
-9.1923881554251068
 30
-0.000000000000004
 40
3.499999999999948
 50
225.0
 51
45.0
  0
LINE
  5
4111
  8
0
  6
CONTINUOUS
 62
     3
 10
-30.0520382004282887
 20
-20.8596500450032103
 30
-0.0000000000000067
 11
-39.9515331370400304
 21
-10.9601551083915201
 31
-0.0000000000000089
  0
ARC
  5
4112
  8
0
  6
CONTINUOUS
 62
     3
 10
-27.5771644662753488
 20
-18.3847763108502988
 30
-0.0000000000000062
 40
3.5000000000000271
 50
225.0000000000013074
 51
45.0000000000013074
  0
ARC
  5
4113
  8
0
  6
CONTINUOUS
 62
     3
 10
-37.4766594028871012
 20
-8.4852813742385802
 30
-0.0000000000000084
 40
3.5000000000000271
 50
45.0
 51
225.0
  0
LINE
  5
4114
  8
0
  6
CONTINUOUS
 62
     3
 10
-35.0017856687341578
 20
-6.0104076400856741
 30
-0.000000000000008
 11
-25.1022907321225297
 21
-15.9099025766972808
 31
-0.0000000000000058
  0
ARC
  5
4115
  8
0
  6
CONTINUOUS
 62
     3
 10
-8.4852813742386388
 20
-37.4766594028870372
 30
-0.0000000000000018
 40
3.5000000000000271
 50
225.0
 51
45.0
  0
LINE
  5
4116
  8
0
  6
CONTINUOUS
 62
     3
 10
-15.9099025766973892
 20
-25.1022907321223911
 30
-0.0000000000000036
 11
-6.0104076400857016
 21
-35.0017856687341009
 31
-0.0000000000000014
  0
LINE
  5
4117
  8
0
  6
CONTINUOUS
 62
     3
 10
-10.9601551083915698
 20
-39.9515331370399593
 30
-0.0000000000000022
 11
-20.8596500450032103
 21
-30.0520382004282887
 31
-0.0000000000000044
  0
ARC
  5
4118
  8
0
  6
CONTINUOUS
 62
     3
 10
-18.38477631085021
 20
-27.5771644662753488
 30
-0.000000000000004
 40
3.5000000000000679
 50
44.9999999999993392
 51
224.9999999999992895
  0
ARC
  5
4119
  8
0
  6
CONTINUOUS
 62
     3
 10
-9.1923881554251352
 20
-18.3847763108503308
 30
-0.0000000000000022
 40
3.5000000000000271
 50
44.9999999999986287
 51
224.9999999999986926
  0
LINE
  5
411A
  8
0
  6
CONTINUOUS
 62
     3
 10
7.0710678118654187
 20
-39.5979797464466472
 30
0.0000000000000018
 11
-11.6672618895781302
 21
-20.8596500450032103
 31
-0.0000000000000024
  0
LINE
  5
411B
  8
0
  6
CONTINUOUS
 62
     3
 10
-6.7175144212721971
 20
-15.9099025766974194
 30
-0.0000000000000013
 11
12.0208152801711705
 21
-34.6482322781408314
 31
0.0000000000000028
  0
ARC
  5
411C
  8
0
  6
CONTINUOUS
 62
     3
 10
9.5459415460182981
 20
-37.1231060122937606
 30
0.0000000000000022
 40
3.4999999999999778
 50
225.0000000000005116
 51
45.0000000000005116
  0
ARC
  5
411D
  8
0
  6
CONTINUOUS
 62
     3
 10
22.2738636073761995
 20
-31.4662517628013916
 30
0.0000000000000049
 40
3.5000000000000271
 50
225.0
 51
45.0
  0
LINE
  5
411E
  8
0
  6
CONTINUOUS
 62
     3
 10
2.4748737341528799
 20
-6.7175144212722548
 30
0.0000000000000004
 11
24.7487373415291394
 21
-28.9913780286484588
 31
0.0000000000000054
  0
LINE
  5
411F
  8
0
  6
CONTINUOUS
 62
     3
 10
19.7989898732232597
 20
-33.9411254969543208
 30
0.0000000000000044
 11
-2.4748737341529932
 21
-11.6672618895780698
 31
-0.0000000000000005
  0
ARC
  5
4120
  8
0
  6
CONTINUOUS
 62
     3
 10
0.0000000000000008
 20
-9.1923881554251921
 30
0.0
 40
3.5000000000000271
 50
44.9999999999986713
 51
224.9999999999986926
  0
ARC
  5
4121
  8
0
  6
CONTINUOUS
 62
     3
 10
9.1923881554250784
 20
-0.0000000000000284
 30
0.0000000000000022
 40
3.499999999999988
 50
44.9999999999993392
 51
224.9999999999992895
  0
LINE
  5
4122
  8
0
  6
CONTINUOUS
 62
     3
 10
28.9913780286484588
 20
-24.7487373415291714
 30
0.0000000000000062
 11
6.717514421272142
 21
-2.4748737341529359
 31
0.0000000000000013
  0
LINE
  5
4123
  8
0
  6
CONTINUOUS
 62
     3
 10
11.6672618895780094
 20
2.474873734152907
 30
0.0000000000000027
 11
33.9411254969542071
 21
-19.79898987322332
 31
0.0000000000000076
  0
ARC
  5
4124
  8
0
  6
CONTINUOUS
 62
     3
 10
31.4662517628012814
 20
-22.2738636073761995
 30
0.0000000000000071
 40
3.499999999999988
 50
224.9999999999992895
 51
44.9999999999993392
  0
ARC
  5
4125
  8
0
  6
CONTINUOUS
 62
     3
 10
18.38477631085021
 20
9.1923881554251352
 30
0.000000000000004
 40
3.500000000000008
 50
44.9999999999996732
 51
224.9999999999996021
  0
LINE
  5
4126
  8
0
  6
CONTINUOUS
 62
     3
 10
34.6482322781407674
 20
-12.0208152801713197
 30
0.0000000000000075
 11
15.9099025766972808
 21
6.7175144212722273
 31
0.0000000000000034
  0
LINE
  5
4127
  8
0
  6
CONTINUOUS
 62
     3
 10
20.8596500450031499
 20
11.6672618895780698
 30
0.0000000000000044
 11
39.5979797464466401
 21
-7.0710678118654746
 31
0.0000000000000086
  0
ARC
  5
4128
  8
0
  6
CONTINUOUS
 62
     3
 10
37.1231060122937109
 20
-9.5459415460184118
 30
0.0000000000000084
 40
3.5000000000000271
 50
225.0
 51
45.0
  0
ARC
  5
4129
  8
0
  6
CONTINUOUS
 62
     3
 10
27.5771644662753488
 20
18.38477631085021
 30
0.0000000000000062
 40
3.499999999999988
 50
45.0000000000006608
 51
225.0000000000007105
  0
LINE
  5
412A
  8
0
  6
CONTINUOUS
 62
     3
 10
35.0017856687341009
 20
6.0104076400856741
 30
0.000000000000008
 11
25.1022907321224693
 21
15.9099025766972808
 31
0.0000000000000058
  0
LINE
  5
412B
  8
0
  6
CONTINUOUS
 62
     3
 10
30.0520382004282887
 20
20.8596500450031499
 30
0.0000000000000067
 11
39.9515331370398599
 21
10.9601551083915201
 31
0.0000000000000089
  0
ARC
  5
412C
  8
0
  6
CONTINUOUS
 62
     3
 10
37.4766594028869804
 20
8.4852813742385536
 30
0.0000000000000084
 40
3.499999999999988
 50
225.0000000000005969
 51
45.0000000000006608
  0
LINE
  5
412D
  8
0
  6
CONTINUOUS
 62
     3
 10
44.5
 20
47.0000000000000213
 30
0.0000000000000098
 11
-44.5000000000000497
 21
47.0000000000000213
 31
-0.00000000000001
  0
LINE
  5
412E
  8
0
  6
CONTINUOUS
 62
     3
 10
-47.0000000000000497
 20
44.5000000000000213
 30
-0.0000000000000107
 11
-47.0000000000000497
 21
-44.5000000000000426
 31
-0.0000000000000107
  0
ARC
  5
412F
  8
0
  6
CONTINUOUS
 62
     3
 10
-44.5000000000001066
 20
44.5000000000001705
 30
-0.0000000000000098
 40
2.499999999999857
 50
89.9999999999987068
 51
180.0000000000032117
  0
ARC
  5
4130
  8
0
  6
CONTINUOUS
 62
     3
 10
44.5000000000000497
 20
44.5000000000000497
 30
0.0000000000000098
 40
2.4999999999999418
 50
359.9999999999993179
 51
90.0000000000013358
  0
LINE
  5
4131
  8
0
  6
CONTINUOUS
 62
     3
 10
-44.5000000000000497
 20
-47.0000000000000426
 30
-0.0000000000000098
 11
44.4999999999999432
 21
-46.9999999999999787
 31
0.00000000000001
  0
ARC
  5
4132
  8
0
  6
CONTINUOUS
 62
     3
 10
-44.5000000000000497
 20
-44.5000000000000924
 30
-0.0000000000000098
 40
2.5
 50
179.9999999999990052
 51
270.0
  0
ARC
  5
4133
  8
0
  6
CONTINUOUS
 62
     3
 10
44.5
 20
-44.5000000000000924
 30
0.0000000000000098
 40
2.4999999999999001
 50
270.0
 51
0.0000000000035877
  0
LINE
  5
4134
  8
0
  6
VERDECKT
 62
     1
 10
44.756039762808598
 20
5.0000000000000284
 30
0.0000000000000098
 11
45.2635917534821601
 21
5.0000000000000284
 31
0.00000000000001
  0
LINE
  5
4135
  8
0
  6
VERDECKT
 62
     1
 10
44.756039762808598
 20
-5.0
 30
0.0000000000000098
 11
45.2635917534821601
 21
-5.0
 31
0.00000000000001
  0
LINE
  5
4136
  8
0
  6
VERDECKT
 62
     1
 10
44.756039762808598
 20
5.0000000000000284
 30
0.0000000000000098
 11
44.756039762808598
 21
-5.0
 31
0.0000000000000098
  0
LINE
  5
4137
  8
0
  6
VERDECKT
 62
     1
 10
45.75
 20
-5.0
 30
0.0000000000000102
 11
45.75
 21
-44.5
 31
0.0000000000000102
  0
LINE
  5
4138
  8
0
  6
VERDECKT
 62
     1
 10
45.75
 20
44.5
 30
0.0000000000000102
 11
45.75
 21
5.0000000000000284
 31
0.0000000000000102
  0
ARC
  5
4139
  8
0
  6
VERDECKT
 62
     1
 10
9.1923881554250784
 20
18.3847763108502704
 30
0.0000000000000022
 40
4.7499999999999973
 50
225.0
 51
44.9999999999999929
  0
LINE
  5
413A
  8
0
  6
VERDECKT
 62
     1
 10
12.5511453660611796
 20
21.7435335214863699
 30
0.0000000000000027
 11
-6.1871843353823124
 21
40.4818632229297677
 31
-0.0000000000000015
  0
LINE
  5
413B
  8
0
  6
VERDECKT
 62
     1
 10
-12.9046987566545095
 20
33.7643488016575972
 30
-0.0000000000000027
 11
5.833630944788978
 21
15.0260191002141692
 31
0.0000000000000015
  0
ARC
  5
413C
  8
0
  6
VERDECKT
 62
     1
 10
-9.5459415460184118
 20
37.1231060122937109
 30
-0.0000000000000022
 40
4.7499999999999769
 50
44.9999999999997726
 51
224.9999999999996874
  0
ARC
  5
413D
  8
0
  6
VERDECKT
 62
     1
 10
0.0000000000000008
 20
9.1923881554251352
 30
0.0
 40
4.7499999999999973
 50
225.0
 51
44.9999999999999929
  0
LINE
  5
413E
  8
0
  6
VERDECKT
 62
     1
 10
3.3587572106360999
 20
12.5511453660612293
 30
0.0000000000000009
 11
-18.9151063967401001
 21
34.8250089734374413
 31
-0.0000000000000041
  0
LINE
  5
413F
  8
0
  6
VERDECKT
 62
     1
 10
-25.6326208180123594
 20
28.1074945521652317
 30
-0.0000000000000058
 11
-3.358757210636099
 21
5.8336309447890349
 31
-0.0000000000000008
  0
ARC
  5
4140
  8
0
  6
VERDECKT
 62
     1
 10
-22.2738636073762599
 20
31.4662517628013383
 30
-0.0000000000000049
 40
4.7499999999999769
 50
44.9999999999997726
 51
224.9999999999996874
  0
ARC
  5
4141
  8
0
  6
VERDECKT
 62
     1
 10
-31.4662517628014484
 20
22.2738636073761995
 30
-0.0000000000000071
 40
4.7499999999999769
 50
44.9999999999997726
 51
224.9999999999996874
  0
LINE
  5
4142
  8
0
  6
VERDECKT
 62
     1
 10
-34.8250089734375479
 20
18.9151063967401001
 30
-0.0000000000000075
 11
-12.5511453660612897
 21
-3.358757210636099
 31
-0.0000000000000026
  0
LINE
  5
4143
  8
0
  6
VERDECKT
 62
     1
 10
-5.8336309447890908
 20
3.358757210636099
 30
-0.0000000000000013
 11
-28.107494552165349
 21
25.6326208180122705
 31
-0.0000000000000063
  0
ARC
  5
4144
  8
0
  6
VERDECKT
 62
     1
 10
-9.1923881554251921
 20
0.0
 30
-0.0000000000000022
 40
4.7499999999999973
 50
225.0
 51
44.9999999999999929
  0
ARC
  5
4145
  8
0
  6
VERDECKT
 62
     1
 10
-18.3847763108502704
 20
-9.1923881554251352
 30
-0.000000000000004
 40
4.7499999999999973
 50
225.0
 51
44.9999999999999929
  0
LINE
  5
4146
  8
0
  6
VERDECKT
 62
     1
 10
-15.0260191002141692
 20
-5.8336309447890642
 30
-0.0000000000000036
 11
-33.7643488016576612
 21
12.9046987566544207
 31
-0.0000000000000077
  0
LINE
  5
4147
  8
0
  6
VERDECKT
 62
     1
 10
-40.4818632229298601
 20
6.1871843353822547
 30
-0.0000000000000089
 11
-21.7435335214863699
 21
-12.5511453660612293
 31
-0.0000000000000047
  0
ARC
  5
4148
  8
0
  6
VERDECKT
 62
     1
 10
-37.1231060122937606
 20
9.5459415460183532
 30
-0.0000000000000084
 40
4.7499999999999973
 50
45.0
 51
225.0
  0
ARC
  5
4149
  8
0
  6
VERDECKT
 62
     1
 10
-27.5771644662754589
 20
-18.3847763108501816
 30
-0.0000000000000062
 40
4.7499999999999369
 50
225.0000000000003126
 51
45.0000000000002274
  0
LINE
  5
414A
  8
0
  6
VERDECKT
 62
     1
 10
-24.2184072556394803
 20
-15.0260191002141106
 30
-0.0000000000000053
 11
-34.1179021922510017
 21
-5.1265241636024816
 31
-0.0000000000000075
  0
LINE
  5
414B
  8
0
  6
VERDECKT
 62
     1
 10
-40.8354166135231935
 20
-11.8440385848746494
 30
-0.0000000000000089
 11
-30.9359216769115584
 21
-21.743533521486281
 31
-0.0000000000000067
  0
ARC
  5
414C
  8
0
  6
VERDECKT
 62
     1
 10
-37.4766594028871012
 20
-8.4852813742385802
 30
-0.0000000000000084
 40
4.7499999999999973
 50
45.0
 51
225.0
  0
ARC
  5
414D
  8
0
  6
VERDECKT
 62
     1
 10
-8.4852813742386388
 20
-37.4766594028870514
 30
-0.0000000000000018
 40
4.7499999999999973
 50
225.0
 51
44.9999999999999929
  0
LINE
  5
414E
  8
0
  6
VERDECKT
 62
     1
 10
-5.1265241636025376
 20
-34.1179021922509378
 30
-0.0000000000000013
 11
-15.0260191002142793
 21
-24.2184072556391392
 31
-0.0000000000000035
  0
LINE
  5
414F
  8
0
  6
VERDECKT
 62
     1
 10
-21.7435335214863699
 20
-30.9359216769114802
 30
-0.0000000000000049
 11
-11.84403858487474
 21
-40.8354166135231509
 31
-0.0000000000000027
  0
ARC
  5
4150
  8
0
  6
VERDECKT
 62
     1
 10
-18.3847763108503308
 20
-27.5771644662753488
 30
-0.000000000000004
 40
4.7500000000000382
 50
45.0000000000014424
 51
225.0000000000015064
  0
LINE
  5
4151
  8
0
  6
VERDECKT
 62
     1
 10
12.9046987566543994
 20
-33.7643488016576683
 30
0.0000000000000027
 11
-5.8336309447890917
 21
-15.0260191002141994
 31
-0.0000000000000015
  0
ARC
  5
4152
  8
0
  6
VERDECKT
 62
     1
 10
-9.1923881554251921
 20
-18.3847763108502704
 30
-0.0000000000000022
 40
4.7499999999999973
 50
45.0
 51
225.0
  0
ARC
  5
4153
  8
0
  6
VERDECKT
 62
     1
 10
9.5459415460182981
 20
-37.1231060122937535
 30
0.0000000000000022
 40
4.7499999999999973
 50
225.0
 51
44.9999999999999929
  0
LINE
  5
4154
  8
0
  6
VERDECKT
 62
     1
 10
-12.5511453660612897
 20
-21.7435335214863983
 30
-0.0000000000000027
 11
6.1871843353821978
 21
-40.4818632229298601
 31
0.0000000000000015
  0
LINE
  5
4155
  8
0
  6
VERDECKT
 62
     1
 10
25.6326208180122386
 20
-28.107494552165349
 30
0.0000000000000058
 11
3.358757210636099
 21
-5.8336309447890349
 31
0.0000000000000008
  0
ARC
  5
4156
  8
0
  6
VERDECKT
 62
     1
 10
0.0000000000000008
 20
-9.1923881554251352
 30
0.0
 40
4.7499999999999973
 50
45.0
 51
225.0
  0
ARC
  5
4157
  8
0
  6
VERDECKT
 62
     1
 10
22.2738636073761391
 20
-31.4662517628013596
 30
0.0000000000000049
 40
4.750000000000008
 50
225.0000000000001137
 51
45.0000000000001421
  0
LINE
  5
4158
  8
0
  6
VERDECKT
 62
     1
 10
-3.3587572106360408
 20
-12.5511453660612595
 30
-0.0000000000000009
 11
18.9151063967400397
 21
-34.8250089734374768
 31
0.0000000000000041
  0
ARC
  5
4159
  8
0
  6
VERDECKT
 62
     1
 10
31.4662517628013383
 20
-22.2738636073761995
 30
0.0000000000000071
 40
4.7499999999999973
 50
225.0
 51
44.9999999999999929
  0
LINE
  5
415A
  8
0
  6
VERDECKT
 62
     1
 10
34.8250089734374413
 20
-18.9151063967401605
 30
0.0000000000000075
 11
12.5511453660611796
 21
3.3587572106360422
 31
0.0000000000000026
  0
LINE
  5
415B
  8
0
  6
VERDECKT
 62
     1
 10
5.8336309447889789
 20
-3.358757210636099
 30
0.0000000000000013
 11
28.1074945521652317
 21
-25.632620818012299
 31
0.0000000000000063
  0
ARC
  5
415C
  8
0
  6
VERDECKT
 62
     1
 10
9.1923881554250784
 20
0.0
 30
0.0000000000000022
 40
4.7499999999999769
 50
44.9999999999997726
 51
224.9999999999996874
  0
ARC
  5
415D
  8
0
  6
VERDECKT
 62
     1
 10
37.1231060122936469
 20
-9.5459415460183532
 30
0.0000000000000084
 40
4.7499999999999973
 50
225.0
 51
44.9999999999999929
  0
LINE
  5
415E
  8
0
  6
VERDECKT
 62
     1
 10
40.4818632229297393
 20
-6.1871843353822831
 30
0.0000000000000089
 11
21.7435335214862597
 21
12.5511453660612293
 31
0.0000000000000047
  0
LINE
  5
415F
  8
0
  6
VERDECKT
 62
     1
 10
15.0260191002140608
 20
5.8336309447890349
 30
0.0000000000000036
 11
33.7643488016575475
 21
-12.9046987566544509
 31
0.0000000000000077
  0
ARC
  5
4160
  8
0
  6
VERDECKT
 62
     1
 10
18.3847763108501603
 20
9.1923881554251352
 30
0.000000000000004
 40
4.7499999999999973
 50
45.0
 51
225.0
  0
LINE
  5
4161
  8
0
  6
VERDECKT
 62
     1
 10
40.8354166135230798
 20
11.8440385848746796
 30
0.0000000000000089
 11
30.9359216769114482
 21
21.7435335214862597
 31
0.0000000000000067
  0
ARC
  5
4162
  8
0
  6
VERDECKT
 62
     1
 10
27.5771644662753488
 20
18.3847763108501603
 30
0.0000000000000062
 40
4.7499999999999973
 50
45.0
 51
225.0
  0
ARC
  5
4163
  8
0
  6
VERDECKT
 62
     1
 10
37.4766594028869804
 20
8.4852813742385802
 30
0.0000000000000084
 40
4.7499999999999973
 50
225.0
 51
44.9999999999999929
  0
LINE
  5
4164
  8
0
  6
VERDECKT
 62
     1
 10
24.2184072556392493
 20
15.0260191002140608
 30
0.0000000000000053
 11
34.1179021922508809
 21
5.1265241636024816
 31
0.0000000000000075
  0
ARC
  5
4165
  8
0
  6
VERDECKT
 62
     1
 10
18.3847763108501603
 20
27.5771644662753488
 30
0.000000000000004
 40
4.7499999999999973
 50
225.0
 51
44.9999999999999929
  0
LINE
  5
4166
  8
0
  6
VERDECKT
 62
     1
 10
21.7435335214862597
 20
30.9359216769114482
 30
0.0000000000000049
 11
11.84403858487474
 21
40.8354166135231296
 31
0.0000000000000027
  0
LINE
  5
4167
  8
0
  6
VERDECKT
 62
     1
 10
5.1265241636025403
 20
34.1179021922509378
 30
0.0000000000000013
 11
15.0260191002140608
 21
24.2184072556392493
 31
0.0000000000000035
  0
ARC
  5
4168
  8
0
  6
VERDECKT
 62
     1
 10
8.4852813742386388
 20
37.4766594028870372
 30
0.0000000000000018
 40
4.7499999999999973
 50
45.0
 51
225.0
  0
LINE
  5
4169
  8
0
  6
VERDECKT
 62
     1
 10
-44.5
 20
45.75
 30
-0.0000000000000098
 11
44.5
 21
45.75
 31
0.00000000000001
  0
LINE
  5
416A
  8
0
  6
VERDECKT
 62
     1
 10
-45.75
 20
-44.5000000000000497
 30
-0.0000000000000102
 11
-45.75
 21
44.5
 31
-0.0000000000000102
  0
ARC
  5
416B
  8
0
  6
VERDECKT
 62
     1
 10
-44.5000000000001066
 20
44.5000000000001066
 30
-0.0000000000000098
 40
1.2499999999998861
 50
89.9999999999947846
 51
180.0000000000052012
  0
ARC
  5
416C
  8
0
  6
VERDECKT
 62
     1
 10
44.4999999999999432
 20
44.4999999999998792
 30
0.0000000000000098
 40
1.250000000000056
 50
0.0000000000052161
 51
89.9999999999973994
  0
LINE
  5
416D
  8
0
  6
VERDECKT
 62
     1
 10
44.5
 20
-45.75
 30
0.0000000000000098
 11
-44.5
 21
-45.7500000000000497
 31
-0.00000000000001
  0
ARC
  5
416E
  8
0
  6
VERDECKT
 62
     1
 10
-44.5
 20
-44.4999999999999716
 30
-0.0000000000000098
 40
1.2499999999999849
 50
180.0000000000038938
 51
270.0
  0
ARC
  5
416F
  8
0
  6
VERDECKT
 62
     1
 10
44.5000000000001066
 20
-44.5000000000001208
 30
0.0000000000000098
 40
1.2499999999998861
 50
269.9999999999948272
 51
0.0000000000058522
  0
ENDBLK
  5
4171
  8
0
  0
BLOCK
  8
0
  2
A$C07448D13
 70
     0
 10
0.0
 20
0.0
 30
0.0
  3
A$C07448D13
  1

  0
LINE
  5
4175
  8
0
  6
CONTINUOUS
 62
     3
 10
46.9999999999998792
 20
0.0000000000000109
 30
0.0
 11
46.9999999999998792
 21
3.5000000000000111
 31
-0.0000000000000008
210
0.0
220
1.0
230
-0.0000000000000002
  0
LINE
  5
4176
  8
0
  6
CONTINUOUS
 62
     3
 10
46.9999999999999005
 20
0.0000000000000109
 30
0.0
 11
44.4999999999999432
 21
0.0000000000000115
 31
0.0
210
0.0
220
1.0
230
-0.0000000000000002
  0
LINE
  5
4177
  8
0
  6
CONTINUOUS
 62
     3
 10
-44.5000000000000497
 20
0.0000000000000115
 30
0.0
 11
44.4999999999999432
 21
0.0000000000000115
 31
0.0
210
0.0
220
1.0
230
-0.0000000000000002
  0
LINE
  5
4178
  8
0
  6
CONTINUOUS
 62
     3
 10
-44.5000000000000497
 20
0.0000000000000115
 30
0.0
 11
-47.0000000000000497
 21
0.0000000000000109
 31
0.0
210
0.0
220
1.0
230
-0.0000000000000002
  0
LINE
  5
4179
  8
0
  6
CONTINUOUS
 62
     3
 10
44.4999999999999432
 20
6.0000000000000124
 30
-0.0000000000000013
 11
-44.5000000000000497
 21
6.0000000000000124
 31
-0.0000000000000013
210
0.0
220
1.0
230
-0.0000000000000002
  0
ARC
  5
417A
  8
0
  6
CONTINUOUS
 62
     3
 10
-44.4999999999999432
 20
3.500000000000036
 30
0.0
 40
2.4999999999999751
210
0.0
220
-0.0000000000000002
230
-1.0
 50
90.0
 51
180.0000000000005116
  0
ARC
  5
417B
  8
0
  6
CONTINUOUS
 62
     3
 10
44.5000000000000497
 20
3.500000000000036
 30
0.0
 40
2.5
210
0.0
220
-0.0000000000000002
230
-1.0
 50
359.9999999999993747
 51
90.0
  0
LINE
  5
417C
  8
0
  6
CONTINUOUS
 62
     3
 10
-47.0000000000000497
 20
0.0000000000000109
 30
0.0
 11
-47.0000000000000497
 21
3.5000000000000111
 31
-0.0000000000000008
210
0.0
220
1.0
230
-0.0000000000000002
  0
LINE
  5
417D
  8
0
  6
VERDECKT
 62
     1
 10
44.756039762808598
 20
4.7234964813438971
 30
-0.000000000000001
 11
45.2635917534821601
 21
5.880530956323379
 31
-0.0000000000000013
210
0.0
220
1.0
230
-0.0000000000000002
  0
ARC
  5
417E
  8
0
  6
VERDECKT
 62
     1
 10
44.4999999999999432
 20
3.4999999999999751
 30
-0.0000000000000008
 40
1.250000000000056
 50
0.0
 51
89.9999999999957083
  0
LINE
  5
417F
  8
0
  6
VERDECKT
 62
     1
 10
45.75
 20
0.0000000000000109
 30
0.0
 11
45.75
 21
3.5000000000000111
 31
-0.0000000000000008
210
0.0
220
1.0
230
-0.0000000000000002
  0
LINE
  5
4180
  8
0
  6
VERDECKT
 62
     1
 10
-44.5
 20
4.7500000000000107
 30
-0.0000000000000011
 11
44.5
 21
4.7500000000000107
 31
-0.0000000000000011
210
0.0
220
1.0
230
-0.0000000000000002
  0
LINE
  5
4181
  8
0
  6
VERDECKT
 62
     1
 10
-23.1347763108502811
 20
2.0000000000000049
 30
-0.0000000000000004
 11
-30.9359216769115086
 21
2.0000000000000049
 31
-0.0000000000000004
210
0.0
220
1.0
230
-0.0000000000000002
  0
LINE
  5
4182
  8
0
  6
VERDECKT
 62
     1
 10
-3.735281374238661
 20
2.0000000000000089
 30
-0.0000000000000004
 11
-11.84403858487474
 21
2.0000000000000102
 31
-0.0000000000000004
210
0.0
220
1.0
230
-0.0000000000000002
  0
LINE
  5
4183
  8
0
  6
VERDECKT
 62
     1
 10
36.2162517628013205
 20
2.0000000000000049
 30
-0.0000000000000004
 11
28.1074945521652317
 21
2.0000000000000062
 31
-0.0000000000000004
210
0.0
220
1.0
230
-0.0000000000000002
  0
LINE
  5
4184
  8
0
  6
VERDECKT
 62
     1
 10
41.8731060122936611
 20
2.0000000000000031
 30
-0.0000000000000004
 11
36.2162517628013276
 21
2.000000000000004
 31
-0.0000000000000004
210
0.0
220
1.0
230
-0.0000000000000002
  0
ARC
  5
4185
  8
0
  6
VERDECKT
 62
     1
 10
-44.4999999999999432
 20
3.4999999999999751
 30
-0.0000000000000008
 40
1.250000000000036
 50
90.0000000000026148
 51
179.9999999999982947
  0
LINE
  5
4186
  8
0
  6
VERDECKT
 62
     1
 10
-45.75
 20
0.0000000000000109
 30
0.0
 11
-45.75
 21
3.5000000000000111
 31
-0.0000000000000008
210
0.0
220
1.0
230
-0.0000000000000002
  0
LINE
  5
4187
  8
0
  6
VERDECKT
 62
     1
 10
-21.7435335214863699
 20
2.0000000000000071
 30
-0.0000000000000004
 11
-23.1347763108502704
 21
2.0000000000000071
 31
-0.0000000000000004
210
0.0
220
1.0
230
-0.0000000000000002
  0
LINE
  5
4188
  8
0
  6
VERDECKT
 62
     1
 10
-21.7435335214863699
 20
2.0000000000000071
 30
-0.0000000000000004
 11
-11.84403858487474
 21
2.0000000000000102
 31
-0.0000000000000004
210
0.0
220
1.0
230
-0.0000000000000002
  0
LINE
  5
4189
  8
0
  6
VERDECKT
 62
     1
 10
14.2959415460182697
 20
2.0000000000000089
 30
-0.0000000000000004
 11
6.1871843353821978
 21
2.0000000000000102
 31
-0.0000000000000004
210
0.0
220
1.0
230
-0.0000000000000002
  0
LINE
  5
418A
  8
0
  6
VERDECKT
 62
     1
 10
-3.7352813742386379
 20
2.0000000000000071
 30
-0.0000000000000004
 11
6.1871843353821978
 21
2.0000000000000102
 31
-0.0000000000000004
210
0.0
220
1.0
230
-0.0000000000000002
  0
LINE
  5
418B
  8
0
  6
VERDECKT
 62
     1
 10
27.0238636073761285
 20
2.000000000000008
 30
-0.0000000000000004
 11
18.9151063967400397
 21
2.0000000000000089
 31
-0.0000000000000004
210
0.0
220
1.0
230
-0.0000000000000002
  0
LINE
  5
418C
  8
0
  6
VERDECKT
 62
     1
 10
14.2959415460182893
 20
2.0000000000000071
 30
-0.0000000000000004
 11
18.9151063967400397
 21
2.000000000000008
 31
-0.0000000000000004
210
0.0
220
1.0
230
-0.0000000000000002
  0
LINE
  5
418D
  8
0
  6
VERDECKT
 62
     1
 10
27.0238636073761498
 20
2.0000000000000062
 30
-0.0000000000000004
 11
28.1074945521652317
 21
2.0000000000000071
 31
-0.0000000000000004
210
0.0
220
1.0
230
-0.0000000000000002
  0
LINE
  5
418E
  8
0
  6
VERDECKT
 62
     1
 10
42.2266594028869733
 20
1.999999999999998
 30
-0.0000000000000004
 11
41.8731060122936469
 21
1.999999999999998
 31
-0.0000000000000004
210
0.0
220
1.0
230
-0.0000000000000002
  0
LINE
  5
418F
  8
0
  6
VERDECKT
 62
     1
 10
-40.8354166135231935
 20
2.0000000000000031
 30
-0.0000000000000004
 11
-30.9359216769115584
 21
2.0000000000000049
 31
-0.0000000000000004
210
0.0
220
1.0
230
-0.0000000000000002
  0
LINE
  5
4190
  8
0
  6
VERDECKT
 62
     1
 10
-40.8354166135231935
 20
2.0000000000000031
 30
-0.0000000000000004
 11
-42.226659402887087
 21
2.0000000000000022
 31
-0.0000000000000004
210
0.0
220
1.0
230
-0.0000000000000002
  0
ARC
  5
4191
  8
0
  6
VERDECKT
 62
     1
 10
-24.3847763108502207
 20
3.4999999999999929
 30
0.0
 40
2.5
210
0.0
220
-0.0000000000000002
230
-1.0
 50
0.0
 51
90.0
  0
ARC
  5
4192
  8
0
  6
VERDECKT
 62
     1
 10
-2.48528137423861
 20
3.499999999999992
 30
0.0
 40
2.4999999999999991
210
0.0
220
-0.0000000000000002
230
-1.0
 50
89.9999999999999858
 51
180.0
  0
LINE
  5
4193
  8
0
  6
VERDECKT
 62
     1
 10
4.9852813742386104
 20
1.9999999999999909
 30
-0.0000000000000004
 11
4.9852813742386104
 21
3.4999999999999911
 31
-0.0000000000000008
210
0.0
220
1.0
230
-0.0000000000000002
  0
ARC
  5
4194
  8
0
  6
VERDECKT
 62
     1
 10
-15.1923881554251601
 20
3.499999999999996
 30
0.0
 40
2.5
210
0.0
220
-0.0000000000000002
230
-1.0
 50
0.0
 51
90.0000000000000284
  0
ARC
  5
4195
  8
0
  6
VERDECKT
 62
     1
 10
15.5459415460183799
 20
3.4999999999999911
 30
0.0
 40
2.5
210
0.0
220
-0.0000000000000002
230
-1.0
 50
90.0
 51
180.0
  0
LINE
  5
4196
  8
0
  6
VERDECKT
 62
     1
 10
12.6923881554251601
 20
1.999999999999996
 30
-0.0000000000000004
 11
12.6923881554251601
 21
3.499999999999996
 31
-0.0000000000000008
210
0.0
220
1.0
230
-0.0000000000000002
  0
ARC
  5
4197
  8
0
  6
VERDECKT
 62
     1
 10
-5.9999999999999512
 20
3.4999999999999991
 30
0.0
 40
2.5
210
0.0
220
-0.0000000000000002
230
-1.0
 50
0.0
 51
89.9999999999999858
  0
ARC
  5
4198
  8
0
  6
VERDECKT
 62
     1
 10
28.2738636073762493
 20
3.4999999999999929
 30
0.0
 40
2.5
210
0.0
220
-0.0000000000000002
230
-1.0
 50
90.0
 51
180.0
  0
LINE
  5
4199
  8
0
  6
VERDECKT
 62
     1
 10
-25.7738636073762493
 20
1.999999999999992
 30
-0.0000000000000004
 11
-25.7738636073762493
 21
3.4999999999999929
 31
-0.0000000000000008
210
0.0
220
1.0
230
-0.0000000000000002
  0
ARC
  5
419A
  8
0
  6
VERDECKT
 62
     1
 10
3.1923881554251872
 20
3.5000000000000009
 30
0.0
 40
2.5
210
0.0
220
-0.0000000000000002
230
-1.0
 50
0.0
 51
90.0
  0
ARC
  5
419B
  8
0
  6
VERDECKT
 62
     1
 10
37.4662517628013703
 20
3.4999999999999951
 30
0.0
 40
2.5
210
0.0
220
-0.0000000000000002
230
-1.0
 50
90.0
 51
180.0
  0
LINE
  5
419C
  8
0
  6
VERDECKT
 62
     1
 10
-5.6923881554251858
 20
2.0
 30
-0.0000000000000004
 11
-5.6923881554251858
 21
3.5
 31
-0.0000000000000008
210
0.0
220
1.0
230
-0.0000000000000002
  0
ARC
  5
419D
  8
0
  6
VERDECKT
 62
     1
 10
43.1231060122937606
 20
3.4999999999999991
 30
0.0
 40
2.5
210
0.0
220
-0.0000000000000002
230
-1.0
 50
90.0
 51
180.0
  0
ARC
  5
419E
  8
0
  6
VERDECKT
 62
     1
 10
12.3847763108502598
 20
3.5000000000000022
 30
0.0
 40
2.5
210
0.0
220
-0.0000000000000002
230
-1.0
 50
0.0
 51
90.0
  0
LINE
  5
419F
  8
0
  6
VERDECKT
 62
     1
 10
-40.6231060122937606
 20
1.999999999999998
 30
-0.0000000000000004
 11
-40.6231060122937606
 21
3.4999999999999978
 31
-0.0000000000000008
210
0.0
220
1.0
230
-0.0000000000000002
  0
ARC
  5
41A0
  8
0
  6
VERDECKT
 62
     1
 10
21.5771644662753204
 20
3.5000000000000049
 30
0.0
 40
2.5
210
0.0
220
-0.0000000000000002
230
-1.0
 50
0.0
 51
90.0000000000000284
  0
ARC
  5
41A1
  8
0
  6
VERDECKT
 62
     1
 10
43.4766594028871225
 20
3.500000000000004
 30
0.0
 40
2.4999999999999978
210
0.0
220
-0.0000000000000002
230
-1.0
 50
90.0
 51
180.0
  0
LINE
  5
41A2
  8
0
  6
VERDECKT
 62
     1
 10
-40.9766594028871225
 20
2.0000000000000022
 30
-0.0000000000000004
 11
-40.9766594028871225
 21
3.5000000000000031
 31
-0.0000000000000008
210
0.0
220
1.0
230
-0.0000000000000002
  0
ARC
  5
41A3
  8
0
  6
VERDECKT
 62
     1
 10
2.48528137423861
 20
3.5000000000000089
 30
0.0
 40
2.5
210
0.0
220
-0.0000000000000002
230
-1.0
 50
0.0
 51
89.9999999999999858
  0
ARC
  5
41A4
  8
0
  6
VERDECKT
 62
     1
 10
24.3847763108502811
 20
3.5000000000000071
 30
0.0
 40
2.5
210
0.0
220
-0.0000000000000002
230
-1.0
 50
90.0
 51
180.0
  0
LINE
  5
41A5
  8
0
  6
VERDECKT
 62
     1
 10
-4.9852813742386104
 20
2.0000000000000089
 30
-0.0000000000000004
 11
-4.9852813742386104
 21
3.5000000000000102
 31
-0.0000000000000008
210
0.0
220
1.0
230
-0.0000000000000002
  0
ARC
  5
41A6
  8
0
  6
VERDECKT
 62
     1
 10
15.1923881554251601
 20
3.5000000000000071
 30
0.0
 40
2.4999999999999978
210
0.0
220
-0.0000000000000002
230
-1.0
 50
89.9999999999999858
 51
180.0
  0
ARC
  5
41A7
  8
0
  6
VERDECKT
 62
     1
 10
-15.5459415460182804
 20
3.5000000000000102
 30
0.0
 40
2.5
210
0.0
220
-0.0000000000000002
230
-1.0
 50
0.0
 51
90.0000000000000284
  0
LINE
  5
41A8
  8
0
  6
VERDECKT
 62
     1
 10
-12.6923881554251601
 20
2.000000000000004
 30
-0.0000000000000004
 11
-12.6923881554251601
 21
3.5000000000000049
 31
-0.0000000000000008
210
0.0
220
1.0
230
-0.0000000000000002
  0
ARC
  5
41A9
  8
0
  6
VERDECKT
 62
     1
 10
-28.2738636073762315
 20
3.5000000000000071
 30
0.0
 40
2.5
210
0.0
220
-0.0000000000000002
230
-1.0
 50
0.0
 51
90.0
  0
ARC
  5
41AA
  8
0
  6
VERDECKT
 62
     1
 10
6.0000000000000258
 20
3.500000000000004
 30
0.0
 40
2.4999999999999978
210
0.0
220
-0.0000000000000002
230
-1.0
 50
89.9999999999999858
 51
180.0
  0
LINE
  5
41AB
  8
0
  6
VERDECKT
 62
     1
 10
25.7738636073762315
 20
2.000000000000008
 30
-0.0000000000000004
 11
25.7738636073762315
 21
3.500000000000008
 31
-0.0000000000000008
210
0.0
220
1.0
230
-0.0000000000000002
  0
ARC
  5
41AC
  8
0
  6
VERDECKT
 62
     1
 10
-3.1923881554250899
 20
3.5
 30
0.0
 40
2.5
210
0.0
220
-0.0000000000000002
230
-1.0
 50
89.9999999999999858
 51
180.0
  0
ARC
  5
41AD
  8
0
  6
VERDECKT
 62
     1
 10
-37.4662517628012921
 20
3.5000000000000062
 30
0.0
 40
2.5
210
0.0
220
-0.0000000000000002
230
-1.0
 50
0.0
 51
90.0000000000000284
  0
LINE
  5
41AE
  8
0
  6
VERDECKT
 62
     1
 10
5.6923881554250899
 20
2.0
 30
-0.0000000000000004
 11
5.6923881554250899
 21
3.5
 31
-0.0000000000000008
210
0.0
220
1.0
230
-0.0000000000000002
  0
ARC
  5
41AF
  8
0
  6
VERDECKT
 62
     1
 10
-12.3847763108501994
 20
3.4999999999999991
 30
0.0
 40
2.5
210
0.0
220
-0.0000000000000002
230
-1.0
 50
90.0
 51
180.0
  0
ARC
  5
41B0
  8
0
  6
VERDECKT
 62
     1
 10
-43.1231060122937322
 20
3.5000000000000022
 30
0.0
 40
2.5
210
0.0
220
-0.0000000000000002
230
-1.0
 50
0.0
 51
90.0
  0
LINE
  5
41B1
  8
0
  6
VERDECKT
 62
     1
 10
14.88477631085021
 20
1.999999999999998
 30
-0.0000000000000004
 11
14.88477631085021
 21
3.4999999999999978
 31
-0.0000000000000008
210
0.0
220
1.0
230
-0.0000000000000002
  0
ARC
  5
41B2
  8
0
  6
VERDECKT
 62
     1
 10
-21.5771644662753594
 20
3.4999999999999978
 30
0.0
 40
2.4999999999999978
210
0.0
220
-0.0000000000000002
230
-1.0
 50
89.9999999999999147
 51
180.0
  0
ARC
  5
41B3
  8
0
  6
VERDECKT
 62
     1
 10
-43.4766594028869591
 20
3.4999999999999969
 30
0.0
 40
2.5
210
0.0
220
-0.0000000000000002
230
-1.0
 50
0.0
 51
89.9999999999999858
  0
LINE
  5
41B4
  8
0
  6
VERDECKT
 62
     1
 10
24.0771644662753594
 20
1.999999999999996
 30
-0.0000000000000004
 11
24.0771644662753594
 21
3.499999999999996
 31
-0.0000000000000008
210
0.0
220
1.0
230
-0.0000000000000002
  0
ARC
  5
41B5
  8
0
  6
VERDECKT
 62
     1
 10
-15.1923881554250801
 20
3.4999999999999969
 30
0.0
 40
1.25
210
0.0
220
-0.0000000000000002
230
-1.0
 50
360.0
 51
90.0
  0
ARC
  5
41B6
  8
0
  6
VERDECKT
 62
     1
 10
15.5459415460183905
 20
3.499999999999992
 30
0.0
 40
1.25
210
0.0
220
-0.0000000000000002
230
-1.0
 50
90.0
 51
180.0
  0
LINE
  5
41B7
  8
0
  6
VERDECKT
 62
     1
 10
13.9423881554250801
 20
1.999999999999996
 30
-0.0000000000000004
 11
13.9423881554250801
 21
3.499999999999996
 31
-0.0000000000000008
210
0.0
220
1.0
230
-0.0000000000000002
  0
ARC
  5
41B8
  8
0
  6
VERDECKT
 62
     1
 10
-6.0
 20
3.4999999999999969
 30
0.0
 40
1.2500000000000011
210
0.0
220
-0.0000000000000002
230
-1.0
 50
0.0000000000000254
 51
89.9999999999999147
  0
ARC
  5
41B9
  8
0
  6
VERDECKT
 62
     1
 10
28.2738636073762315
 20
3.4999999999999929
 30
0.0
 40
1.25
210
0.0
220
-0.0000000000000002
230
-1.0
 50
90.0
 51
180.0
  0
LINE
  5
41BA
  8
0
  6
VERDECKT
 62
     1
 10
4.7499999999999982
 20
1.999999999999998
 30
-0.0000000000000004
 11
4.7499999999999982
 21
3.4999999999999978
 31
-0.0000000000000008
210
0.0
220
1.0
230
-0.0000000000000002
  0
ARC
  5
41BB
  8
0
  6
VERDECKT
 62
     1
 10
37.4662517628014413
 20
3.4999999999999951
 30
0.0
 40
1.25
210
0.0
220
-0.0000000000000002
230
-1.0
 50
90.0000000000003268
 51
180.0
  0
ARC
  5
41BC
  8
0
  6
VERDECKT
 62
     1
 10
3.1923881554251929
 20
3.5000000000000009
 30
0.0
 40
1.25
210
0.0
220
-0.0000000000000002
230
-1.0
 50
0.0
 51
89.9999999999999858
  0
LINE
  5
41BD
  8
0
  6
VERDECKT
 62
     1
 10
-36.2162517628014271
 20
1.999999999999994
 30
-0.0000000000000004
 11
-36.2162517628014271
 21
3.4999999999999951
 31
-0.0000000000000008
210
0.0
220
1.0
230
-0.0000000000000002
  0
ARC
  5
41BE
  8
0
  6
VERDECKT
 62
     1
 10
12.3847763108502704
 20
3.5000000000000022
 30
0.0
 40
1.25
210
0.0
220
-0.0000000000000002
230
-1.0
 50
0.0
 51
90.0
  0
ARC
  5
41BF
  8
0
  6
VERDECKT
 62
     1
 10
43.1231060122937393
 20
3.4999999999999991
 30
0.0
 40
1.25
210
0.0
220
-0.0000000000000002
230
-1.0
 50
90.0000000000003268
 51
180.0
  0
LINE
  5
41C0
  8
0
  6
VERDECKT
 62
     1
 10
-13.6347763108502704
 20
2.0000000000000022
 30
-0.0000000000000004
 11
-13.6347763108502704
 21
3.5000000000000031
 31
-0.0000000000000008
210
0.0
220
1.0
230
-0.0000000000000002
  0
ARC
  5
41C1
  8
0
  6
VERDECKT
 62
     1
 10
21.5771644662755513
 20
3.5000000000000062
 30
0.0
 40
1.25
210
0.0
220
-0.0000000000000002
230
-1.0
 50
360.0
 51
90.0
  0
ARC
  5
41C2
  8
0
  6
VERDECKT
 62
     1
 10
43.476659402887087
 20
3.500000000000004
 30
0.0
 40
1.249999999999998
210
0.0
220
-0.0000000000000002
230
-1.0
 50
89.9999999999996732
 51
180.0
  0
LINE
  5
41C3
  8
0
  6
VERDECKT
 62
     1
 10
-22.8271644662755513
 20
2.000000000000004
 30
-0.0000000000000004
 11
-22.8271644662755513
 21
3.5000000000000049
 31
-0.0000000000000008
210
0.0
220
1.0
230
-0.0000000000000002
  0
ARC
  5
41C4
  8
0
  6
VERDECKT
 62
     1
 10
2.485281374238641
 20
3.5000000000000102
 30
0.0
 40
1.2499999999999989
210
0.0
220
-0.0000000000000002
230
-1.0
 50
0.0
 51
90.0000000000000284
  0
ARC
  5
41C5
  8
0
  6
VERDECKT
 62
     1
 10
24.3847763108502917
 20
3.5000000000000071
 30
0.0
 40
1.25
210
0.0
220
-0.0000000000000002
230
-1.0
 50
90.0
 51
180.0
  0
LINE
  5
41C6
  8
0
  6
VERDECKT
 62
     1
 10
-3.7352813742386402
 20
2.0000000000000089
 30
-0.0000000000000004
 11
-3.7352813742386402
 21
3.5000000000000102
 31
-0.0000000000000008
210
0.0
220
1.0
230
-0.0000000000000002
  0
ARC
  5
41C7
  8
0
  6
VERDECKT
 62
     1
 10
15.1923881554251903
 20
3.5000000000000049
 30
0.0
 40
1.25
210
0.0
220
-0.0000000000000002
230
-1.0
 50
90.0
 51
180.0
  0
ARC
  5
41C8
  8
0
  6
VERDECKT
 62
     1
 10
-15.5459415460182893
 20
3.5000000000000102
 30
0.0
 40
1.25
210
0.0
220
-0.0000000000000002
230
-1.0
 50
360.0
 51
90.0
  0
LINE
  5
41C9
  8
0
  6
VERDECKT
 62
     1
 10
-13.9423881554251903
 20
2.000000000000004
 30
-0.0000000000000004
 11
-13.9423881554251903
 21
3.5000000000000049
 31
-0.0000000000000008
210
0.0
220
1.0
230
-0.0000000000000002
  0
ARC
  5
41CA
  8
0
  6
VERDECKT
 62
     1
 10
5.9999999999999956
 20
3.500000000000004
 30
0.0
 40
1.249999999999998
210
0.0
220
-0.0000000000000002
230
-1.0
 50
89.9999999999999147
 51
180.0
  0
ARC
  5
41CB
  8
0
  6
VERDECKT
 62
     1
 10
-28.2738636073761214
 20
3.5000000000000071
 30
0.0
 40
1.25
210
0.0
220
-0.0000000000000002
230
-1.0
 50
0.0
 51
90.0
  0
LINE
  5
41CC
  8
0
  6
VERDECKT
 62
     1
 10
-4.7499999999999982
 20
2.0000000000000022
 30
-0.0000000000000004
 11
-4.7499999999999982
 21
3.5000000000000031
 31
-0.0000000000000008
210
0.0
220
1.0
230
-0.0000000000000002
  0
ARC
  5
41CD
  8
0
  6
VERDECKT
 62
     1
 10
-37.4662517628013205
 20
3.5000000000000071
 30
0.0
 40
1.25
210
0.0
220
-0.0000000000000002
230
-1.0
 50
360.0
 51
90.0
  0
ARC
  5
41CE
  8
0
  6
VERDECKT
 62
     1
 10
-3.1923881554250801
 20
3.5
 30
0.0
 40
1.25
210
0.0
220
-0.0000000000000002
230
-1.0
 50
90.0
 51
180.0
  0
LINE
  5
41CF
  8
0
  6
VERDECKT
 62
     1
 10
36.2162517628013205
 20
2.0000000000000049
 30
-0.0000000000000004
 11
36.2162517628013205
 21
3.5000000000000062
 31
-0.0000000000000008
210
0.0
220
1.0
230
-0.0000000000000002
  0
ARC
  5
41D0
  8
0
  6
VERDECKT
 62
     1
 10
-43.1231060122936185
 20
3.5000000000000022
 30
0.0
 40
1.25
210
0.0
220
-0.0000000000000002
230
-1.0
 50
0.0
 51
90.0
  0
ARC
  5
41D1
  8
0
  6
VERDECKT
 62
     1
 10
-12.3847763108501603
 20
3.4999999999999991
 30
0.0
 40
1.25
210
0.0
220
-0.0000000000000002
230
-1.0
 50
90.0
 51
180.0
  0
LINE
  5
41D2
  8
0
  6
VERDECKT
 62
     1
 10
41.8731060122936185
 20
2.0000000000000031
 30
-0.0000000000000004
 11
41.8731060122936185
 21
3.5000000000000031
 31
-0.0000000000000008
210
0.0
220
1.0
230
-0.0000000000000002
  0
ARC
  5
41D3
  8
0
  6
VERDECKT
 62
     1
 10
-21.5771644662753701
 20
3.499999999999996
 30
0.0
 40
1.25
210
0.0
220
-0.0000000000000002
230
-1.0
 50
90.0
 51
180.0
  0
ARC
  5
41D4
  8
0
  6
VERDECKT
 62
     1
 10
-43.4766594028869804
 20
3.4999999999999969
 30
0.0
 40
1.25
210
0.0
220
-0.0000000000000002
230
-1.0
 50
0.0000000000000254
 51
90.0000000000000284
  0
LINE
  5
41D5
  8
0
  6
VERDECKT
 62
     1
 10
22.8271644662753701
 20
1.999999999999996
 30
-0.0000000000000004
 11
22.8271644662753701
 21
3.499999999999996
 31
-0.0000000000000008
210
0.0
220
1.0
230
-0.0000000000000002
  0
ARC
  5
41D6
  8
0
  6
VERDECKT
 62
     1
 10
-24.3847763108501603
 20
3.4999999999999929
 30
0.0
 40
1.25
210
0.0
220
-0.0000000000000002
230
-1.0
 50
0.0
 51
90.0
  0
ARC
  5
41D7
  8
0
  6
VERDECKT
 62
     1
 10
-2.4852813742386402
 20
3.499999999999992
 30
0.0
 40
1.25
210
0.0
220
-0.0000000000000002
230
-1.0
 50
90.0
 51
180.0
  0
LINE
  5
41D8
  8
0
  6
VERDECKT
 62
     1
 10
23.1347763108501603
 20
1.9999999999999929
 30
-0.0000000000000004
 11
23.1347763108501603
 21
3.4999999999999938
 31
-0.0000000000000008
210
0.0
220
1.0
230
-0.0000000000000002
  0
LINE
  5
41D9
  8
0
  6
VERDECKT
 62
     1
 10
-42.226659402887087
 20
2.0000000000000022
 30
-0.0000000000000004
 11
-42.226659402887087
 21
3.5000000000000031
 31
-0.0000000000000008
210
0.0
220
1.0
230
-0.0000000000000002
  0
LINE
  5
41DA
  8
0
  6
VERDECKT
 62
     1
 10
-41.8731060122937322
 20
1.999999999999998
 30
-0.0000000000000004
 11
-41.8731060122937322
 21
3.4999999999999978
 31
-0.0000000000000008
210
0.0
220
1.0
230
-0.0000000000000002
  0
LINE
  5
41DB
  8
0
  6
VERDECKT
 62
     1
 10
-27.0238636073762315
 20
1.999999999999992
 30
-0.0000000000000004
 11
-27.0238636073762315
 21
3.4999999999999929
 31
-0.0000000000000008
210
0.0
220
1.0
230
-0.0000000000000002
  0
LINE
  5
41DC
  8
0
  6
VERDECKT
 62
     1
 10
-14.2959415460183905
 20
1.9999999999999909
 30
-0.0000000000000004
 11
-14.2959415460183905
 21
3.499999999999992
 31
-0.0000000000000008
210
0.0
220
1.0
230
-0.0000000000000002
  0
LINE
  5
41DD
  8
0
  6
VERDECKT
 62
     1
 10
3.7352813742386402
 20
1.9999999999999909
 30
-0.0000000000000004
 11
3.7352813742386402
 21
3.4999999999999911
 31
-0.0000000000000008
210
0.0
220
1.0
230
-0.0000000000000002
  0
LINE
  5
41DE
  8
0
  6
VERDECKT
 62
     1
 10
42.2266594028869804
 20
1.999999999999998
 30
-0.0000000000000004
 11
42.2266594028869804
 21
3.4999999999999978
 31
-0.0000000000000008
210
0.0
220
1.0
230
-0.0000000000000002
  0
LINE
  5
41DF
  8
0
  6
VERDECKT
 62
     1
 10
27.0238636073761214
 20
2.000000000000008
 30
-0.0000000000000004
 11
27.0238636073761214
 21
3.500000000000008
 31
-0.0000000000000008
210
0.0
220
1.0
230
-0.0000000000000002
  0
LINE
  5
41E0
  8
0
  6
VERDECKT
 62
     1
 10
14.2959415460182893
 20
2.0000000000000089
 30
-0.0000000000000004
 11
14.2959415460182893
 21
3.5000000000000089
 31
-0.0000000000000008
210
0.0
220
1.0
230
-0.0000000000000002
  0
LINE
  5
41E1
  8
0
  6
VERDECKT
 62
     1
 10
-34.9662517628013703
 20
1.999999999999994
 30
-0.0000000000000004
 11
-34.9662517628013703
 21
3.4999999999999951
 31
-0.0000000000000008
210
0.0
220
1.0
230
-0.0000000000000002
  0
LINE
  5
41E2
  8
0
  6
VERDECKT
 62
     1
 10
-13.0459415460183799
 20
1.9999999999999909
 30
-0.0000000000000004
 11
-13.0459415460183799
 21
3.499999999999992
 31
-0.0000000000000008
210
0.0
220
1.0
230
-0.0000000000000002
  0
LINE
  5
41E3
  8
0
  6
VERDECKT
 62
     1
 10
40.9766594028869591
 20
1.999999999999998
 30
-0.0000000000000004
 11
40.9766594028869591
 21
3.4999999999999978
 31
-0.0000000000000008
210
0.0
220
1.0
230
-0.0000000000000002
  0
LINE
  5
41E4
  8
0
  6
VERDECKT
 62
     1
 10
40.6231060122937322
 20
2.0000000000000031
 30
-0.0000000000000004
 11
40.6231060122937322
 21
3.5000000000000031
 31
-0.0000000000000008
210
0.0
220
1.0
230
-0.0000000000000002
  0
LINE
  5
41E5
  8
0
  6
VERDECKT
 62
     1
 10
34.9662517628012921
 20
2.0000000000000049
 30
-0.0000000000000004
 11
34.9662517628012921
 21
3.5000000000000062
 31
-0.0000000000000008
210
0.0
220
1.0
230
-0.0000000000000002
  0
LINE
  5
41E6
  8
0
  6
VERDECKT
 62
     1
 10
13.0459415460182804
 20
2.0000000000000089
 30
-0.0000000000000004
 11
13.0459415460182804
 21
3.5000000000000089
 31
-0.0000000000000008
210
0.0
220
1.0
230
-0.0000000000000002
  0
LINE
  5
41E7
  8
0
  6
VERDECKT
 62
     1
 10
-4.4423881554251929
 20
2.0
 30
-0.0000000000000004
 11
-4.4423881554251929
 21
3.5
 31
-0.0000000000000008
210
0.0
220
1.0
230
-0.0000000000000002
  0
LINE
  5
41E8
  8
0
  6
VERDECKT
 62
     1
 10
13.6347763108501603
 20
1.999999999999998
 30
-0.0000000000000004
 11
13.6347763108501603
 21
3.4999999999999978
 31
-0.0000000000000008
210
0.0
220
1.0
230
-0.0000000000000002
  0
LINE
  5
41E9
  8
0
  6
VERDECKT
 62
     1
 10
4.4423881554250801
 20
2.0
 30
-0.0000000000000004
 11
4.4423881554250801
 21
3.5
 31
-0.0000000000000008
210
0.0
220
1.0
230
-0.0000000000000002
  0
LINE
  5
41EA
  8
0
  6
VERDECKT
 62
     1
 10
-23.1347763108502917
 20
2.0000000000000071
 30
-0.0000000000000004
 11
-23.1347763108502917
 21
3.5000000000000071
 31
-0.0000000000000008
210
0.0
220
1.0
230
-0.0000000000000002
  0
LINE
  5
41EB
  8
0
  6
VERDECKT
 62
     1
 10
-24.0771644662753204
 20
2.000000000000004
 30
-0.0000000000000004
 11
-24.0771644662753204
 21
3.5000000000000049
 31
-0.0000000000000008
210
0.0
220
1.0
230
-0.0000000000000002
  0
LINE
  5
41EC
  8
0
  6
VERDECKT
 62
     1
 10
-14.8847763108502598
 20
2.0000000000000022
 30
-0.0000000000000004
 11
-14.8847763108502598
 21
3.5000000000000031
 31
-0.0000000000000008
210
0.0
220
1.0
230
-0.0000000000000002
  0
LINE
  5
41ED
  8
0
  6
VERDECKT
 62
     1
 10
3.4999999999999512
 20
1.999999999999998
 30
-0.0000000000000004
 11
3.4999999999999512
 21
3.4999999999999978
 31
-0.0000000000000008
210
0.0
220
1.0
230
-0.0000000000000002
  0
LINE
  5
41EE
  8
0
  6
VERDECKT
 62
     1
 10
21.8847763108502207
 20
1.9999999999999929
 30
-0.0000000000000004
 11
21.8847763108502207
 21
3.4999999999999938
 31
-0.0000000000000008
210
0.0
220
1.0
230
-0.0000000000000002
  0
LINE
  5
41EF
  8
0
  6
VERDECKT
 62
     1
 10
-3.500000000000028
 20
2.0000000000000022
 30
-0.0000000000000004
 11
-3.500000000000028
 21
3.5000000000000031
 31
-0.0000000000000008
210
0.0
220
1.0
230
-0.0000000000000002
  0
LINE
  5
41F0
  8
0
  6
VERDECKT
 62
     1
 10
-21.8847763108502811
 20
2.0000000000000071
 30
-0.0000000000000004
 11
-21.8847763108502811
 21
3.5000000000000071
 31
-0.0000000000000008
210
0.0
220
1.0
230
-0.0000000000000002
  0
ENDBLK
  5
41F2
  8
0
  0
ENDSEC
  0
SECTION
  2
ENTITIES
  0
TEXT
  5
8F
  8
VOLL
 10
78.076754716981128
 20
31.025947764705851
 30
0.0
 40
1.8
  1

  7
GREEKS
  0
INSERT
  5
164D
  8
ADSK_ASSOC_ENTITY_BACKUPS
  2
*S0
 10
0.0
 20
0.0
 30
0.0
  0
INSERT
  5
4172
  8
STEMPEL
  2
A$C81068532
 10
0.0
 20
0.0
 30
0.0
  0
INSERT
  5
41F3
  8
STEMPEL
  2
A$C07448D13
 10
0.0
 20
60.0
 30
0.0
  0
VIEWPORT
  5
100D
 67
     1
  8
0
 10
104.7942945408286022
 20
148.2505837132318049
 30
0.0
 40
562.6653429186870881
 41
298.5309278350516138
 68
     1
 69
     1
1001
ACAD
1000
MVIEW
1002
{
1070
    16
1010
0.0
1020
0.0
1030
0.0
1010
0.0
1020
0.0
1030
1.0
1040
0.0
1040
298.5309278350516138
1040
104.7942945408286022
1040
148.2505837132318049
1040
50.0
1040
0.0
1040
0.0
1070
     0
1070
  1500
1070
     1
1070
     1
1070
     0
1070
     0
1070
     0
1070
     0
1040
0.0
1040
0.0
1040
0.0
1040
10.0
1040
10.0
1040
10.0
1040
10.0
1070
     0
1002
{
1002
}
1002
}
  0
ENDSEC
  0
EOF
