  0
SECTION
  2
HEADER
  9
$ACADVER
  1
AC1009
  9
$INSBASE
 10
0.0
 20
0.0
 30
0.0
  9
$EXTMIN
 10
-50.5
 20
-150.5
 30
-0.0000000000000333
  9
$EXTMAX
 10
50.5000000000000426
 20
150.0
 30
0.0000000000000224
  9
$LIMMIN
 10
0.0
 20
0.0
  9
$LIMMAX
 10
594.0
 20
840.0
  9
$ORTHOMODE
 70
     1
  9
$REGENMODE
 70
     1
  9
$FILLMODE
 70
     1
  9
$QTEXTMODE
 70
     0
  9
$MIRRTEXT
 70
     1
  9
$DRAGMODE
 70
     2
  9
$LTSCALE
 40
10.0
  9
$OSMODE
 70
   511
  9
$ATTMODE
 70
     1
  9
$TEXTSIZE
 40
3.5
  9
$TRACEWID
 40
1.0
  9
$TEXTSTYLE
  7
STANDARD
  9
$CLAYER
  8
STEMPEL
  9
$CELTYPE
  6
BYLAYER
  9
$CECOLOR
 62
   256
  9
$DIMSCALE
 40
1.0
  9
$DIMASZ
 40
3.5
  9
$DIMEXO
 40
1.0
  9
$DIMDLI
 40
0.38
  9
$DIMRND
 40
0.0
  9
$DIMDLE
 40
0.0
  9
$DIMEXE
 40
1.0
  9
$DIMTP
 40
0.0
  9
$DIMTM
 40
0.000000001
  9
$DIMTXT
 40
3.5
  9
$DIMCEN
 40
0.09
  9
$DIMTSZ
 40
0.0
  9
$DIMTOL
 70
     0
  9
$DIMLIM
 70
     0
  9
$DIMTIH
 70
     0
  9
$DIMTOH
 70
     0
  9
$DIMSE1
 70
     0
  9
$DIMSE2
 70
     0
  9
$DIMTAD
 70
     1
  9
$DIMZIN
 70
     8
  9
$DIMBLK
  1

  9
$DIMASO
 70
     1
  9
$DIMSHO
 70
     0
  9
$DIMPOST
  1

  9
$DIMAPOST
  1

  9
$DIMALT
 70
     0
  9
$DIMALTD
 70
     2
  9
$DIMALTF
 40
25.3999999999999986
  9
$DIMLFAC
 40
2.0
  9
$DIMTOFL
 70
     1
  9
$DIMTVP
 40
0.0
  9
$DIMTIX
 70
     0
  9
$DIMSOXD
 70
     0
  9
$DIMSAH
 70
     0
  9
$DIMBLK1
  1

  9
$DIMBLK2
  1

  9
$DIMSTYLE
  2
LORO
  9
$DIMCLRD
 70
     0
  9
$DIMCLRE
 70
     0
  9
$DIMCLRT
 70
     1
  9
$DIMTFAC
 40
0.5
  9
$DIMGAP
 40
1.5
  9
$LUNITS
 70
     2
  9
$LUPREC
 70
     2
  9
$SKETCHINC
 40
1.0
  9
$FILLETRAD
 40
0.5
  9
$AUNITS
 70
     0
  9
$AUPREC
 70
     0
  9
$MENU
  1
ACAD
  9
$ELEVATION
 40
0.0
  9
$PELEVATION
 40
0.0
  9
$THICKNESS
 40
0.0
  9
$LIMCHECK
 70
     0
  9
$BLIPMODE
 70
     0
  9
$CHAMFERA
 40
0.0
  9
$CHAMFERB
 40
0.0
  9
$SKPOLY
 70
     0
  9
$TDCREATE
 40
2455397.867048610933125
  9
$TDUPDATE
 40
2460621.4844328709878027
  9
$TDINDWG
 40
1.6292539583000001
  9
$TDUSRTIMER
 40
1.6292539583000001
  9
$USRTIMER
 70
     1
  9
$ANGBASE
 50
0.0
  9
$ANGDIR
 70
     0
  9
$PDMODE
 70
     0
  9
$PDSIZE
 40
0.0
  9
$PLINEWID
 40
0.0
  9
$COORDS
 70
     1
  9
$SPLFRAME
 70
     0
  9
$SPLINETYPE
 70
     6
  9
$SPLINESEGS
 70
     8
  9
$ATTDIA
 70
     1
  9
$ATTREQ
 70
     1
  9
$HANDLING
 70
     1
  9
$HANDSEED
  5
12A91
  9
$SURFTAB1
 70
     6
  9
$SURFTAB2
 70
     6
  9
$SURFTYPE
 70
     6
  9
$SURFU
 70
     6
  9
$SURFV
 70
     6
  9
$UCSNAME
  2

  9
$UCSORG
 10
0.0
 20
0.0
 30
0.0
  9
$UCSXDIR
 10
1.0
 20
0.0
 30
0.0
  9
$UCSYDIR
 10
0.0
 20
1.0
 30
0.0
  9
$PUCSNAME
  2

  9
$PUCSORG
 10
0.0
 20
0.0
 30
0.0
  9
$PUCSXDIR
 10
1.0
 20
0.0
 30
0.0
  9
$PUCSYDIR
 10
0.0
 20
1.0
 30
0.0
  9
$USERI1
 70
     0
  9
$USERI2
 70
     0
  9
$USERI3
 70
     0
  9
$USERI4
 70
     0
  9
$USERI5
 70
     0
  9
$USERR1
 40
0.0
  9
$USERR2
 40
0.0
  9
$USERR3
 40
0.0
  9
$USERR4
 40
0.0
  9
$USERR5
 40
0.0
  9
$WORLDVIEW
 70
     1
  9
$SHADEDGE
 70
     3
  9
$SHADEDIF
 70
    70
  9
$TILEMODE
 70
     1
  9
$MAXACTVP
 70
    16
  9
$PLIMCHECK
 70
     0
  9
$PEXTMIN
 10
28.7499993777573799
 20
86.6184934910319271
 30
-0.0000000000000009
  9
$PEXTMAX
 10
153.9583327889588134
 20
272.4999997635080717
 30
0.0
  9
$PLIMMIN
 10
-0.2052258326721415
 20
-0.2523908428222797
  9
$PLIMMAX
 10
209.794774167327887
 20
296.7476091571778056
  9
$UNITMODE
 70
     0
  9
$VISRETAIN
 70
     0
  9
$PLINEGEN
 70
     0
  9
$PSLTSCALE
 70
     0
  0
ENDSEC
  0
SECTION
  2
TABLES
  0
TABLE
  2
VPORT
 70
     1
  0
VPORT
  2
*ACTIVE
 70
     0
 10
0.0
 20
0.0
 11
1.0
 21
1.0
 12
0.0000000000000568
 22
-50.0
 13
0.0
 23
0.0
 14
1.0
 24
1.0
 15
10.0
 25
10.0
 16
-0.0000000000001338
 26
0.0
 36
602.4784802068285217
 17
0.0
 27
49.75
 37
-0.0000000000000054
 40
302.0489690721649936
 41
1.8847807394668961
 42
50.0
 43
0.0
 44
0.0
 50
0.0
 51
0.0
 71
     0
 72
  1500
 73
     1
 74
     0
 75
     0
 76
     0
 77
     0
 78
     0
  0
ENDTAB
  0
TABLE
  2
LTYPE
 70
     3
  0
LTYPE
  2
CONTINUOUS
 70
     0
  3
Solid line
 72
    65
 73
     0
 40
0.0
  0
LTYPE
  2
STRICHPUNKT
 70
     0
  3
__ . __ . __ . __ . __ . __ . __ . __ . __ . __
 72
    65
 73
     4
 40
1.0
 49
0.5
 49
-0.25
 49
0.0
 49
-0.25
  0
LTYPE
  2
VERDECKT
 70
     0
  3
Verdeckt __ __ __ __ __ __ __ __ __ __ __ __ __
 72
    65
 73
     2
 40
0.375
 49
0.25
 49
-0.125
  0
ENDTAB
  0
TABLE
  2
LAYER
 70
     6
  0
LAYER
  2
0
 70
     0
 62
     7
  6
CONTINUOUS
  0
LAYER
  2
STEMPEL
 70
     0
 62
     3
  6
CONTINUOUS
  0
LAYER
  2
ADSK_ASSOC_ENTITY_BACKUPS
 70
     1
 62
    -7
  6
CONTINUOUS
  0
LAYER
  2
INDEX
 70
     0
 62
  -255
  6
CONTINUOUS
  0
ENDTAB
  0
TABLE
  2
STYLE
 70
     2
  0
STYLE
  2
STANDARD
 70
     0
 40
0.0
 41
0.8
 50
0.0
 71
     0
 42
3.5
  3
simplex.shx
  4

  0
ENDTAB
  0
TABLE
  2
VIEW
 70
     0
  0
ENDTAB
  0
TABLE
  2
UCS
 70
     0
  0
ENDTAB
  0
TABLE
  2
APPID
 70
    27
  0
APPID
  2
ACAD
 70
     0
  0
APPID
  2
ACAECLAYERSTANDARD
 70
     0
  0
APPID
  2
ACCMTRANSPARENCY
 70
     0
  0
APPID
  2
ACAD_NAV_VCDISPLAY
 70
     0
  0
APPID
  2
ACAD_PSEXT
 70
     0
  0
APPID
  2
ACAD_STEPID
 70
     0
  0
APPID
  2
ACAD_EXEMPT_FROM_CAD_STANDARDS
 70
     0
  0
APPID
  2
ACSYNERGY
 70
     0
  0
APPID
  2
SYNERGY_BODY_TBR_ID
 70
     0
  0
APPID
  2
ACAD_VIEW_EDGE_ID
 70
     0
  0
APPID
  2
GRADIENTCOLOR1ACI
 70
     0
  0
APPID
  2
GRADIENTCOLOR2ACI
 70
     0
  0
APPID
  2
ACAD_DSTYLE_DIMRADIAL_EXTENSION
 70
     0
  0
APPID
  2
ACADANNOMONITORALERTICONDI
 70
     0
  0
APPID
  2
ACAD_MLEADERVER
 70
     0
  0
APPID
  2
ACSYNERGYSKETCH
 70
     0
  0
APPID
  2
ACAD_MODELDOC_XFORM
 70
     0
  0
APPID
  2
ACDBDYNAMICBLOCKGUID
 70
     0
  0
APPID
  2
ACAD_DSTYLE_DIMJAG
 70
     0
  0
APPID
  2
ACAD_DSTYLE_DIMBREAK
 70
     0
  0
APPID
  2
ACAD_DSTYLE_DIMTALN
 70
     0
  0
APPID
  2
ACADANNOPO
 70
     0
  0
APPID
  2
PLOTTRANSPARENCY
 70
     0
  0
APPID
  2
ACADANNOTATIVE
 70
     0
  0
APPID
  2
ACAD_DIMASSOC_CALC_DIMLFAC
 70
     0
  0
APPID
  2
ACAD_DIMASSOC_DIMLFAC
 70
     0
  0
APPID
  2
ACAD_DIMASSOC_OVERRIDDEN_D
 70
     0
  0
ENDTAB
  0
TABLE
  2
DIMSTYLE
 70
     1
  0
DIMSTYLE
  2
LORO
 70
     0
  3

  4

  5

  6

  7

 40
1.0
 41
3.5
 42
1.0
 43
0.38
 44
1.0
 45
0.0
 46
0.0
 47
0.0
 48
0.000000001
140
3.5
141
0.09
142
0.0
143
25.3999999999999986
144
2.0
145
0.0
146
0.5
147
1.5
 71
     0
 72
     0
 73
     0
 74
     0
 75
     0
 76
     0
 77
     1
 78
     8
170
     0
171
     2
172
     1
173
     0
174
     0
175
     0
176
     0
177
     0
178
     1
  0
ENDTAB
  0
ENDSEC
  0
SECTION
  2
BLOCKS
  0
BLOCK
  8
0
  2
$MODEL_SPACE
 70
     0
 10
0.0
 20
0.0
 30
0.0
  3
$MODEL_SPACE
  1

  0
ENDBLK
  5
38
  8
0
  0
BLOCK
 67
     1
  8
0
  2
$PAPER_SPACE
 70
     0
 10
0.0
 20
0.0
 30
0.0
  3
$PAPER_SPACE
  1

  0
ENDBLK
  5
36
 67
     1
  8
0
  0
BLOCK
  8
0
  2
*S0
 70
     1
 10
0.0
 20
0.0
 30
0.0
  3
*S0
  1

  0
ENDBLK
  5
7128
  8
0
  0
BLOCK
  8
0
  2
A$C4F462614
 70
     0
 10
0.0
 20
0.0
 30
0.0
  3
A$C4F462614
  1

  0
CIRCLE
  5
1282B
  8
0
  6
CONTINUOUS
 62
     3
 10
-34.9999999999999574
 20
35.0000000000000071
 30
0.0
 40
4.2500000000000009
  0
CIRCLE
  5
1282C
  8
0
  6
CONTINUOUS
 62
     3
 10
-34.9999999999999574
 20
35.0000000000000071
 30
0.0
 40
1.7500000000000031
  0
CIRCLE
  5
1282D
  8
0
  6
CONTINUOUS
 62
     3
 10
35.0000000000000284
 20
-35.0
 30
0.0
 40
1.75
  0
CIRCLE
  5
1282E
  8
0
  6
CONTINUOUS
 62
     3
 10
35.0000000000000284
 20
-35.0
 30
0.0
 40
4.2500000000000027
  0
ARC
  5
1282F
  8
0
  6
CONTINUOUS
 62
     3
 10
27.5000000000000284
 20
49.6000000000000014
 30
0.0
 40
2.8999999999999981
 50
226.3971810272963978
 51
313.6028189727038011
  0
ARC
  5
12830
  8
0
  6
CONTINUOUS
 62
     3
 10
27.5000000000000284
 20
49.6000000000000085
 30
0.0
 40
3.1703597250328568
 50
221.4820518194565011
 51
318.5179481805433852
  0
ARC
  5
12831
  8
0
  6
CONTINUOUS
 62
     3
 10
-27.4999999999999609
 20
-49.5999999999999872
 30
0.0
 40
2.8999999999999981
 50
46.3971810272964404
 51
133.6028189727036875
  0
ARC
  5
12832
  8
0
  6
CONTINUOUS
 62
     3
 10
-27.4999999999999609
 20
-49.6000000000000014
 30
0.0
 40
3.1703597250328568
 50
41.4820518194565366
 51
138.5179481805434136
  0
ARC
  5
12833
  8
0
  6
CONTINUOUS
 62
     3
 10
-49.599999999999973
 20
-27.4999999999999716
 30
0.0
 40
2.8999999999999981
 50
316.3971810272963125
 51
43.6028189727035596
  0
ARC
  5
12834
  8
0
  6
CONTINUOUS
 62
     3
 10
-49.599999999999973
 20
-27.4999999999999787
 30
0.0
 40
3.1703597250328519
 50
311.4820518194566148
 51
48.517948180543641
  0
ARC
  5
12835
  8
0
  6
CONTINUOUS
 62
     3
 10
49.6000000000000369
 20
27.5000000000000107
 30
0.0
 40
2.899999999999995
 50
136.3971810272961989
 51
223.6028189727036022
  0
ARC
  5
12836
  8
0
  6
CONTINUOUS
 62
     3
 10
49.6000000000000369
 20
27.5
 30
0.0
 40
3.1703597250328568
 50
131.4820518194565011
 51
228.5179481805434136
  0
ARC
  5
12837
  8
0
  6
CONTINUOUS
 62
     3
 10
-27.4999999999999609
 20
49.6000000000000014
 30
0.0
 40
2.8999999999999981
 50
226.3971810272963125
 51
313.6028189727035738
  0
ARC
  5
12838
  8
0
  6
CONTINUOUS
 62
     3
 10
-27.4999999999999609
 20
49.6000000000000014
 30
0.0
 40
3.1703597250328519
 50
221.4820518194565011
 51
318.5179481805434989
  0
ARC
  5
12839
  8
0
  6
CONTINUOUS
 62
     3
 10
27.5000000000000213
 20
-49.5999999999999872
 30
0.0
 40
2.899999999999995
 50
46.3971810272962912
 51
133.6028189727036022
  0
ARC
  5
1283A
  8
0
  6
CONTINUOUS
 62
     3
 10
27.5000000000000213
 20
-49.6000000000000014
 30
0.0
 40
3.1703597250328568
 50
41.4820518194565366
 51
138.5179481805434136
  0
ARC
  5
1283B
  8
0
  6
CONTINUOUS
 62
     3
 10
-49.599999999999973
 20
27.5
 30
0.0
 40
2.8999999999999981
 50
316.3971810272964262
 51
43.6028189727037372
  0
ARC
  5
1283C
  8
0
  6
CONTINUOUS
 62
     3
 10
-49.599999999999973
 20
27.5
 30
0.0
 40
3.1703597250328519
 50
311.4820518194566148
 51
48.517948180543641
  0
ARC
  5
1283D
  8
0
  6
CONTINUOUS
 62
     3
 10
49.6000000000000369
 20
-27.4999999999999893
 30
0.0
 40
2.8999999999999981
 50
136.3971810272963978
 51
223.6028189727036875
  0
ARC
  5
1283E
  8
0
  6
CONTINUOUS
 62
     3
 10
49.6000000000000369
 20
-27.5
 30
0.0
 40
3.1703597250328519
 50
131.4820518194563874
 51
228.5179481805434136
  0
LINE
  5
1283F
  8
0
  6
CONTINUOUS
 62
     3
 10
-47.4999999999999574
 20
47.5000000000000071
 30
0.0
 11
-29.4999999999999609
 21
47.5000000000000071
 31
0.000000000000004
  0
LINE
  5
12840
  8
0
  6
CONTINUOUS
 62
     3
 10
-25.4999999999999716
 20
47.5000000000000071
 30
0.0
 11
25.5000000000000391
 21
47.5000000000000071
 31
0.0000000000000113
  0
LINE
  5
12841
  8
0
  6
CONTINUOUS
 62
     3
 10
47.5000000000000284
 20
-47.5
 30
0.0
 11
29.5000000000000284
 21
-47.5
 31
-0.000000000000004
  0
LINE
  5
12842
  8
0
  6
CONTINUOUS
 62
     3
 10
25.5000000000000213
 20
-47.5
 30
0.0
 11
-25.4999999999999716
 21
-47.5
 31
-0.0000000000000113
  0
LINE
  5
12843
  8
0
  6
CONTINUOUS
 62
     3
 10
-47.4999999999999716
 20
-47.4999999999999929
 30
0.0
 11
-47.4999999999999716
 21
-29.4999999999999893
 31
0.0
  0
LINE
  5
12844
  8
0
  6
CONTINUOUS
 62
     3
 10
-47.4999999999999716
 20
29.5000000000000107
 30
0.0
 11
-47.4999999999999716
 21
47.5000000000000213
 31
0.0
  0
CIRCLE
  5
12845
  8
0
  6
CONTINUOUS
 62
     3
 10
0.000000000000032
 20
0.0000000000000088
 30
0.0
 40
42.1499999999999915
  0
LINE
  5
12846
  8
0
  6
CONTINUOUS
 62
     3
 10
47.5000000000000426
 20
47.5
 30
0.0
 11
47.5000000000000426
 21
29.5000000000000107
 31
0.0
  0
LINE
  5
12847
  8
0
  6
CONTINUOUS
 62
     3
 10
47.5000000000000426
 20
-29.4999999999999893
 30
0.0
 11
47.5000000000000426
 21
-47.5
 31
0.0
  0
LINE
  5
12848
  8
0
  6
CONTINUOUS
 62
     3
 10
29.5000000000000391
 20
47.5000000000000071
 30
0.0
 11
47.5000000000000426
 21
47.5000000000000071
 31
0.000000000000004
  0
LINE
  5
12849
  8
0
  6
CONTINUOUS
 62
     3
 10
47.5000000000000426
 20
25.5000000000000213
 30
0.0
 11
47.5000000000000426
 21
-25.4999999999999893
 31
0.0
  0
LINE
  5
1284A
  8
0
  6
CONTINUOUS
 62
     3
 10
-29.4999999999999716
 20
-47.5
 30
0.0
 11
-47.4999999999999929
 21
-47.5
 31
-0.000000000000004
  0
LINE
  5
1284B
  8
0
  6
CONTINUOUS
 62
     3
 10
-47.4999999999999716
 20
-25.4999999999999787
 30
0.0
 11
-47.4999999999999716
 21
25.5000000000000107
 31
0.0
  0
LINE
  5
1284C
  8
0
  6
CONTINUOUS
 62
     3
 10
50.5000000000000426
 20
50.5000000000000071
 30
0.0
 11
-50.4999999999999716
 21
50.5000000000000071
 31
-0.0000000000000224
  0
LINE
  5
1284D
  8
0
  6
CONTINUOUS
 62
     3
 10
50.5000000000000426
 20
-50.5
 30
0.0
 11
50.5000000000000426
 21
50.5000000000000071
 31
0.0
  0
LINE
  5
1284E
  8
0
  6
CONTINUOUS
 62
     3
 10
-50.4999999999999716
 20
-50.5
 30
0.0
 11
50.5000000000000426
 21
-50.5
 31
0.0000000000000224
  0
LINE
  5
1284F
  8
0
  6
CONTINUOUS
 62
     3
 10
-50.4999999999999716
 20
50.5000000000000071
 30
0.0
 11
-50.4999999999999716
 21
-50.5
 31
0.0
  0
CIRCLE
  5
12850
  8
0
  6
CONTINUOUS
 62
     3
 10
0.0000000000000298
 20
0.0000000000000082
 30
0.0
 40
32.1499999999999986
  0
CIRCLE
  5
12851
  8
0
  6
VERDECKT
 62
     1
 10
0.0000000000000271
 20
0.0000000000000075
 30
0.0
 40
36.0000000000000426
  0
CIRCLE
  5
12852
  8
0
  6
VERDECKT
 62
     1
 10
0.0000000000000298
 20
0.0000000000000082
 30
0.0
 40
36.5000000000000071
  0
CIRCLE
  5
12853
  8
0
  6
VERDECKT
 62
     1
 10
0.0000000000000313
 20
0.0000000000000086
 30
0.0
 40
43.5000000000000071
  0
CIRCLE
  5
12854
  8
0
  6
VERDECKT
 62
     1
 10
0.0
 20
0.0
 30
0.0
 40
34.5
  0
ENDBLK
  5
12856
  8
0
  0
BLOCK
  8
0
  2
A$C32F7FAAF
 70
     0
 10
0.0
 20
0.0
 30
0.0
  3
A$C32F7FAAF
  1

  0
LINE
  5
1285A
  8
0
  6
CONTINUOUS
 62
     3
 10
50.5
 20
141.0
 30
-0.0000000000000313
 11
50.5
 21
150.0
 31
-0.0000000000000333
210
0.0
220
1.0
230
-0.0000000000000002
  0
LINE
  5
1285B
  8
0
  6
CONTINUOUS
 62
     3
 10
50.5
 20
141.0
 30
-0.0000000000000313
 11
-50.5
 21
141.0
 31
-0.0000000000000313
210
0.0
220
1.0
230
-0.0000000000000002
  0
LINE
  5
1285C
  8
0
  6
CONTINUOUS
 62
     3
 10
-50.5
 20
150.0
 30
-0.0000000000000333
 11
50.5
 21
150.0
 31
-0.0000000000000333
210
0.0
220
1.0
230
-0.0000000000000002
  0
LINE
  5
1285D
  8
0
  6
CONTINUOUS
 62
     3
 10
-50.5
 20
141.0
 30
-0.0000000000000313
 11
-50.5
 21
150.0
 31
-0.0000000000000333
210
0.0
220
1.0
230
-0.0000000000000002
  0
LINE
  5
1285E
  8
0
  6
CONTINUOUS
 62
     3
 10
36.5000000000000213
 20
77.0000000000000142
 30
-0.0000000000000171
 11
-36.5000000000000213
 21
77.0000000000000142
 31
-0.0000000000000171
210
0.0
220
1.0
230
-0.0000000000000002
  0
LINE
  5
1285F
  8
0
  6
CONTINUOUS
 62
     3
 10
36.5000000000000284
 20
89.0
 30
-0.0000000000000198
 11
-36.5000000000000284
 21
89.0
 31
-0.0000000000000198
210
0.0
220
1.0
230
-0.0000000000000002
  0
LINE
  5
12860
  8
0
  6
CONTINUOUS
 62
     3
 10
36.5000000000000284
 20
92.0000000000000142
 30
-0.0000000000000204
 11
-36.5000000000000284
 21
92.0000000000000142
 31
-0.0000000000000204
210
0.0
220
1.0
230
-0.0000000000000002
  0
LINE
  5
12861
  8
0
  6
CONTINUOUS
 62
     3
 10
36.5000000000000284
 20
104.0
 30
-0.0000000000000231
 11
-36.5000000000000284
 21
104.0
 31
-0.0000000000000231
210
0.0
220
1.0
230
-0.0000000000000002
  0
LINE
  5
12862
  8
0
  6
CONTINUOUS
 62
     3
 10
36.5000000000000284
 20
107.0
 30
-0.0000000000000238
 11
-36.5000000000000284
 21
107.0
 31
-0.0000000000000238
210
0.0
220
1.0
230
-0.0000000000000002
  0
LINE
  5
12863
  8
0
  6
CONTINUOUS
 62
     3
 10
36.5000000000000426
 20
119.0
 30
-0.0000000000000264
 11
-36.5000000000000426
 21
119.0
 31
-0.0000000000000264
210
0.0
220
1.0
230
-0.0000000000000002
  0
LINE
  5
12864
  8
0
  6
CONTINUOUS
 62
     3
 10
36.5000000000000284
 20
122.0
 30
-0.0000000000000271
 11
-36.5000000000000284
 21
122.0
 31
-0.0000000000000271
210
0.0
220
1.0
230
-0.0000000000000002
  0
LINE
  5
12865
  8
0
  6
CONTINUOUS
 62
     3
 10
36.5000000000000071
 20
134.0
 30
-0.0000000000000298
 11
-36.5000000000000071
 21
134.0
 31
-0.0000000000000298
210
0.0
220
1.0
230
-0.0000000000000002
  0
LINE
  5
12866
  8
0
  6
CONTINUOUS
 62
     3
 10
36.5
 20
0.0
 30
0.0
 11
-36.5
 21
0.0
 31
0.0
210
0.0
220
1.0
230
-0.0000000000000002
  0
LINE
  5
12867
  8
0
  6
CONTINUOUS
 62
     3
 10
36.5000000000000071
 20
14.0
 30
-0.0000000000000031
 11
-36.5000000000000071
 21
14.0
 31
-0.0000000000000031
210
0.0
220
1.0
230
-0.0000000000000002
  0
LINE
  5
12868
  8
0
  6
CONTINUOUS
 62
     3
 10
36.5
 20
17.0
 30
-0.0000000000000038
 11
-36.5
 21
17.0
 31
-0.0000000000000038
210
0.0
220
1.0
230
-0.0000000000000002
  0
LINE
  5
12869
  8
0
  6
CONTINUOUS
 62
     3
 10
36.5000000000000213
 20
29.0
 30
-0.0000000000000064
 11
-36.5000000000000213
 21
29.0
 31
-0.0000000000000064
210
0.0
220
1.0
230
-0.0000000000000002
  0
LINE
  5
1286A
  8
0
  6
CONTINUOUS
 62
     3
 10
36.5000000000000071
 20
32.0
 30
-0.0000000000000071
 11
-36.5000000000000071
 21
32.0
 31
-0.0000000000000071
210
0.0
220
1.0
230
-0.0000000000000002
  0
LINE
  5
1286B
  8
0
  6
CONTINUOUS
 62
     3
 10
36.5000000000000213
 20
44.0
 30
-0.0000000000000098
 11
-36.5000000000000213
 21
44.0
 31
-0.0000000000000098
210
0.0
220
1.0
230
-0.0000000000000002
  0
LINE
  5
1286C
  8
0
  6
CONTINUOUS
 62
     3
 10
36.5000000000000213
 20
47.0
 30
-0.0000000000000104
 11
-36.5000000000000213
 21
47.0
 31
-0.0000000000000104
210
0.0
220
1.0
230
-0.0000000000000002
  0
LINE
  5
1286D
  8
0
  6
CONTINUOUS
 62
     3
 10
36.5000000000000213
 20
59.0000000000000071
 30
-0.0000000000000131
 11
-36.5000000000000213
 21
59.0000000000000071
 31
-0.0000000000000131
210
0.0
220
1.0
230
-0.0000000000000002
  0
LINE
  5
1286E
  8
0
  6
CONTINUOUS
 62
     3
 10
36.5000000000000213
 20
62.0000000000000071
 30
-0.0000000000000138
 11
-36.5000000000000213
 21
62.0000000000000071
 31
-0.0000000000000138
210
0.0
220
1.0
230
-0.0000000000000002
  0
LINE
  5
1286F
  8
0
  6
CONTINUOUS
 62
     3
 10
36.5000000000000284
 20
74.0000000000000142
 30
-0.0000000000000164
 11
-36.5000000000000284
 21
74.0000000000000142
 31
-0.0000000000000164
210
0.0
220
1.0
230
-0.0000000000000002
  0
LINE
  5
12870
  8
0
  6
CONTINUOUS
 62
     3
 10
-36.5000000000000284
 20
77.0000000000000142
 30
-0.0000000000000171
 11
-36.5000000000000284
 21
89.0
 31
-0.0000000000000198
210
0.0
220
1.0
230
-0.0000000000000002
  0
LINE
  5
12871
  8
0
  6
CONTINUOUS
 62
     3
 10
36.5000000000000284
 20
77.0000000000000142
 30
-0.0000000000000171
 11
36.5000000000000284
 21
89.0
 31
-0.0000000000000198
210
0.0
220
1.0
230
-0.0000000000000002
  0
LINE
  5
12872
  8
0
  6
CONTINUOUS
 62
     3
 10
-36.0000000000000284
 20
89.0
 30
-0.0000000000000198
 11
-36.0000000000000284
 21
92.0000000000000142
 31
-0.0000000000000204
210
0.0
220
1.0
230
-0.0000000000000002
  0
LINE
  5
12873
  8
0
  6
CONTINUOUS
 62
     3
 10
36.0000000000000284
 20
89.0
 30
-0.0000000000000198
 11
36.0000000000000284
 21
92.0000000000000142
 31
-0.0000000000000204
210
0.0
220
1.0
230
-0.0000000000000002
  0
LINE
  5
12874
  8
0
  6
CONTINUOUS
 62
     3
 10
-36.5000000000000284
 20
92.0000000000000142
 30
-0.0000000000000204
 11
-36.5000000000000284
 21
104.0
 31
-0.0000000000000231
210
0.0
220
1.0
230
-0.0000000000000002
  0
LINE
  5
12875
  8
0
  6
CONTINUOUS
 62
     3
 10
36.5000000000000284
 20
92.0000000000000142
 30
-0.0000000000000204
 11
36.5000000000000284
 21
104.0
 31
-0.0000000000000231
210
0.0
220
1.0
230
-0.0000000000000002
  0
LINE
  5
12876
  8
0
  6
CONTINUOUS
 62
     3
 10
-36.0000000000000284
 20
104.0
 30
-0.0000000000000231
 11
-36.0000000000000284
 21
107.0
 31
-0.0000000000000238
210
0.0
220
1.0
230
-0.0000000000000002
  0
LINE
  5
12877
  8
0
  6
CONTINUOUS
 62
     3
 10
36.0000000000000284
 20
104.0
 30
-0.0000000000000231
 11
36.0000000000000284
 21
107.0
 31
-0.0000000000000238
210
0.0
220
1.0
230
-0.0000000000000002
  0
LINE
  5
12878
  8
0
  6
CONTINUOUS
 62
     3
 10
-36.5000000000000426
 20
107.0
 30
-0.0000000000000238
 11
-36.5000000000000426
 21
119.0
 31
-0.0000000000000264
210
0.0
220
1.0
230
-0.0000000000000002
  0
LINE
  5
12879
  8
0
  6
CONTINUOUS
 62
     3
 10
36.5000000000000426
 20
107.0
 30
-0.0000000000000238
 11
36.5000000000000426
 21
119.0
 31
-0.0000000000000264
210
0.0
220
1.0
230
-0.0000000000000002
  0
LINE
  5
1287A
  8
0
  6
CONTINUOUS
 62
     3
 10
-36.0000000000000426
 20
119.0
 30
-0.0000000000000264
 11
-36.0000000000000426
 21
122.0
 31
-0.0000000000000271
210
0.0
220
1.0
230
-0.0000000000000002
  0
LINE
  5
1287B
  8
0
  6
CONTINUOUS
 62
     3
 10
36.0000000000000426
 20
119.0
 30
-0.0000000000000264
 11
36.0000000000000426
 21
122.0
 31
-0.0000000000000271
210
0.0
220
1.0
230
-0.0000000000000002
  0
LINE
  5
1287C
  8
0
  6
CONTINUOUS
 62
     3
 10
-36.5000000000000213
 20
122.0
 30
-0.0000000000000271
 11
-36.5000000000000213
 21
134.0
 31
-0.0000000000000298
210
0.0
220
1.0
230
-0.0000000000000002
  0
LINE
  5
1287D
  8
0
  6
CONTINUOUS
 62
     3
 10
36.5000000000000213
 20
122.0
 30
-0.0000000000000271
 11
36.5000000000000213
 21
134.0
 31
-0.0000000000000298
210
0.0
220
1.0
230
-0.0000000000000002
  0
LINE
  5
1287E
  8
0
  6
CONTINUOUS
 62
     3
 10
-36.5
 20
134.0
 30
-0.0000000000000298
 11
-43.5000000000000071
 21
141.0
 31
-0.0000000000000313
210
0.0
220
1.0
230
-0.0000000000000002
  0
LINE
  5
1287F
  8
0
  6
CONTINUOUS
 62
     3
 10
36.5
 20
134.0
 30
-0.0000000000000298
 11
43.5000000000000071
 21
141.0
 31
-0.0000000000000313
210
0.0
220
1.0
230
-0.0000000000000002
  0
LINE
  5
12880
  8
0
  6
CONTINUOUS
 62
     3
 10
-36.5
 20
-0.0000000000000027
 30
0.0
 11
-36.5
 21
14.0
 31
-0.0000000000000031
210
0.0
220
1.0
230
-0.0000000000000002
  0
LINE
  5
12881
  8
0
  6
CONTINUOUS
 62
     3
 10
36.5
 20
0.0
 30
0.0
 11
36.5
 21
13.9999999999999893
 31
-0.0000000000000031
210
0.0
220
1.0
230
-0.0000000000000002
  0
LINE
  5
12882
  8
0
  6
CONTINUOUS
 62
     3
 10
-36.0000000000000071
 20
14.0
 30
-0.0000000000000031
 11
-36.0000000000000071
 21
17.0
 31
-0.0000000000000038
210
0.0
220
1.0
230
-0.0000000000000002
  0
LINE
  5
12883
  8
0
  6
CONTINUOUS
 62
     3
 10
36.0000000000000071
 20
14.0
 30
-0.0000000000000031
 11
36.0000000000000071
 21
17.0
 31
-0.0000000000000038
210
0.0
220
1.0
230
-0.0000000000000002
  0
LINE
  5
12884
  8
0
  6
CONTINUOUS
 62
     3
 10
-36.5000000000000071
 20
17.0
 30
-0.0000000000000038
 11
-36.5000000000000071
 21
29.0
 31
-0.0000000000000064
210
0.0
220
1.0
230
-0.0000000000000002
  0
LINE
  5
12885
  8
0
  6
CONTINUOUS
 62
     3
 10
36.5000000000000071
 20
17.0
 30
-0.0000000000000038
 11
36.5000000000000071
 21
29.0
 31
-0.0000000000000064
210
0.0
220
1.0
230
-0.0000000000000002
  0
LINE
  5
12886
  8
0
  6
CONTINUOUS
 62
     3
 10
-36.0000000000000071
 20
29.0
 30
-0.0000000000000064
 11
-36.0000000000000071
 21
32.0
 31
-0.0000000000000071
210
0.0
220
1.0
230
-0.0000000000000002
  0
LINE
  5
12887
  8
0
  6
CONTINUOUS
 62
     3
 10
36.0000000000000071
 20
29.0
 30
-0.0000000000000064
 11
36.0000000000000071
 21
32.0
 31
-0.0000000000000071
210
0.0
220
1.0
230
-0.0000000000000002
  0
LINE
  5
12888
  8
0
  6
CONTINUOUS
 62
     3
 10
-36.5000000000000213
 20
32.0
 30
-0.0000000000000071
 11
-36.5000000000000213
 21
44.0
 31
-0.0000000000000098
210
0.0
220
1.0
230
-0.0000000000000002
  0
LINE
  5
12889
  8
0
  6
CONTINUOUS
 62
     3
 10
36.5000000000000213
 20
32.0
 30
-0.0000000000000071
 11
36.5000000000000213
 21
44.0000000000000071
 31
-0.0000000000000098
210
0.0
220
1.0
230
-0.0000000000000002
  0
LINE
  5
1288A
  8
0
  6
CONTINUOUS
 62
     3
 10
-36.0000000000000071
 20
44.0
 30
-0.0000000000000098
 11
-36.0000000000000071
 21
47.0
 31
-0.0000000000000104
210
0.0
220
1.0
230
-0.0000000000000002
  0
LINE
  5
1288B
  8
0
  6
CONTINUOUS
 62
     3
 10
36.0000000000000071
 20
43.9999999999999929
 30
-0.0000000000000098
 11
36.0000000000000071
 21
46.9999999999999929
 31
-0.0000000000000104
210
0.0
220
1.0
230
-0.0000000000000002
  0
LINE
  5
1288C
  8
0
  6
CONTINUOUS
 62
     3
 10
-36.5000000000000213
 20
47.0
 30
-0.0000000000000104
 11
-36.5000000000000213
 21
59.0000000000000071
 31
-0.0000000000000131
210
0.0
220
1.0
230
-0.0000000000000002
  0
LINE
  5
1288D
  8
0
  6
CONTINUOUS
 62
     3
 10
36.5000000000000213
 20
46.9999999999999929
 30
-0.0000000000000104
 11
36.5000000000000213
 21
59.0
 31
-0.0000000000000131
210
0.0
220
1.0
230
-0.0000000000000002
  0
LINE
  5
1288E
  8
0
  6
CONTINUOUS
 62
     3
 10
-36.0000000000000213
 20
59.0000000000000071
 30
-0.0000000000000131
 11
-36.0000000000000213
 21
62.0000000000000071
 31
-0.0000000000000138
210
0.0
220
1.0
230
-0.0000000000000002
  0
LINE
  5
1288F
  8
0
  6
CONTINUOUS
 62
     3
 10
36.0000000000000213
 20
59.0
 30
-0.0000000000000131
 11
36.0000000000000213
 21
62.0
 31
-0.0000000000000138
210
0.0
220
1.0
230
-0.0000000000000002
  0
LINE
  5
12890
  8
0
  6
CONTINUOUS
 62
     3
 10
-36.5000000000000213
 20
62.0000000000000071
 30
-0.0000000000000138
 11
-36.5000000000000213
 21
74.0000000000000142
 31
-0.0000000000000164
210
0.0
220
1.0
230
-0.0000000000000002
  0
LINE
  5
12891
  8
0
  6
CONTINUOUS
 62
     3
 10
36.5000000000000213
 20
62.0
 30
-0.0000000000000138
 11
36.5000000000000213
 21
74.0000000000000142
 31
-0.0000000000000164
210
0.0
220
1.0
230
-0.0000000000000002
  0
LINE
  5
12892
  8
0
  6
CONTINUOUS
 62
     3
 10
-36.0000000000000213
 20
74.0000000000000142
 30
-0.0000000000000164
 11
-36.0000000000000213
 21
77.0000000000000142
 31
-0.0000000000000171
210
0.0
220
1.0
230
-0.0000000000000002
  0
LINE
  5
12893
  8
0
  6
CONTINUOUS
 62
     3
 10
36.0000000000000213
 20
74.0000000000000142
 30
-0.0000000000000164
 11
36.0000000000000213
 21
77.0000000000000142
 31
-0.0000000000000171
210
0.0
220
1.0
230
-0.0000000000000002
  0
LINE
  5
12894
  8
0
  6
VERDECKT
 62
     1
 10
-39.25
 20
148.0
 30
-0.0000000000000329
 11
-30.75
 21
148.0
 31
-0.0000000000000329
210
0.0
220
1.0
230
-0.0000000000000002
  0
LINE
  5
12895
  8
0
  6
VERDECKT
 62
     1
 10
30.75
 20
148.0
 30
-0.0000000000000329
 11
39.25
 21
148.0
 31
-0.0000000000000329
210
0.0
220
1.0
230
-0.0000000000000002
  0
POLYLINE
  8
0
  5
12909
  62
1
  66
     1
 10
0.000000
 20
0.000000
 30
0.000000
  70
     8
  0
VERTEX
  8
0
  5
1290A
 10
-29.5000
 20
150.000
 30
-3.33000e-14
  70
    32
  0
VERTEX
  8
0
  5
1290B
 10
-29.5038
 20
149.942
 30
-3.32873e-14
  70
    32
  0
VERTEX
  8
0
  5
1290C
 10
-29.5076
 20
149.884
 30
-3.32746e-14
  70
    32
  0
VERTEX
  8
0
  5
1290D
 10
-29.5114
 20
149.826
 30
-3.32619e-14
  70
    32
  0
VERTEX
  8
0
  5
1290E
 10
-29.5151
 20
149.768
 30
-3.32492e-14
  70
    32
  0
VERTEX
  8
0
  5
1290F
 10
-29.5189
 20
149.709
 30
-3.32365e-14
  70
    32
  0
VERTEX
  8
0
  5
12910
 10
-29.5227
 20
149.651
 30
-3.32237e-14
  70
    32
  0
VERTEX
  8
0
  5
12911
 10
-29.5265
 20
149.592
 30
-3.32109e-14
  70
    32
  0
VERTEX
  8
0
  5
12912
 10
-29.5303
 20
149.534
 30
-3.31981e-14
  70
    32
  0
VERTEX
  8
0
  5
12913
 10
-29.5342
 20
149.475
 30
-3.31853e-14
  70
    32
  0
VERTEX
  8
0
  5
12914
 10
-29.5380
 20
149.416
 30
-3.31724e-14
  70
    32
  0
VERTEX
  8
0
  5
12915
 10
-29.5418
 20
149.357
 30
-3.31595e-14
  70
    32
  0
VERTEX
  8
0
  5
12916
 10
-29.5456
 20
149.298
 30
-3.31466e-14
  70
    32
  0
VERTEX
  8
0
  5
12917
 10
-29.5494
 20
149.239
 30
-3.31337e-14
  70
    32
  0
VERTEX
  8
0
  5
12918
 10
-29.5532
 20
149.180
 30
-3.31208e-14
  70
    32
  0
VERTEX
  8
0
  5
12919
 10
-29.5571
 20
149.120
 30
-3.31078e-14
  70
    32
  0
VERTEX
  8
0
  5
1291A
 10
-29.5609
 20
149.061
 30
-3.30948e-14
  70
    32
  0
VERTEX
  8
0
  5
1291B
 10
-29.5647
 20
149.001
 30
-3.30818e-14
  70
    32
  0
VERTEX
  8
0
  5
1291C
 10
-29.5686
 20
148.941
 30
-3.30688e-14
  70
    32
  0
VERTEX
  8
0
  5
1291D
 10
-29.5724
 20
148.881
 30
-3.30558e-14
  70
    32
  0
VERTEX
  8
0
  5
1291E
 10
-29.5763
 20
148.821
 30
-3.30427e-14
  70
    32
  0
VERTEX
  8
0
  5
1291F
 10
-29.5801
 20
148.761
 30
-3.30296e-14
  70
    32
  0
VERTEX
  8
0
  5
12920
 10
-29.5840
 20
148.701
 30
-3.30165e-14
  70
    32
  0
VERTEX
  8
0
  5
12921
 10
-29.5878
 20
148.641
 30
-3.30034e-14
  70
    32
  0
VERTEX
  8
0
  5
12922
 10
-29.5917
 20
148.580
 30
-3.29902e-14
  70
    32
  0
VERTEX
  8
0
  5
12923
 10
-29.5955
 20
148.520
 30
-3.29771e-14
  70
    32
  0
VERTEX
  8
0
  5
12924
 10
-29.5994
 20
148.459
 30
-3.29639e-14
  70
    32
  0
VERTEX
  8
0
  5
12925
 10
-29.6033
 20
148.399
 30
-3.29507e-14
  70
    32
  0
VERTEX
  8
0
  5
12926
 10
-29.6071
 20
148.338
 30
-3.29374e-14
  70
    32
  0
VERTEX
  8
0
  5
12927
 10
-29.6110
 20
148.277
 30
-3.29242e-14
  70
    32
  0
VERTEX
  8
0
  5
12928
 10
-29.6149
 20
148.216
 30
-3.29109e-14
  70
    32
  0
VERTEX
  8
0
  5
12929
 10
-29.6188
 20
148.154
 30
-3.28976e-14
  70
    32
  0
VERTEX
  8
0
  5
1292A
 10
-29.6227
 20
148.093
 30
-3.28843e-14
  70
    32
  0
VERTEX
  8
0
  5
1292B
 10
-29.6266
 20
148.032
 30
-3.28709e-14
  70
    32
  0
VERTEX
  8
0
  5
1292C
 10
-29.6305
 20
147.970
 30
-3.28576e-14
  70
    32
  0
VERTEX
  8
0
  5
1292D
 10
-29.6344
 20
147.909
 30
-3.28442e-14
  70
    32
  0
VERTEX
  8
0
  5
1292E
 10
-29.6383
 20
147.847
 30
-3.28308e-14
  70
    32
  0
VERTEX
  8
0
  5
1292F
 10
-29.6422
 20
147.785
 30
-3.28174e-14
  70
    32
  0
VERTEX
  8
0
  5
12930
 10
-29.6461
 20
147.723
 30
-3.28039e-14
  70
    32
  0
VERTEX
  8
0
  5
12931
 10
-29.6500
 20
147.661
 30
-3.27904e-14
  70
    32
  0
VERTEX
  8
0
  5
12932
 10
-29.6539
 20
147.599
 30
-3.27769e-14
  70
    32
  0
VERTEX
  8
0
  5
12933
 10
-29.6578
 20
147.536
 30
-3.27634e-14
  70
    32
  0
VERTEX
  8
0
  5
12934
 10
-29.6617
 20
147.474
 30
-3.27499e-14
  70
    32
  0
VERTEX
  8
0
  5
12935
 10
-29.6657
 20
147.412
 30
-3.27363e-14
  70
    32
  0
VERTEX
  8
0
  5
12936
 10
-29.6696
 20
147.349
 30
-3.27227e-14
  70
    32
  0
VERTEX
  8
0
  5
12937
 10
-29.6735
 20
147.286
 30
-3.27091e-14
  70
    32
  0
VERTEX
  8
0
  5
12938
 10
-29.6775
 20
147.223
 30
-3.26955e-14
  70
    32
  0
VERTEX
  8
0
  5
12939
 10
-29.6814
 20
147.160
 30
-3.26819e-14
  70
    32
  0
VERTEX
  8
0
  5
1293A
 10
-29.6854
 20
147.097
 30
-3.26682e-14
  70
    32
  0
VERTEX
  8
0
  5
1293B
 10
-29.6893
 20
147.034
 30
-3.26545e-14
  70
    32
  0
VERTEX
  8
0
  5
1293C
 10
-29.6933
 20
146.971
 30
-3.26408e-14
  70
    32
  0
VERTEX
  8
0
  5
1293D
 10
-29.6972
 20
146.907
 30
-3.26270e-14
  70
    32
  0
VERTEX
  8
0
  5
1293E
 10
-29.7012
 20
146.844
 30
-3.26133e-14
  70
    32
  0
VERTEX
  8
0
  5
1293F
 10
-29.7051
 20
146.780
 30
-3.25995e-14
  70
    32
  0
VERTEX
  8
0
  5
12940
 10
-29.7091
 20
146.716
 30
-3.25857e-14
  70
    32
  0
VERTEX
  8
0
  5
12941
 10
-29.7131
 20
146.652
 30
-3.25719e-14
  70
    32
  0
VERTEX
  8
0
  5
12942
 10
-29.7170
 20
146.588
 30
-3.25580e-14
  70
    32
  0
VERTEX
  8
0
  5
12943
 10
-29.7210
 20
146.524
 30
-3.25441e-14
  70
    32
  0
VERTEX
  8
0
  5
12944
 10
-29.7250
 20
146.460
 30
-3.25302e-14
  70
    32
  0
VERTEX
  8
0
  5
12945
 10
-29.7290
 20
146.396
 30
-3.25163e-14
  70
    32
  0
VERTEX
  8
0
  5
12946
 10
-29.7330
 20
146.331
 30
-3.25024e-14
  70
    32
  0
VERTEX
  8
0
  5
12947
 10
-29.7370
 20
146.266
 30
-3.24884e-14
  70
    32
  0
VERTEX
  8
0
  5
12948
 10
-29.7410
 20
146.202
 30
-3.24744e-14
  70
    32
  0
VERTEX
  8
0
  5
12949
 10
-29.7450
 20
146.137
 30
-3.24604e-14
  70
    32
  0
VERTEX
  8
0
  5
1294A
 10
-29.7490
 20
146.072
 30
-3.24464e-14
  70
    32
  0
VERTEX
  8
0
  5
1294B
 10
-29.7530
 20
146.007
 30
-3.24324e-14
  70
    32
  0
VERTEX
  8
0
  5
1294C
 10
-29.7570
 20
145.942
 30
-3.24183e-14
  70
    32
  0
VERTEX
  8
0
  5
1294D
 10
-29.7610
 20
145.876
 30
-3.24042e-14
  70
    32
  0
VERTEX
  8
0
  5
1294E
 10
-29.7650
 20
145.811
 30
-3.23901e-14
  70
    32
  0
VERTEX
  8
0
  5
1294F
 10
-29.7691
 20
145.746
 30
-3.23759e-14
  70
    32
  0
VERTEX
  8
0
  5
12950
 10
-29.7731
 20
145.680
 30
-3.23617e-14
  70
    32
  0
VERTEX
  8
0
  5
12951
 10
-29.7771
 20
145.614
 30
-3.23476e-14
  70
    32
  0
VERTEX
  8
0
  5
12952
 10
-29.7812
 20
145.548
 30
-3.23333e-14
  70
    32
  0
VERTEX
  8
0
  5
12953
 10
-29.7852
 20
145.482
 30
-3.23191e-14
  70
    32
  0
VERTEX
  8
0
  5
12954
 10
-29.7892
 20
145.416
 30
-3.23048e-14
  70
    32
  0
VERTEX
  8
0
  5
12955
 10
-29.7933
 20
145.350
 30
-3.22906e-14
  70
    32
  0
VERTEX
  8
0
  5
12956
 10
-29.7973
 20
145.284
 30
-3.22763e-14
  70
    32
  0
VERTEX
  8
0
  5
12957
 10
-29.8014
 20
145.217
 30
-3.22619e-14
  70
    32
  0
VERTEX
  8
0
  5
12958
 10
-29.8055
 20
145.150
 30
-3.22476e-14
  70
    32
  0
VERTEX
  8
0
  5
12959
 10
-29.8095
 20
145.084
 30
-3.22332e-14
  70
    32
  0
VERTEX
  8
0
  5
1295A
 10
-29.8136
 20
145.017
 30
-3.22188e-14
  70
    32
  0
VERTEX
  8
0
  5
1295B
 10
-29.8177
 20
144.950
 30
-3.22044e-14
  70
    32
  0
VERTEX
  8
0
  5
1295C
 10
-29.8217
 20
144.883
 30
-3.21899e-14
  70
    32
  0
VERTEX
  8
0
  5
1295D
 10
-29.8258
 20
144.816
 30
-3.21755e-14
  70
    32
  0
VERTEX
  8
0
  5
1295E
 10
-29.8299
 20
144.748
 30
-3.21610e-14
  70
    32
  0
VERTEX
  8
0
  5
1295F
 10
-29.8340
 20
144.681
 30
-3.21465e-14
  70
    32
  0
VERTEX
  8
0
  5
12960
 10
-29.8381
 20
144.613
 30
-3.21319e-14
  70
    32
  0
VERTEX
  8
0
  5
12961
 10
-29.8422
 20
144.546
 30
-3.21174e-14
  70
    32
  0
VERTEX
  8
0
  5
12962
 10
-29.8463
 20
144.478
 30
-3.21028e-14
  70
    32
  0
VERTEX
  8
0
  5
12963
 10
-29.8504
 20
144.410
 30
-3.20882e-14
  70
    32
  0
VERTEX
  8
0
  5
12964
 10
-29.8545
 20
144.342
 30
-3.20735e-14
  70
    32
  0
VERTEX
  8
0
  5
12965
 10
-29.8586
 20
144.274
 30
-3.20589e-14
  70
    32
  0
VERTEX
  8
0
  5
12966
 10
-29.8627
 20
144.206
 30
-3.20442e-14
  70
    32
  0
VERTEX
  8
0
  5
12967
 10
-29.8669
 20
144.137
 30
-3.20295e-14
  70
    32
  0
VERTEX
  8
0
  5
12968
 10
-29.8710
 20
144.069
 30
-3.20148e-14
  70
    32
  0
VERTEX
  8
0
  5
12969
 10
-29.8751
 20
144.000
 30
-3.20000e-14
  70
    32
  0
SEQEND
  8
0
  5
1296A
  0
POLYLINE
  8
0
  5
1296B
  62
1
  66
     1
 10
0.000000
 20
0.000000
 30
0.000000
  70
     8
  0
VERTEX
  8
0
  5
1296C
 10
-25.1249
 20
144.000
 30
-3.20000e-14
  70
    32
  0
VERTEX
  8
0
  5
1296D
 10
-25.1290
 20
144.069
 30
-3.20148e-14
  70
    32
  0
VERTEX
  8
0
  5
1296E
 10
-25.1331
 20
144.137
 30
-3.20295e-14
  70
    32
  0
VERTEX
  8
0
  5
1296F
 10
-25.1373
 20
144.206
 30
-3.20442e-14
  70
    32
  0
VERTEX
  8
0
  5
12970
 10
-25.1414
 20
144.274
 30
-3.20589e-14
  70
    32
  0
VERTEX
  8
0
  5
12971
 10
-25.1455
 20
144.342
 30
-3.20735e-14
  70
    32
  0
VERTEX
  8
0
  5
12972
 10
-25.1496
 20
144.410
 30
-3.20882e-14
  70
    32
  0
VERTEX
  8
0
  5
12973
 10
-25.1537
 20
144.478
 30
-3.21028e-14
  70
    32
  0
VERTEX
  8
0
  5
12974
 10
-25.1578
 20
144.546
 30
-3.21174e-14
  70
    32
  0
VERTEX
  8
0
  5
12975
 10
-25.1619
 20
144.613
 30
-3.21319e-14
  70
    32
  0
VERTEX
  8
0
  5
12976
 10
-25.1660
 20
144.681
 30
-3.21465e-14
  70
    32
  0
VERTEX
  8
0
  5
12977
 10
-25.1701
 20
144.748
 30
-3.21610e-14
  70
    32
  0
VERTEX
  8
0
  5
12978
 10
-25.1742
 20
144.816
 30
-3.21755e-14
  70
    32
  0
VERTEX
  8
0
  5
12979
 10
-25.1783
 20
144.883
 30
-3.21899e-14
  70
    32
  0
VERTEX
  8
0
  5
1297A
 10
-25.1823
 20
144.950
 30
-3.22044e-14
  70
    32
  0
VERTEX
  8
0
  5
1297B
 10
-25.1864
 20
145.017
 30
-3.22188e-14
  70
    32
  0
VERTEX
  8
0
  5
1297C
 10
-25.1905
 20
145.084
 30
-3.22332e-14
  70
    32
  0
VERTEX
  8
0
  5
1297D
 10
-25.1945
 20
145.150
 30
-3.22476e-14
  70
    32
  0
VERTEX
  8
0
  5
1297E
 10
-25.1986
 20
145.217
 30
-3.22619e-14
  70
    32
  0
VERTEX
  8
0
  5
1297F
 10
-25.2027
 20
145.284
 30
-3.22763e-14
  70
    32
  0
VERTEX
  8
0
  5
12980
 10
-25.2067
 20
145.350
 30
-3.22906e-14
  70
    32
  0
VERTEX
  8
0
  5
12981
 10
-25.2108
 20
145.416
 30
-3.23048e-14
  70
    32
  0
VERTEX
  8
0
  5
12982
 10
-25.2148
 20
145.482
 30
-3.23191e-14
  70
    32
  0
VERTEX
  8
0
  5
12983
 10
-25.2188
 20
145.548
 30
-3.23333e-14
  70
    32
  0
VERTEX
  8
0
  5
12984
 10
-25.2229
 20
145.614
 30
-3.23476e-14
  70
    32
  0
VERTEX
  8
0
  5
12985
 10
-25.2269
 20
145.680
 30
-3.23617e-14
  70
    32
  0
VERTEX
  8
0
  5
12986
 10
-25.2309
 20
145.746
 30
-3.23759e-14
  70
    32
  0
VERTEX
  8
0
  5
12987
 10
-25.2350
 20
145.811
 30
-3.23901e-14
  70
    32
  0
VERTEX
  8
0
  5
12988
 10
-25.2390
 20
145.876
 30
-3.24042e-14
  70
    32
  0
VERTEX
  8
0
  5
12989
 10
-25.2430
 20
145.942
 30
-3.24183e-14
  70
    32
  0
VERTEX
  8
0
  5
1298A
 10
-25.2470
 20
146.007
 30
-3.24324e-14
  70
    32
  0
VERTEX
  8
0
  5
1298B
 10
-25.2510
 20
146.072
 30
-3.24464e-14
  70
    32
  0
VERTEX
  8
0
  5
1298C
 10
-25.2550
 20
146.137
 30
-3.24604e-14
  70
    32
  0
VERTEX
  8
0
  5
1298D
 10
-25.2590
 20
146.202
 30
-3.24744e-14
  70
    32
  0
VERTEX
  8
0
  5
1298E
 10
-25.2630
 20
146.266
 30
-3.24884e-14
  70
    32
  0
VERTEX
  8
0
  5
1298F
 10
-25.2670
 20
146.331
 30
-3.25024e-14
  70
    32
  0
VERTEX
  8
0
  5
12990
 10
-25.2710
 20
146.396
 30
-3.25163e-14
  70
    32
  0
VERTEX
  8
0
  5
12991
 10
-25.2750
 20
146.460
 30
-3.25302e-14
  70
    32
  0
VERTEX
  8
0
  5
12992
 10
-25.2790
 20
146.524
 30
-3.25441e-14
  70
    32
  0
VERTEX
  8
0
  5
12993
 10
-25.2830
 20
146.588
 30
-3.25580e-14
  70
    32
  0
VERTEX
  8
0
  5
12994
 10
-25.2869
 20
146.652
 30
-3.25719e-14
  70
    32
  0
VERTEX
  8
0
  5
12995
 10
-25.2909
 20
146.716
 30
-3.25857e-14
  70
    32
  0
VERTEX
  8
0
  5
12996
 10
-25.2949
 20
146.780
 30
-3.25995e-14
  70
    32
  0
VERTEX
  8
0
  5
12997
 10
-25.2988
 20
146.844
 30
-3.26133e-14
  70
    32
  0
VERTEX
  8
0
  5
12998
 10
-25.3028
 20
146.907
 30
-3.26270e-14
  70
    32
  0
VERTEX
  8
0
  5
12999
 10
-25.3067
 20
146.971
 30
-3.26408e-14
  70
    32
  0
VERTEX
  8
0
  5
1299A
 10
-25.3107
 20
147.034
 30
-3.26545e-14
  70
    32
  0
VERTEX
  8
0
  5
1299B
 10
-25.3146
 20
147.097
 30
-3.26682e-14
  70
    32
  0
VERTEX
  8
0
  5
1299C
 10
-25.3186
 20
147.160
 30
-3.26819e-14
  70
    32
  0
VERTEX
  8
0
  5
1299D
 10
-25.3225
 20
147.223
 30
-3.26955e-14
  70
    32
  0
VERTEX
  8
0
  5
1299E
 10
-25.3265
 20
147.286
 30
-3.27091e-14
  70
    32
  0
VERTEX
  8
0
  5
1299F
 10
-25.3304
 20
147.349
 30
-3.27227e-14
  70
    32
  0
VERTEX
  8
0
  5
129A0
 10
-25.3343
 20
147.412
 30
-3.27363e-14
  70
    32
  0
VERTEX
  8
0
  5
129A1
 10
-25.3383
 20
147.474
 30
-3.27499e-14
  70
    32
  0
VERTEX
  8
0
  5
129A2
 10
-25.3422
 20
147.536
 30
-3.27634e-14
  70
    32
  0
VERTEX
  8
0
  5
129A3
 10
-25.3461
 20
147.599
 30
-3.27769e-14
  70
    32
  0
VERTEX
  8
0
  5
129A4
 10
-25.3500
 20
147.661
 30
-3.27904e-14
  70
    32
  0
VERTEX
  8
0
  5
129A5
 10
-25.3539
 20
147.723
 30
-3.28039e-14
  70
    32
  0
VERTEX
  8
0
  5
129A6
 10
-25.3578
 20
147.785
 30
-3.28174e-14
  70
    32
  0
VERTEX
  8
0
  5
129A7
 10
-25.3617
 20
147.847
 30
-3.28308e-14
  70
    32
  0
VERTEX
  8
0
  5
129A8
 10
-25.3656
 20
147.909
 30
-3.28442e-14
  70
    32
  0
VERTEX
  8
0
  5
129A9
 10
-25.3695
 20
147.970
 30
-3.28576e-14
  70
    32
  0
VERTEX
  8
0
  5
129AA
 10
-25.3734
 20
148.032
 30
-3.28709e-14
  70
    32
  0
VERTEX
  8
0
  5
129AB
 10
-25.3773
 20
148.093
 30
-3.28843e-14
  70
    32
  0
VERTEX
  8
0
  5
129AC
 10
-25.3812
 20
148.154
 30
-3.28976e-14
  70
    32
  0
VERTEX
  8
0
  5
129AD
 10
-25.3851
 20
148.216
 30
-3.29109e-14
  70
    32
  0
VERTEX
  8
0
  5
129AE
 10
-25.3890
 20
148.277
 30
-3.29242e-14
  70
    32
  0
VERTEX
  8
0
  5
129AF
 10
-25.3929
 20
148.338
 30
-3.29374e-14
  70
    32
  0
VERTEX
  8
0
  5
129B0
 10
-25.3967
 20
148.399
 30
-3.29507e-14
  70
    32
  0
VERTEX
  8
0
  5
129B1
 10
-25.4006
 20
148.459
 30
-3.29639e-14
  70
    32
  0
VERTEX
  8
0
  5
129B2
 10
-25.4045
 20
148.520
 30
-3.29771e-14
  70
    32
  0
VERTEX
  8
0
  5
129B3
 10
-25.4083
 20
148.580
 30
-3.29902e-14
  70
    32
  0
VERTEX
  8
0
  5
129B4
 10
-25.4122
 20
148.641
 30
-3.30034e-14
  70
    32
  0
VERTEX
  8
0
  5
129B5
 10
-25.4160
 20
148.701
 30
-3.30165e-14
  70
    32
  0
VERTEX
  8
0
  5
129B6
 10
-25.4199
 20
148.761
 30
-3.30296e-14
  70
    32
  0
VERTEX
  8
0
  5
129B7
 10
-25.4237
 20
148.821
 30
-3.30427e-14
  70
    32
  0
VERTEX
  8
0
  5
129B8
 10
-25.4276
 20
148.881
 30
-3.30558e-14
  70
    32
  0
VERTEX
  8
0
  5
129B9
 10
-25.4314
 20
148.941
 30
-3.30688e-14
  70
    32
  0
VERTEX
  8
0
  5
129BA
 10
-25.4353
 20
149.001
 30
-3.30818e-14
  70
    32
  0
VERTEX
  8
0
  5
129BB
 10
-25.4391
 20
149.061
 30
-3.30948e-14
  70
    32
  0
VERTEX
  8
0
  5
129BC
 10
-25.4429
 20
149.120
 30
-3.31078e-14
  70
    32
  0
VERTEX
  8
0
  5
129BD
 10
-25.4468
 20
149.180
 30
-3.31208e-14
  70
    32
  0
VERTEX
  8
0
  5
129BE
 10
-25.4506
 20
149.239
 30
-3.31337e-14
  70
    32
  0
VERTEX
  8
0
  5
129BF
 10
-25.4544
 20
149.298
 30
-3.31466e-14
  70
    32
  0
VERTEX
  8
0
  5
129C0
 10
-25.4582
 20
149.357
 30
-3.31595e-14
  70
    32
  0
VERTEX
  8
0
  5
129C1
 10
-25.4620
 20
149.416
 30
-3.31724e-14
  70
    32
  0
VERTEX
  8
0
  5
129C2
 10
-25.4658
 20
149.475
 30
-3.31853e-14
  70
    32
  0
VERTEX
  8
0
  5
129C3
 10
-25.4697
 20
149.534
 30
-3.31981e-14
  70
    32
  0
VERTEX
  8
0
  5
129C4
 10
-25.4735
 20
149.592
 30
-3.32109e-14
  70
    32
  0
VERTEX
  8
0
  5
129C5
 10
-25.4773
 20
149.651
 30
-3.32237e-14
  70
    32
  0
VERTEX
  8
0
  5
129C6
 10
-25.4811
 20
149.709
 30
-3.32365e-14
  70
    32
  0
VERTEX
  8
0
  5
129C7
 10
-25.4849
 20
149.768
 30
-3.32492e-14
  70
    32
  0
VERTEX
  8
0
  5
129C8
 10
-25.4886
 20
149.826
 30
-3.32619e-14
  70
    32
  0
VERTEX
  8
0
  5
129C9
 10
-25.4924
 20
149.884
 30
-3.32746e-14
  70
    32
  0
VERTEX
  8
0
  5
129CA
 10
-25.4962
 20
149.942
 30
-3.32873e-14
  70
    32
  0
VERTEX
  8
0
  5
129CB
 10
-25.5000
 20
150.000
 30
-3.33000e-14
  70
    32
  0
SEQEND
  8
0
  5
129CC
  0
LINE
  5
12898
  8
0
  6
VERDECKT
 62
     1
 10
-29.8751170047200709
 20
144.0
 30
-0.000000000000032
 11
-25.1248829952799291
 21
144.0
 31
-0.000000000000032
210
0.0
220
1.0
230
-0.0000000000000002
  0
POLYLINE
  8
0
  5
129CD
  62
1
  66
     1
 10
0.000000
 20
0.000000
 30
0.000000
  70
     8
  0
VERTEX
  8
0
  5
129CE
 10
25.5000
 20
150.000
 30
-3.33000e-14
  70
    32
  0
VERTEX
  8
0
  5
129CF
 10
25.4962
 20
149.942
 30
-3.32873e-14
  70
    32
  0
VERTEX
  8
0
  5
129D0
 10
25.4924
 20
149.884
 30
-3.32746e-14
  70
    32
  0
VERTEX
  8
0
  5
129D1
 10
25.4886
 20
149.826
 30
-3.32619e-14
  70
    32
  0
VERTEX
  8
0
  5
129D2
 10
25.4849
 20
149.768
 30
-3.32492e-14
  70
    32
  0
VERTEX
  8
0
  5
129D3
 10
25.4811
 20
149.709
 30
-3.32365e-14
  70
    32
  0
VERTEX
  8
0
  5
129D4
 10
25.4773
 20
149.651
 30
-3.32237e-14
  70
    32
  0
VERTEX
  8
0
  5
129D5
 10
25.4735
 20
149.592
 30
-3.32109e-14
  70
    32
  0
VERTEX
  8
0
  5
129D6
 10
25.4697
 20
149.534
 30
-3.31981e-14
  70
    32
  0
VERTEX
  8
0
  5
129D7
 10
25.4658
 20
149.475
 30
-3.31853e-14
  70
    32
  0
VERTEX
  8
0
  5
129D8
 10
25.4620
 20
149.416
 30
-3.31724e-14
  70
    32
  0
VERTEX
  8
0
  5
129D9
 10
25.4582
 20
149.357
 30
-3.31595e-14
  70
    32
  0
VERTEX
  8
0
  5
129DA
 10
25.4544
 20
149.298
 30
-3.31466e-14
  70
    32
  0
VERTEX
  8
0
  5
129DB
 10
25.4506
 20
149.239
 30
-3.31337e-14
  70
    32
  0
VERTEX
  8
0
  5
129DC
 10
25.4468
 20
149.180
 30
-3.31208e-14
  70
    32
  0
VERTEX
  8
0
  5
129DD
 10
25.4429
 20
149.120
 30
-3.31078e-14
  70
    32
  0
VERTEX
  8
0
  5
129DE
 10
25.4391
 20
149.061
 30
-3.30948e-14
  70
    32
  0
VERTEX
  8
0
  5
129DF
 10
25.4353
 20
149.001
 30
-3.30818e-14
  70
    32
  0
VERTEX
  8
0
  5
129E0
 10
25.4314
 20
148.941
 30
-3.30688e-14
  70
    32
  0
VERTEX
  8
0
  5
129E1
 10
25.4276
 20
148.881
 30
-3.30558e-14
  70
    32
  0
VERTEX
  8
0
  5
129E2
 10
25.4237
 20
148.821
 30
-3.30427e-14
  70
    32
  0
VERTEX
  8
0
  5
129E3
 10
25.4199
 20
148.761
 30
-3.30296e-14
  70
    32
  0
VERTEX
  8
0
  5
129E4
 10
25.4160
 20
148.701
 30
-3.30165e-14
  70
    32
  0
VERTEX
  8
0
  5
129E5
 10
25.4122
 20
148.641
 30
-3.30034e-14
  70
    32
  0
VERTEX
  8
0
  5
129E6
 10
25.4083
 20
148.580
 30
-3.29902e-14
  70
    32
  0
VERTEX
  8
0
  5
129E7
 10
25.4045
 20
148.520
 30
-3.29771e-14
  70
    32
  0
VERTEX
  8
0
  5
129E8
 10
25.4006
 20
148.459
 30
-3.29639e-14
  70
    32
  0
VERTEX
  8
0
  5
129E9
 10
25.3967
 20
148.399
 30
-3.29507e-14
  70
    32
  0
VERTEX
  8
0
  5
129EA
 10
25.3929
 20
148.338
 30
-3.29374e-14
  70
    32
  0
VERTEX
  8
0
  5
129EB
 10
25.3890
 20
148.277
 30
-3.29242e-14
  70
    32
  0
VERTEX
  8
0
  5
129EC
 10
25.3851
 20
148.216
 30
-3.29109e-14
  70
    32
  0
VERTEX
  8
0
  5
129ED
 10
25.3812
 20
148.154
 30
-3.28976e-14
  70
    32
  0
VERTEX
  8
0
  5
129EE
 10
25.3773
 20
148.093
 30
-3.28843e-14
  70
    32
  0
VERTEX
  8
0
  5
129EF
 10
25.3734
 20
148.032
 30
-3.28709e-14
  70
    32
  0
VERTEX
  8
0
  5
129F0
 10
25.3695
 20
147.970
 30
-3.28576e-14
  70
    32
  0
VERTEX
  8
0
  5
129F1
 10
25.3656
 20
147.909
 30
-3.28442e-14
  70
    32
  0
VERTEX
  8
0
  5
129F2
 10
25.3617
 20
147.847
 30
-3.28308e-14
  70
    32
  0
VERTEX
  8
0
  5
129F3
 10
25.3578
 20
147.785
 30
-3.28174e-14
  70
    32
  0
VERTEX
  8
0
  5
129F4
 10
25.3539
 20
147.723
 30
-3.28039e-14
  70
    32
  0
VERTEX
  8
0
  5
129F5
 10
25.3500
 20
147.661
 30
-3.27904e-14
  70
    32
  0
VERTEX
  8
0
  5
129F6
 10
25.3461
 20
147.599
 30
-3.27769e-14
  70
    32
  0
VERTEX
  8
0
  5
129F7
 10
25.3422
 20
147.536
 30
-3.27634e-14
  70
    32
  0
VERTEX
  8
0
  5
129F8
 10
25.3383
 20
147.474
 30
-3.27499e-14
  70
    32
  0
VERTEX
  8
0
  5
129F9
 10
25.3343
 20
147.412
 30
-3.27363e-14
  70
    32
  0
VERTEX
  8
0
  5
129FA
 10
25.3304
 20
147.349
 30
-3.27227e-14
  70
    32
  0
VERTEX
  8
0
  5
129FB
 10
25.3265
 20
147.286
 30
-3.27091e-14
  70
    32
  0
VERTEX
  8
0
  5
129FC
 10
25.3225
 20
147.223
 30
-3.26955e-14
  70
    32
  0
VERTEX
  8
0
  5
129FD
 10
25.3186
 20
147.160
 30
-3.26819e-14
  70
    32
  0
VERTEX
  8
0
  5
129FE
 10
25.3146
 20
147.097
 30
-3.26682e-14
  70
    32
  0
VERTEX
  8
0
  5
129FF
 10
25.3107
 20
147.034
 30
-3.26545e-14
  70
    32
  0
VERTEX
  8
0
  5
12A00
 10
25.3067
 20
146.971
 30
-3.26408e-14
  70
    32
  0
VERTEX
  8
0
  5
12A01
 10
25.3028
 20
146.907
 30
-3.26270e-14
  70
    32
  0
VERTEX
  8
0
  5
12A02
 10
25.2988
 20
146.844
 30
-3.26133e-14
  70
    32
  0
VERTEX
  8
0
  5
12A03
 10
25.2949
 20
146.780
 30
-3.25995e-14
  70
    32
  0
VERTEX
  8
0
  5
12A04
 10
25.2909
 20
146.716
 30
-3.25857e-14
  70
    32
  0
VERTEX
  8
0
  5
12A05
 10
25.2869
 20
146.652
 30
-3.25719e-14
  70
    32
  0
VERTEX
  8
0
  5
12A06
 10
25.2830
 20
146.588
 30
-3.25580e-14
  70
    32
  0
VERTEX
  8
0
  5
12A07
 10
25.2790
 20
146.524
 30
-3.25441e-14
  70
    32
  0
VERTEX
  8
0
  5
12A08
 10
25.2750
 20
146.460
 30
-3.25302e-14
  70
    32
  0
VERTEX
  8
0
  5
12A09
 10
25.2710
 20
146.396
 30
-3.25163e-14
  70
    32
  0
VERTEX
  8
0
  5
12A0A
 10
25.2670
 20
146.331
 30
-3.25024e-14
  70
    32
  0
VERTEX
  8
0
  5
12A0B
 10
25.2630
 20
146.266
 30
-3.24884e-14
  70
    32
  0
VERTEX
  8
0
  5
12A0C
 10
25.2590
 20
146.202
 30
-3.24744e-14
  70
    32
  0
VERTEX
  8
0
  5
12A0D
 10
25.2550
 20
146.137
 30
-3.24604e-14
  70
    32
  0
VERTEX
  8
0
  5
12A0E
 10
25.2510
 20
146.072
 30
-3.24464e-14
  70
    32
  0
VERTEX
  8
0
  5
12A0F
 10
25.2470
 20
146.007
 30
-3.24324e-14
  70
    32
  0
VERTEX
  8
0
  5
12A10
 10
25.2430
 20
145.942
 30
-3.24183e-14
  70
    32
  0
VERTEX
  8
0
  5
12A11
 10
25.2390
 20
145.876
 30
-3.24042e-14
  70
    32
  0
VERTEX
  8
0
  5
12A12
 10
25.2350
 20
145.811
 30
-3.23901e-14
  70
    32
  0
VERTEX
  8
0
  5
12A13
 10
25.2309
 20
145.746
 30
-3.23759e-14
  70
    32
  0
VERTEX
  8
0
  5
12A14
 10
25.2269
 20
145.680
 30
-3.23617e-14
  70
    32
  0
VERTEX
  8
0
  5
12A15
 10
25.2229
 20
145.614
 30
-3.23476e-14
  70
    32
  0
VERTEX
  8
0
  5
12A16
 10
25.2188
 20
145.548
 30
-3.23333e-14
  70
    32
  0
VERTEX
  8
0
  5
12A17
 10
25.2148
 20
145.482
 30
-3.23191e-14
  70
    32
  0
VERTEX
  8
0
  5
12A18
 10
25.2108
 20
145.416
 30
-3.23048e-14
  70
    32
  0
VERTEX
  8
0
  5
12A19
 10
25.2067
 20
145.350
 30
-3.22906e-14
  70
    32
  0
VERTEX
  8
0
  5
12A1A
 10
25.2027
 20
145.284
 30
-3.22763e-14
  70
    32
  0
VERTEX
  8
0
  5
12A1B
 10
25.1986
 20
145.217
 30
-3.22619e-14
  70
    32
  0
VERTEX
  8
0
  5
12A1C
 10
25.1945
 20
145.150
 30
-3.22476e-14
  70
    32
  0
VERTEX
  8
0
  5
12A1D
 10
25.1905
 20
145.084
 30
-3.22332e-14
  70
    32
  0
VERTEX
  8
0
  5
12A1E
 10
25.1864
 20
145.017
 30
-3.22188e-14
  70
    32
  0
VERTEX
  8
0
  5
12A1F
 10
25.1823
 20
144.950
 30
-3.22044e-14
  70
    32
  0
VERTEX
  8
0
  5
12A20
 10
25.1783
 20
144.883
 30
-3.21899e-14
  70
    32
  0
VERTEX
  8
0
  5
12A21
 10
25.1742
 20
144.816
 30
-3.21755e-14
  70
    32
  0
VERTEX
  8
0
  5
12A22
 10
25.1701
 20
144.748
 30
-3.21610e-14
  70
    32
  0
VERTEX
  8
0
  5
12A23
 10
25.1660
 20
144.681
 30
-3.21465e-14
  70
    32
  0
VERTEX
  8
0
  5
12A24
 10
25.1619
 20
144.613
 30
-3.21319e-14
  70
    32
  0
VERTEX
  8
0
  5
12A25
 10
25.1578
 20
144.546
 30
-3.21174e-14
  70
    32
  0
VERTEX
  8
0
  5
12A26
 10
25.1537
 20
144.478
 30
-3.21028e-14
  70
    32
  0
VERTEX
  8
0
  5
12A27
 10
25.1496
 20
144.410
 30
-3.20882e-14
  70
    32
  0
VERTEX
  8
0
  5
12A28
 10
25.1455
 20
144.342
 30
-3.20735e-14
  70
    32
  0
VERTEX
  8
0
  5
12A29
 10
25.1414
 20
144.274
 30
-3.20589e-14
  70
    32
  0
VERTEX
  8
0
  5
12A2A
 10
25.1373
 20
144.206
 30
-3.20442e-14
  70
    32
  0
VERTEX
  8
0
  5
12A2B
 10
25.1331
 20
144.137
 30
-3.20295e-14
  70
    32
  0
VERTEX
  8
0
  5
12A2C
 10
25.1290
 20
144.069
 30
-3.20148e-14
  70
    32
  0
VERTEX
  8
0
  5
12A2D
 10
25.1249
 20
144.000
 30
-3.20000e-14
  70
    32
  0
SEQEND
  8
0
  5
12A2E
  0
POLYLINE
  8
0
  5
12A2F
  62
1
  66
     1
 10
0.000000
 20
0.000000
 30
0.000000
  70
     8
  0
VERTEX
  8
0
  5
12A30
 10
29.8751
 20
144.000
 30
-3.20000e-14
  70
    32
  0
VERTEX
  8
0
  5
12A31
 10
29.8710
 20
144.069
 30
-3.20148e-14
  70
    32
  0
VERTEX
  8
0
  5
12A32
 10
29.8669
 20
144.137
 30
-3.20295e-14
  70
    32
  0
VERTEX
  8
0
  5
12A33
 10
29.8627
 20
144.206
 30
-3.20442e-14
  70
    32
  0
VERTEX
  8
0
  5
12A34
 10
29.8586
 20
144.274
 30
-3.20589e-14
  70
    32
  0
VERTEX
  8
0
  5
12A35
 10
29.8545
 20
144.342
 30
-3.20735e-14
  70
    32
  0
VERTEX
  8
0
  5
12A36
 10
29.8504
 20
144.410
 30
-3.20882e-14
  70
    32
  0
VERTEX
  8
0
  5
12A37
 10
29.8463
 20
144.478
 30
-3.21028e-14
  70
    32
  0
VERTEX
  8
0
  5
12A38
 10
29.8422
 20
144.546
 30
-3.21174e-14
  70
    32
  0
VERTEX
  8
0
  5
12A39
 10
29.8381
 20
144.613
 30
-3.21319e-14
  70
    32
  0
VERTEX
  8
0
  5
12A3A
 10
29.8340
 20
144.681
 30
-3.21465e-14
  70
    32
  0
VERTEX
  8
0
  5
12A3B
 10
29.8299
 20
144.748
 30
-3.21610e-14
  70
    32
  0
VERTEX
  8
0
  5
12A3C
 10
29.8258
 20
144.816
 30
-3.21755e-14
  70
    32
  0
VERTEX
  8
0
  5
12A3D
 10
29.8217
 20
144.883
 30
-3.21899e-14
  70
    32
  0
VERTEX
  8
0
  5
12A3E
 10
29.8177
 20
144.950
 30
-3.22044e-14
  70
    32
  0
VERTEX
  8
0
  5
12A3F
 10
29.8136
 20
145.017
 30
-3.22188e-14
  70
    32
  0
VERTEX
  8
0
  5
12A40
 10
29.8095
 20
145.084
 30
-3.22332e-14
  70
    32
  0
VERTEX
  8
0
  5
12A41
 10
29.8055
 20
145.150
 30
-3.22476e-14
  70
    32
  0
VERTEX
  8
0
  5
12A42
 10
29.8014
 20
145.217
 30
-3.22619e-14
  70
    32
  0
VERTEX
  8
0
  5
12A43
 10
29.7973
 20
145.284
 30
-3.22763e-14
  70
    32
  0
VERTEX
  8
0
  5
12A44
 10
29.7933
 20
145.350
 30
-3.22906e-14
  70
    32
  0
VERTEX
  8
0
  5
12A45
 10
29.7892
 20
145.416
 30
-3.23048e-14
  70
    32
  0
VERTEX
  8
0
  5
12A46
 10
29.7852
 20
145.482
 30
-3.23191e-14
  70
    32
  0
VERTEX
  8
0
  5
12A47
 10
29.7812
 20
145.548
 30
-3.23333e-14
  70
    32
  0
VERTEX
  8
0
  5
12A48
 10
29.7771
 20
145.614
 30
-3.23476e-14
  70
    32
  0
VERTEX
  8
0
  5
12A49
 10
29.7731
 20
145.680
 30
-3.23617e-14
  70
    32
  0
VERTEX
  8
0
  5
12A4A
 10
29.7691
 20
145.746
 30
-3.23759e-14
  70
    32
  0
VERTEX
  8
0
  5
12A4B
 10
29.7650
 20
145.811
 30
-3.23901e-14
  70
    32
  0
VERTEX
  8
0
  5
12A4C
 10
29.7610
 20
145.876
 30
-3.24042e-14
  70
    32
  0
VERTEX
  8
0
  5
12A4D
 10
29.7570
 20
145.942
 30
-3.24183e-14
  70
    32
  0
VERTEX
  8
0
  5
12A4E
 10
29.7530
 20
146.007
 30
-3.24324e-14
  70
    32
  0
VERTEX
  8
0
  5
12A4F
 10
29.7490
 20
146.072
 30
-3.24464e-14
  70
    32
  0
VERTEX
  8
0
  5
12A50
 10
29.7450
 20
146.137
 30
-3.24604e-14
  70
    32
  0
VERTEX
  8
0
  5
12A51
 10
29.7410
 20
146.202
 30
-3.24744e-14
  70
    32
  0
VERTEX
  8
0
  5
12A52
 10
29.7370
 20
146.266
 30
-3.24884e-14
  70
    32
  0
VERTEX
  8
0
  5
12A53
 10
29.7330
 20
146.331
 30
-3.25024e-14
  70
    32
  0
VERTEX
  8
0
  5
12A54
 10
29.7290
 20
146.396
 30
-3.25163e-14
  70
    32
  0
VERTEX
  8
0
  5
12A55
 10
29.7250
 20
146.460
 30
-3.25302e-14
  70
    32
  0
VERTEX
  8
0
  5
12A56
 10
29.7210
 20
146.524
 30
-3.25441e-14
  70
    32
  0
VERTEX
  8
0
  5
12A57
 10
29.7170
 20
146.588
 30
-3.25580e-14
  70
    32
  0
VERTEX
  8
0
  5
12A58
 10
29.7131
 20
146.652
 30
-3.25719e-14
  70
    32
  0
VERTEX
  8
0
  5
12A59
 10
29.7091
 20
146.716
 30
-3.25857e-14
  70
    32
  0
VERTEX
  8
0
  5
12A5A
 10
29.7051
 20
146.780
 30
-3.25995e-14
  70
    32
  0
VERTEX
  8
0
  5
12A5B
 10
29.7012
 20
146.844
 30
-3.26133e-14
  70
    32
  0
VERTEX
  8
0
  5
12A5C
 10
29.6972
 20
146.907
 30
-3.26270e-14
  70
    32
  0
VERTEX
  8
0
  5
12A5D
 10
29.6933
 20
146.971
 30
-3.26408e-14
  70
    32
  0
VERTEX
  8
0
  5
12A5E
 10
29.6893
 20
147.034
 30
-3.26545e-14
  70
    32
  0
VERTEX
  8
0
  5
12A5F
 10
29.6854
 20
147.097
 30
-3.26682e-14
  70
    32
  0
VERTEX
  8
0
  5
12A60
 10
29.6814
 20
147.160
 30
-3.26819e-14
  70
    32
  0
VERTEX
  8
0
  5
12A61
 10
29.6775
 20
147.223
 30
-3.26955e-14
  70
    32
  0
VERTEX
  8
0
  5
12A62
 10
29.6735
 20
147.286
 30
-3.27091e-14
  70
    32
  0
VERTEX
  8
0
  5
12A63
 10
29.6696
 20
147.349
 30
-3.27227e-14
  70
    32
  0
VERTEX
  8
0
  5
12A64
 10
29.6657
 20
147.412
 30
-3.27363e-14
  70
    32
  0
VERTEX
  8
0
  5
12A65
 10
29.6617
 20
147.474
 30
-3.27499e-14
  70
    32
  0
VERTEX
  8
0
  5
12A66
 10
29.6578
 20
147.536
 30
-3.27634e-14
  70
    32
  0
VERTEX
  8
0
  5
12A67
 10
29.6539
 20
147.599
 30
-3.27769e-14
  70
    32
  0
VERTEX
  8
0
  5
12A68
 10
29.6500
 20
147.661
 30
-3.27904e-14
  70
    32
  0
VERTEX
  8
0
  5
12A69
 10
29.6461
 20
147.723
 30
-3.28039e-14
  70
    32
  0
VERTEX
  8
0
  5
12A6A
 10
29.6422
 20
147.785
 30
-3.28174e-14
  70
    32
  0
VERTEX
  8
0
  5
12A6B
 10
29.6383
 20
147.847
 30
-3.28308e-14
  70
    32
  0
VERTEX
  8
0
  5
12A6C
 10
29.6344
 20
147.909
 30
-3.28442e-14
  70
    32
  0
VERTEX
  8
0
  5
12A6D
 10
29.6305
 20
147.970
 30
-3.28576e-14
  70
    32
  0
VERTEX
  8
0
  5
12A6E
 10
29.6266
 20
148.032
 30
-3.28709e-14
  70
    32
  0
VERTEX
  8
0
  5
12A6F
 10
29.6227
 20
148.093
 30
-3.28843e-14
  70
    32
  0
VERTEX
  8
0
  5
12A70
 10
29.6188
 20
148.154
 30
-3.28976e-14
  70
    32
  0
VERTEX
  8
0
  5
12A71
 10
29.6149
 20
148.216
 30
-3.29109e-14
  70
    32
  0
VERTEX
  8
0
  5
12A72
 10
29.6110
 20
148.277
 30
-3.29242e-14
  70
    32
  0
VERTEX
  8
0
  5
12A73
 10
29.6071
 20
148.338
 30
-3.29374e-14
  70
    32
  0
VERTEX
  8
0
  5
12A74
 10
29.6033
 20
148.399
 30
-3.29507e-14
  70
    32
  0
VERTEX
  8
0
  5
12A75
 10
29.5994
 20
148.459
 30
-3.29639e-14
  70
    32
  0
VERTEX
  8
0
  5
12A76
 10
29.5955
 20
148.520
 30
-3.29771e-14
  70
    32
  0
VERTEX
  8
0
  5
12A77
 10
29.5917
 20
148.580
 30
-3.29902e-14
  70
    32
  0
VERTEX
  8
0
  5
12A78
 10
29.5878
 20
148.641
 30
-3.30034e-14
  70
    32
  0
VERTEX
  8
0
  5
12A79
 10
29.5840
 20
148.701
 30
-3.30165e-14
  70
    32
  0
VERTEX
  8
0
  5
12A7A
 10
29.5801
 20
148.761
 30
-3.30296e-14
  70
    32
  0
VERTEX
  8
0
  5
12A7B
 10
29.5763
 20
148.821
 30
-3.30427e-14
  70
    32
  0
VERTEX
  8
0
  5
12A7C
 10
29.5724
 20
148.881
 30
-3.30558e-14
  70
    32
  0
VERTEX
  8
0
  5
12A7D
 10
29.5686
 20
148.941
 30
-3.30688e-14
  70
    32
  0
VERTEX
  8
0
  5
12A7E
 10
29.5647
 20
149.001
 30
-3.30818e-14
  70
    32
  0
VERTEX
  8
0
  5
12A7F
 10
29.5609
 20
149.061
 30
-3.30948e-14
  70
    32
  0
VERTEX
  8
0
  5
12A80
 10
29.5571
 20
149.120
 30
-3.31078e-14
  70
    32
  0
VERTEX
  8
0
  5
12A81
 10
29.5532
 20
149.180
 30
-3.31208e-14
  70
    32
  0
VERTEX
  8
0
  5
12A82
 10
29.5494
 20
149.239
 30
-3.31337e-14
  70
    32
  0
VERTEX
  8
0
  5
12A83
 10
29.5456
 20
149.298
 30
-3.31466e-14
  70
    32
  0
VERTEX
  8
0
  5
12A84
 10
29.5418
 20
149.357
 30
-3.31595e-14
  70
    32
  0
VERTEX
  8
0
  5
12A85
 10
29.5380
 20
149.416
 30
-3.31724e-14
  70
    32
  0
VERTEX
  8
0
  5
12A86
 10
29.5342
 20
149.475
 30
-3.31853e-14
  70
    32
  0
VERTEX
  8
0
  5
12A87
 10
29.5303
 20
149.534
 30
-3.31981e-14
  70
    32
  0
VERTEX
  8
0
  5
12A88
 10
29.5265
 20
149.592
 30
-3.32109e-14
  70
    32
  0
VERTEX
  8
0
  5
12A89
 10
29.5227
 20
149.651
 30
-3.32237e-14
  70
    32
  0
VERTEX
  8
0
  5
12A8A
 10
29.5189
 20
149.709
 30
-3.32365e-14
  70
    32
  0
VERTEX
  8
0
  5
12A8B
 10
29.5151
 20
149.768
 30
-3.32492e-14
  70
    32
  0
VERTEX
  8
0
  5
12A8C
 10
29.5114
 20
149.826
 30
-3.32619e-14
  70
    32
  0
VERTEX
  8
0
  5
12A8D
 10
29.5076
 20
149.884
 30
-3.32746e-14
  70
    32
  0
VERTEX
  8
0
  5
12A8E
 10
29.5038
 20
149.942
 30
-3.32873e-14
  70
    32
  0
VERTEX
  8
0
  5
12A8F
 10
29.5000
 20
150.000
 30
-3.33000e-14
  70
    32
  0
SEQEND
  8
0
  5
12A90
  0
LINE
  5
1289B
  8
0
  6
VERDECKT
 62
     1
 10
25.1248829952799113
 20
144.0
 30
-0.000000000000032
 11
29.8751170047200496
 21
144.0
 31
-0.000000000000032
210
0.0
220
1.0
230
-0.0000000000000002
  0
LINE
  5
1289C
  8
0
  6
VERDECKT
 62
     1
 10
47.5
 20
144.0
 30
-0.000000000000032
 11
47.5
 21
150.0
 31
-0.0000000000000333
210
0.0
220
1.0
230
-0.0000000000000002
  0
LINE
  5
1289D
  8
0
  6
VERDECKT
 62
     1
 10
47.5
 20
144.0
 30
-0.000000000000032
 11
29.8751170047200496
 21
144.0
 31
-0.000000000000032
210
0.0
220
1.0
230
-0.0000000000000002
  0
LINE
  5
1289E
  8
0
  6
VERDECKT
 62
     1
 10
25.1248829952799184
 20
144.0
 30
-0.000000000000032
 11
-25.1248829952799184
 21
144.0
 31
-0.000000000000032
210
0.0
220
1.0
230
-0.0000000000000002
  0
LINE
  5
1289F
  8
0
  6
VERDECKT
 62
     1
 10
-47.5
 20
144.0
 30
-0.000000000000032
 11
-47.5
 21
150.0
 31
-0.0000000000000333
210
0.0
220
1.0
230
-0.0000000000000002
  0
LINE
  5
128A0
  8
0
  6
VERDECKT
 62
     1
 10
-29.8751170047200709
 20
144.0
 30
-0.000000000000032
 11
-47.5
 21
144.0
 31
-0.000000000000032
210
0.0
220
1.0
230
-0.0000000000000002
  0
LINE
  5
128A1
  8
0
  6
VERDECKT
 62
     1
 10
-36.75
 20
142.5
 30
-0.0000000000000316
 11
-33.25
 21
142.5
 31
-0.0000000000000316
210
0.0
220
1.0
230
-0.0000000000000002
  0
LINE
  5
128A2
  8
0
  6
VERDECKT
 62
     1
 10
33.25
 20
142.5
 30
-0.0000000000000316
 11
36.75
 21
142.5
 31
-0.0000000000000316
210
0.0
220
1.0
230
-0.0000000000000002
  0
LINE
  5
128A3
  8
0
  6
VERDECKT
 62
     1
 10
-46.7000000000000028
 20
150.0
 30
-0.0000000000000333
 11
-46.4296402749671486
 21
144.0
 31
-0.000000000000032
210
0.0
220
1.0
230
-0.0000000000000002
  0
LINE
  5
128A4
  8
0
  6
VERDECKT
 62
     1
 10
46.7000000000000028
 20
150.0
 30
-0.0000000000000333
 11
46.4296402749671486
 21
144.0
 31
-0.000000000000032
210
0.0
220
1.0
230
-0.0000000000000002
  0
LINE
  5
128A5
  8
0
  6
VERDECKT
 62
     1
 10
-33.25
 20
148.0
 30
-0.0000000000000329
 11
-33.25
 21
142.5
 31
-0.0000000000000316
210
0.0
220
1.0
230
-0.0000000000000002
  0
LINE
  5
128A6
  8
0
  6
VERDECKT
 62
     1
 10
-36.75
 20
148.0
 30
-0.0000000000000329
 11
-36.75
 21
142.5
 31
-0.0000000000000316
210
0.0
220
1.0
230
-0.0000000000000002
  0
LINE
  5
128A7
  8
0
  6
VERDECKT
 62
     1
 10
36.75
 20
148.0
 30
-0.0000000000000329
 11
36.75
 21
142.5
 31
-0.0000000000000316
210
0.0
220
1.0
230
-0.0000000000000002
  0
LINE
  5
128A8
  8
0
  6
VERDECKT
 62
     1
 10
33.25
 20
148.0
 30
-0.0000000000000329
 11
33.25
 21
142.5
 31
-0.0000000000000316
210
0.0
220
1.0
230
-0.0000000000000002
  0
LINE
  5
128A9
  8
0
  6
VERDECKT
 62
     1
 10
30.75
 20
144.0
 30
-0.000000000000032
 11
30.75
 21
148.0
 31
-0.0000000000000329
210
0.0
220
1.0
230
-0.0000000000000002
  0
LINE
  5
128AA
  8
0
  6
VERDECKT
 62
     1
 10
39.25
 20
144.0
 30
-0.000000000000032
 11
39.25
 21
148.0
 31
-0.0000000000000329
210
0.0
220
1.0
230
-0.0000000000000002
  0
LINE
  5
128AB
  8
0
  6
VERDECKT
 62
     1
 10
-39.25
 20
144.0
 30
-0.000000000000032
 11
-39.25
 21
148.0
 31
-0.0000000000000329
210
0.0
220
1.0
230
-0.0000000000000002
  0
LINE
  5
128AC
  8
0
  6
VERDECKT
 62
     1
 10
-30.75
 20
144.0
 30
-0.000000000000032
 11
-30.75
 21
148.0
 31
-0.0000000000000329
210
0.0
220
1.0
230
-0.0000000000000002
  0
LINE
  5
128AD
  8
0
  6
VERDECKT
 62
     1
 10
-32.1499999999999986
 20
134.0
 30
-0.0000000000000298
 11
-42.1499999999999915
 21
144.0
 31
-0.000000000000032
210
0.0
220
1.0
230
-0.0000000000000002
  0
LINE
  5
128AE
  8
0
  6
VERDECKT
 62
     1
 10
32.1499999999999986
 20
134.0
 30
-0.0000000000000298
 11
42.1499999999999915
 21
144.0
 31
-0.000000000000032
210
0.0
220
1.0
230
-0.0000000000000002
  0
LINE
  5
128AF
  8
0
  6
VERDECKT
 62
     1
 10
32.1499999999999986
 20
134.0
 30
-0.0000000000000298
 11
34.5000000000000071
 21
0.0
 31
0.0
210
0.0
220
1.0
230
-0.0000000000000002
  0
LINE
  5
128B0
  8
0
  6
VERDECKT
 62
     1
 10
-32.1499999999999986
 20
134.0
 30
-0.0000000000000298
 11
-34.5000000000000071
 21
0.0
 31
0.0
210
0.0
220
1.0
230
-0.0000000000000002
  0
ENDBLK
  5
128B2
  8
0
  0
ENDSEC
  0
SECTION
  2
ENTITIES
  0
INSERT
  5
712A
  8
ADSK_ASSOC_ENTITY_BACKUPS
  2
*S0
 10
0.0
 20
0.0
 30
0.0
  0
INSERT
  5
12857
  8
STEMPEL
  2
A$C4F462614
 10
0.0
 20
-100.0
 30
0.0
  0
INSERT
  5
128B3
  8
STEMPEL
  2
A$C32F7FAAF
 10
0.0
 20
0.0
 30
0.0
  0
VIEWPORT
  5
7108
 67
     1
  8
0
 10
91.3541660833581233
 20
179.5592466272699994
 30
0.0
 40
352.1517894580634902
 41
186.8396583666641106
 68
     1
 69
     1
1001
ACAD
1000
MVIEW
1002
{
1070
    16
1010
0.0
1020
0.0
1030
0.0
1010
0.0
1020
0.0
1030
1.0
1040
0.0
1040
186.8396583666641106
1040
91.3541660833581233
1040
179.5592466272699994
1040
50.0
1040
0.0
1040
0.0
1070
     0
1070
  1500
1070
     1
1070
     1
1070
     0
1070
     0
1070
     0
1070
     0
1040
0.0
1040
0.0
1040
0.0
1040
10.0
1040
10.0
1040
10.0
1040
10.0
1070
     0
1002
{
1002
}
1002
}
  0
CIRCLE
  5
122BF
 67
     1
  8
INDEX
 62
   150
 10
124.7500000000004974
 20
270.0
 30
-0.0000000000000004
 40
2.5
  0
TEXT
  5
122C0
 67
     1
  8
INDEX
 62
   150
 10
123.892857142857693
 20
268.5
 30
-0.0000000000000004
 40
3.0
  1
C
 41
0.8
 72
     4
 11
124.7500000000004974
 21
270.0
 31
-0.0000000000000004
  0
CIRCLE
  5
1235C
 67
     1
  8
INDEX
 62
   150
 10
60.7911075500794524
 20
228.75
 30
-0.0000000000000009
 40
2.5
  0
TEXT
  5
1235D
 67
     1
  8
INDEX
 62
   150
 10
62.2911075500794595
 20
227.8928571428571956
 30
-0.0000000000000009
 40
3.0
  1
C
 50
90.0
 41
0.8
 72
     4
 11
60.7911075500794524
 21
228.75
 31
-0.0000000000000009
  0
CIRCLE
  5
1242F
 67
     1
  8
INDEX
 62
   150
 10
50.7911075500794524
 20
224.75
 30
-0.0000000000000009
 40
2.5
  0
TEXT
  5
12430
 67
     1
  8
INDEX
 62
   150
 10
52.2911075500794595
 20
223.8928571428571956
 30
-0.0000000000000009
 40
3.0
  1
C
 50
90.0
 41
0.8
 72
     4
 11
50.7911075500794524
 21
224.75
 31
-0.0000000000000009
  0
CIRCLE
  5
1256E
 67
     1
  8
INDEX
 62
   150
 10
51.2500000000007887
 20
89.118493708795171
 30
-0.0000000000000004
 40
2.5
  0
TEXT
  5
1256F
 67
     1
  8
INDEX
 62
   150
 10
52.7500000000007887
 20
88.261350851652324
 30
-0.0000000000000004
 40
3.0
  1
C
 50
90.0
 41
0.8
 72
     4
 11
51.2500000000007887
 21
89.118493708795171
 31
-0.0000000000000004
  0
CIRCLE
  5
12570
 67
     1
  8
INDEX
 62
   150
 10
41.2500000000006111
 20
90.118493708795171
 30
-0.0000000000000004
 40
2.5
  0
TEXT
  5
12571
 67
     1
  8
INDEX
 62
   150
 10
42.7500000000006111
 20
89.2613508516523098
 30
-0.0000000000000004
 40
3.0
  1
C
 50
90.0
 41
0.8
 72
     4
 11
41.2500000000006111
 21
90.118493708795171
 31
-0.0000000000000004
  0
CIRCLE
  5
12572
 67
     1
  8
INDEX
 62
   150
 10
31.250000000000199
 20
90.1184937087951567
 30
-0.0000000000000004
 40
2.5
  0
TEXT
  5
12573
 67
     1
  8
INDEX
 62
   150
 10
32.750000000000199
 20
89.2613508516522813
 30
-0.0000000000000004
 40
3.0
  1
C
 50
90.0
 41
0.8
 72
     4
 11
31.250000000000199
 21
90.1184937087951567
 31
-0.0000000000000004
  0
CIRCLE
  5
125EA
 67
     1
  8
INDEX
 62
   150
 10
151.4583333333366113
 20
224.75
 30
-0.0000000000000004
 40
2.5
  0
TEXT
  5
125EB
 67
     1
  8
INDEX
 62
   150
 10
152.9583333333366113
 20
223.8928571428571956
 30
-0.0000000000000004
 40
3.0
  1
C
 50
90.0
 41
0.8
 72
     4
 11
151.4583333333366113
 21
224.75
 31
-0.0000000000000004
  0
CIRCLE
  5
126D9
 67
     1
  8
INDEX
 62
   150
 10
120.7500000000005969
 20
145.2916666666666003
 30
-0.0000000000000004
 40
2.5
  0
TEXT
  5
126DA
 67
     1
  8
INDEX
 62
   150
 10
119.892857142857693
 20
143.7916666666666003
 30
-0.0000000000000004
 40
3.0
  1
C
 41
0.8
 72
     4
 11
120.7500000000005969
 21
145.2916666666666003
 31
-0.0000000000000004
  0
ENDSEC
  0
EOF
