  0
SECTION
  2
HEADER
  9
$ACADVER
  1
AC1009
  9
$INSBASE
 10
509.9391017861535147
 20
-118.0350180316795985
 30
403.1361558984037856
  9
$EXTMIN
 10
-51.0000004992325628
 20
-151.0000010370332859
 30
-0.0000000116415251
  9
$EXTMAX
 10
200.9999997439064998
 20
99.9999996996782556
 30
-0.0000000116415251
  9
$LIMMIN
 10
0.0
 20
0.000000000000008
  9
$LIMMAX
 10
594.0
 20
840.0
  9
$ORTHOMODE
 70
     1
  9
$REGENMODE
 70
     1
  9
$FILLMODE
 70
     1
  9
$QTEXTMODE
 70
     0
  9
$MIRRTEXT
 70
     1
  9
$DRAGMODE
 70
     2
  9
$LTSCALE
 40
20.0
  9
$OSMODE
 70
  1535
  9
$ATTMODE
 70
     1
  9
$TEXTSIZE
 40
2.0
  9
$TRACEWID
 40
1.0
  9
$TEXTSTYLE
  7
STANDARD
  9
$CLAYER
  8
STEMPEL
  9
$CELTYPE
  6
BYLAYER
  9
$CECOLOR
 62
   256
  9
$DIMSCALE
 40
1.0
  9
$DIMASZ
 40
3.5
  9
$DIMEXO
 40
1.0
  9
$DIMDLI
 40
0.38
  9
$DIMRND
 40
0.0
  9
$DIMDLE
 40
0.0
  9
$DIMEXE
 40
1.0
  9
$DIMTP
 40
0.0
  9
$DIMTM
 40
0.000000001
  9
$DIMTXT
 40
3.5
  9
$DIMCEN
 40
0.09
  9
$DIMTSZ
 40
0.0
  9
$DIMTOL
 70
     0
  9
$DIMLIM
 70
     0
  9
$DIMTIH
 70
     0
  9
$DIMTOH
 70
     0
  9
$DIMSE1
 70
     0
  9
$DIMSE2
 70
     0
  9
$DIMTAD
 70
     1
  9
$DIMZIN
 70
     8
  9
$DIMBLK
  1

  9
$DIMASO
 70
     1
  9
$DIMSHO
 70
     0
  9
$DIMPOST
  1

  9
$DIMAPOST
  1

  9
$DIMALT
 70
     0
  9
$DIMALTD
 70
     2
  9
$DIMALTF
 40
25.3999999999999986
  9
$DIMLFAC
 40
1.0
  9
$DIMTOFL
 70
     1
  9
$DIMTVP
 40
0.0
  9
$DIMTIX
 70
     0
  9
$DIMSOXD
 70
     0
  9
$DIMSAH
 70
     0
  9
$DIMBLK1
  1

  9
$DIMBLK2
  1

  9
$DIMSTYLE
  2
LORO
  9
$DIMCLRD
 70
     0
  9
$DIMCLRE
 70
     0
  9
$DIMCLRT
 70
     1
  9
$DIMTFAC
 40
0.5
  9
$DIMGAP
 40
1.5
  9
$LUNITS
 70
     2
  9
$LUPREC
 70
     2
  9
$SKETCHINC
 40
1.0
  9
$FILLETRAD
 40
6.5
  9
$AUNITS
 70
     0
  9
$AUPREC
 70
     0
  9
$MENU
  1
ACAD
  9
$ELEVATION
 40
0.0
  9
$PELEVATION
 40
0.0
  9
$THICKNESS
 40
0.0
  9
$LIMCHECK
 70
     0
  9
$BLIPMODE
 70
     0
  9
$CHAMFERA
 40
0.0
  9
$CHAMFERB
 40
0.0
  9
$SKPOLY
 70
     0
  9
$TDCREATE
 40
2455397.867048610933125
  9
$TDUPDATE
 40
2460824.54797453712672
  9
$TDINDWG
 40
2.1190462615999999
  9
$TDUSRTIMER
 40
2.1190462615999999
  9
$USRTIMER
 70
     1
  9
$ANGBASE
 50
0.0
  9
$ANGDIR
 70
     0
  9
$PDMODE
 70
     0
  9
$PDSIZE
 40
0.0
  9
$PLINEWID
 40
0.0
  9
$COORDS
 70
     1
  9
$SPLFRAME
 70
     0
  9
$SPLINETYPE
 70
     6
  9
$SPLINESEGS
 70
     8
  9
$ATTDIA
 70
     1
  9
$ATTREQ
 70
     1
  9
$HANDLING
 70
     1
  9
$HANDSEED
  5
26934
  9
$SURFTAB1
 70
     6
  9
$SURFTAB2
 70
     6
  9
$SURFTYPE
 70
     6
  9
$SURFU
 70
     6
  9
$SURFV
 70
     6
  9
$UCSNAME
  2

  9
$UCSORG
 10
0.0
 20
0.0
 30
0.0
  9
$UCSXDIR
 10
1.0
 20
0.0
 30
0.0
  9
$UCSYDIR
 10
0.0
 20
1.0
 30
0.0
  9
$PUCSNAME
  2

  9
$PUCSORG
 10
0.0
 20
0.0
 30
0.0
  9
$PUCSXDIR
 10
1.0
 20
0.0
 30
0.0
  9
$PUCSYDIR
 10
0.0
 20
1.0
 30
0.0
  9
$USERI1
 70
     0
  9
$USERI2
 70
     0
  9
$USERI3
 70
     0
  9
$USERI4
 70
     0
  9
$USERI5
 70
     0
  9
$USERR1
 40
0.0
  9
$USERR2
 40
0.0
  9
$USERR3
 40
0.0
  9
$USERR4
 40
0.0
  9
$USERR5
 40
0.0
  9
$WORLDVIEW
 70
     1
  9
$SHADEDGE
 70
     3
  9
$SHADEDIF
 70
    70
  9
$TILEMODE
 70
     1
  9
$MAXACTVP
 70
    16
  9
$PLIMCHECK
 70
     0
  9
$PEXTMIN
 10
-0.0000000000001705
 20
-0.0000000000000943
 30
-0.0000000000001227
  9
$PEXTMAX
 10
296.5
 20
419.5000000000001137
 30
0.0000000000000568
  9
$PLIMMIN
 10
-0.2223940020856219
 20
-0.2313663524731169
  9
$PLIMMAX
 10
296.7776059979144065
 20
419.7686336475268831
  9
$UNITMODE
 70
     0
  9
$VISRETAIN
 70
     0
  9
$PLINEGEN
 70
     0
  9
$PSLTSCALE
 70
     0
  0
ENDSEC
  0
SECTION
  2
TABLES
  0
TABLE
  2
VPORT
 70
     1
  0
VPORT
  2
*ACTIVE
 70
     0
 10
0.0
 20
0.0
 11
1.0
 21
1.0
 12
74.999999622336972
 22
-50.001778317603339
 13
0.0
 23
0.0
 14
1.0
 24
1.0
 15
10.0
 25
10.0
 16
-0.0000000000004278
 26
0.0
 36
1926.6744382401871007
 17
0.0
 27
24.5017776489257813
 37
-0.000000000000004
 40
252.2938151734988139
 41
1.8839208942390371
 42
207.9750642040671949
 43
0.0
 44
0.0
 50
0.0
 51
0.0
 71
     0
 72
  1500
 73
     1
 74
     0
 75
     0
 76
     0
 77
     0
 78
     0
  0
ENDTAB
  0
TABLE
  2
LTYPE
 70
    13
  0
LTYPE
  2
CONTINUOUS
 70
     0
  3
Solid line
 72
    65
 73
     0
 40
0.0
  0
LTYPE
  2
STRICHPUNKT
 70
     0
  3
__ . __ . __ . __ . __ . __ . __ . __ . __ . __
 72
    65
 73
     4
 40
1.0
 49
0.5
 49
-0.25
 49
0.0
 49
-0.25
  0
LTYPE
  2
HIDDEN
 70
     0
  3
Hidden __ __ __ __ __ __ __ __ __ __ __ __ __ __
 72
    65
 73
     2
 40
0.375
 49
0.25
 49
-0.125
  0
LTYPE
  2
PHANTOM2
 70
     0
  3
Phantom (.5x) ___ _ _ ___ _ _ ___ _ _ ___ _ _
 72
    65
 73
     6
 40
1.25
 49
0.625
 49
-0.125
 49
0.125
 49
-0.125
 49
0.125
 49
-0.125
  0
LTYPE
  2
CENTER
 70
     0
  3
Center ____ _ ____ _ ____ _ ____ _ ____ _ ____
 72
    65
 73
     4
 40
2.0
 49
1.25
 49
-0.25
 49
0.25
 49
-0.25
  0
LTYPE
  2
AMCONSTR
 70
     0
  3
_______________________
 72
    65
 73
     2
 40
9999.0
 49
9999.0
 49
0.0
  0
LTYPE
  2
CENTER2
 70
     0
  3
Center (.5x) ___ _ ___ _ ___ _ ___ _ ___ _ ___
 72
    65
 73
     4
 40
1.125
 49
0.75
 49
-0.125
 49
0.125
 49
-0.125
  0
LTYPE
  2
HIDDEN2
 70
     0
  3
Hidden (.5x) _ _ _ _ _ _ _ _ _ _ _ _ _ _ _ _ _
 72
    65
 73
     2
 40
0.1875
 49
0.125
 49
-0.0625
  0
LTYPE
  2
AMZIGZAG2
 70
     0
  3
/\/-/\/-/\/-/\/-/\/-/\/
 72
    65
 73
     2
 40
0.4401
 49
0.0001
 49
-0.4400000000000001
  0
LTYPE
  2
ACANSTGB
 70
     0
  3
__ . . __ . .
 72
    65
 73
     6
 40
0.35433070866
 49
0.15748031496
 49
-0.03937007874
 49
0.03937007874
 49
-0.03937007874
 49
0.03937007874
 49
-0.03937007874
  0
LTYPE
  2
ACANSTGL
 70
     0
  3
_ _ _ _ _
 72
    65
 73
     2
 40
0.11811023622
 49
0.07874015748
 49
-0.03937007874
  0
LTYPE
  2
AUSGEZOGEN
 70
     0
  3
Ausgezogene Linie
 72
    65
 73
     0
 40
0.0
  0
LTYPE
  2
VERDECKT
 70
     0
  3
Verdeckt __ __ __ __ __ __ __ __ __ __ __ __ __
 72
    65
 73
     2
 40
0.375
 49
0.25
 49
-0.125
  0
ENDTAB
  0
TABLE
  2
LAYER
 70
     6
  0
LAYER
  2
0
 70
     0
 62
     7
  6
CONTINUOUS
  0
LAYER
  2
VOLL
 70
     0
 62
     1
  6
CONTINUOUS
  0
LAYER
  2
STEMPEL
 70
     0
 62
     3
  6
CONTINUOUS
  0
LAYER
  2
ADSK_ASSOC_ENTITY_BACKUPS
 70
     1
 62
    -7
  6
CONTINUOUS
  0
ENDTAB
  0
TABLE
  2
STYLE
 70
     5
  0
STYLE
  2
STANDARD
 70
     0
 40
0.0
 41
0.8
 50
0.0
 71
     0
 42
2.0
  3
simplex.shx
  4

  0
STYLE
  2
GREEKS
 70
     0
 40
0.0
 41
0.8
 50
0.0
 71
     0
 42
2.5
  3
SIMPLEX.shx
  4

  0
STYLE
  2

 70
     1
 40
0.0
 41
1.0
 50
0.0
 71
     0
 42
2.5
  3
genltshp.shx
  4

  0
STYLE
  2
ACANSGDT
 70
     0
 40
0.0
 41
1.0
 50
0.0
 71
     0
 42
2.5
  3
amgdt.shx
  4

  0
ENDTAB
  0
TABLE
  2
VIEW
 70
     0
  0
ENDTAB
  0
TABLE
  2
UCS
 70
     0
  0
ENDTAB
  0
TABLE
  2
APPID
 70
    49
  0
APPID
  2
ACAD
 70
     0
  0
APPID
  2
ACAD_NAV_VCDISPLAY
 70
     0
  0
APPID
  2
GRADIENTCOLOR1ACI
 70
     0
  0
APPID
  2
GRADIENTCOLOR2ACI
 70
     0
  0
APPID
  2
ACAD_DSTYLE_DIMRADIAL_EXTENSION
 70
     0
  0
APPID
  2
ACADANNOMONITORALERTICONDI
 70
     0
  0
APPID
  2
ACAD_EXEMPT_FROM_CAD_STANDARDS
 70
     0
  0
APPID
  2
ACAD_MLEADERVER
 70
     0
  0
APPID
  2
ACAD_PSEXT
 70
     0
  0
APPID
  2
ACAECLAYERSTANDARD
 70
     0
  0
APPID
  2
ACCMTRANSPARENCY
 70
     0
  0
APPID
  2
ACAD_OBJECT_CHANGE_GUID
 70
     0
  0
APPID
  2
MCAD_NO_VIS
 70
     0
  0
APPID
  2
ACAD_TEMP_GRAPHIC
 70
     0
  0
APPID
  2
ACATTRIBSERVICES
 70
     0
  0
APPID
  2
DESIGNERASSEMBLIES
 70
     0
  0
APPID
  2
ACAD_DSTYLE_DIMJAG
 70
     0
  0
APPID
  2
ACAD_DSTYLE_DIMBREAK
 70
     0
  0
APPID
  2
GENIUS_GENSCREG_15
 70
     0
  0
APPID
  2
GENIUS_GENOBJ-N-SDF_13
 70
     0
  0
APPID
  2
GENIUS_GENODEF_13
 70
     0
  0
APPID
  2
ACAD_STEPID
 70
     0
  0
APPID
  2
ACAD_DSTYLE_DIMARC_LENGTH_
 70
     0
  0
APPID
  2
ACAD_DSTYLE_DIM_LINETYPE
 70
     0
  0
APPID
  2
ACAD_DSTYLE_DIM_EXT1_LINETYPE
 70
     0
  0
APPID
  2
ACAD_DSTYLE_DIM_EXT2_LINETYPE
 70
     0
  0
APPID
  2
RAK
 70
     0
  0
APPID
  2
ACADANNOPO
 70
     0
  0
APPID
  2
ACSYNERGY
 70
     0
  0
APPID
  2
SYNERGY_BODY_TBR_ID
 70
     0
  0
APPID
  2
ACAD_VIEW_EDGE_ID
 70
     0
  0
APPID
  2
ACSYNERGYSKETCH
 70
     0
  0
APPID
  2
ACAD_MODELDOC_XFORM
 70
     0
  0
APPID
  2
GENIUS_GENDTOL_13
 70
     0
  0
APPID
  2
ACAD_DSTYLE_DIMINSPECT
 70
     0
  0
APPID
  2
ACAD_DSTYLE_DIMANGULAR_EXT
 70
     0
  0
APPID
  2
PLOTTRANSPARENCY
 70
     0
  0
APPID
  2
ACAUTHENVIRON
 70
     0
  0
APPID
  2
ACDBDYNAMICBLOCKTRUENAME
 70
     0
  0
APPID
  2
ACDBDYNAMICBLOCKGUID
 70
     0
  0
APPID
  2
PE_URL
 70
     0
  0
APPID
  2
ACADANNOAV
 70
     0
  0
APPID
  2
ACAD_TC
 70
     0
  0
APPID
  2
ACAD_DIMASSOC_CALC_DIMLFAC
 70
     0
  0
APPID
  2
ACAD_DIMASSOC_DIMLFAC
 70
     0
  0
APPID
  2
ACAD_DIMASSOC_OVERRIDDEN_D
 70
     0
  0
APPID
  2
ACAD_DSTYLE_DIMTALN
 70
     0
  0
APPID
  2
ACADANNOTATIVE
 70
     0
  0
APPID
  2
HATCHBACKGROUNDCOLOR
 70
     0
  0
ENDTAB
  0
TABLE
  2
DIMSTYLE
 70
     8
  0
DIMSTYLE
  2
AM_ANSI
 70
     0
  3

  4
mm
  5

  6

  7

 40
1.0
 41
0.12
 42
0.05
 43
0.5
 44
0.1
 45
0.0
 46
0.0
 47
0.1
 48
0.1
140
0.12
141
0.0
142
0.0
143
25.3999999999999986
144
1.0
145
0.0
146
0.71
147
0.06
 71
     0
 72
     0
 73
     1
 74
     1
 75
     0
 76
     0
 77
     0
 78
     7
170
     0
171
     2
172
     0
173
     0
174
     0
175
     0
176
   256
177
   256
178
   255
  0
DIMSTYLE
  2
AM_ANSI$3
 70
     0
  3

  4
mm
  5

  6

  7

 40
1.0
 41
0.12
 42
0.05
 43
0.5
 44
0.1
 45
0.0
 46
0.0
 47
0.1
 48
0.1
140
0.12
141
0.0
142
0.0
143
25.3999999999999986
144
1.0
145
0.0
146
0.71
147
0.06
 71
     0
 72
     0
 73
     1
 74
     1
 75
     0
 76
     0
 77
     0
 78
     7
170
     0
171
     2
172
     0
173
     0
174
     0
175
     0
176
   256
177
   256
178
   255
  0
DIMSTYLE
  2
AM_ANSI$4
 70
     0
  3

  4
mm
  5

  6

  7

 40
1.0
 41
0.12
 42
0.05
 43
0.5
 44
0.1
 45
0.0
 46
0.0
 47
0.1
 48
0.1
140
0.12
141
0.0
142
0.0
143
25.3999999999999986
144
1.0
145
0.0
146
0.71
147
0.06
 71
     0
 72
     0
 73
     1
 74
     1
 75
     0
 76
     0
 77
     0
 78
     7
170
     0
171
     2
172
     0
173
     0
174
     0
175
     0
176
   256
177
   256
178
   255
  0
DIMSTYLE
  2
AM_ANSI$7
 70
     0
  3

  4
mm
  5

  6

  7

 40
1.0
 41
0.12
 42
0.05
 43
0.5
 44
0.1
 45
0.0
 46
0.0
 47
0.1
 48
0.1
140
0.12
141
0.0
142
0.0
143
25.3999999999999986
144
1.0
145
0.0
146
0.71
147
0.06
 71
     0
 72
     0
 73
     1
 74
     1
 75
     0
 76
     0
 77
     0
 78
     7
170
     0
171
     2
172
     0
173
     0
174
     0
175
     0
176
   256
177
   256
178
   255
  0
DIMSTYLE
  2
AM_ANSI$SF
 70
     0
  3

  4
mm
  5

  6

  7

 40
1.0
 41
0.12
 42
0.05
 43
0.5
 44
0.1
 45
0.0
 46
0.0
 47
0.1
 48
0.1
140
0.12
141
0.0
142
0.0
143
25.3999999999999986
144
1.0
145
0.0
146
0.71
147
0.06
 71
     0
 72
     0
 73
     1
 74
     1
 75
     1
 76
     1
 77
     0
 78
     7
170
     0
171
     2
172
     0
173
     0
174
     0
175
     0
176
   256
177
   256
178
   255
  0
DIMSTYLE
  2
AM_ANSI$SH
 70
     0
  3

  4
mm
  5

  6
GENAXEH
  7

 40
1.0
 41
0.12
 42
0.05
 43
0.5
 44
0.1
 45
0.0
 46
0.0
 47
0.1
 48
0.1
140
0.12
141
0.0
142
0.0
143
25.3999999999999986
144
1.0
145
0.0
146
0.71
147
0.06
 71
     0
 72
     0
 73
     1
 74
     1
 75
     1
 76
     1
 77
     0
 78
     7
170
     0
171
     2
172
     0
173
     1
174
     0
175
     0
176
   256
177
   256
178
   255
  0
DIMSTYLE
  2
AM_ANSI$0
 70
     0
  3

  4
"
  5

  6

  7

 40
1.0
 41
3.5
 42
1.0
 43
10.0
 44
1.0
 45
0.0
 46
0.0
 47
0.1
 48
0.1
140
3.5
141
0.0
142
0.0
143
0.0393701
144
1.0
145
0.0
146
0.71
147
1.5
 71
     0
 72
     0
 73
     1
 74
     1
 75
     0
 76
     0
 77
     0
 78
     8
170
     0
171
     2
172
     0
173
     0
174
     0
175
     0
176
   256
177
   256
178
     2
  0
DIMSTYLE
  2
LORO
 70
     0
  3

  4

  5

  6

  7

 40
1.0
 41
3.5
 42
1.0
 43
0.38
 44
1.0
 45
0.0
 46
0.0
 47
0.0
 48
0.000000001
140
3.5
141
0.09
142
0.0
143
25.3999999999999986
144
1.0
145
0.0
146
0.5
147
1.5
 71
     0
 72
     0
 73
     0
 74
     0
 75
     0
 76
     0
 77
     1
 78
     8
170
     0
171
     2
172
     1
173
     0
174
     0
175
     0
176
     0
177
     0
178
     1
  0
ENDTAB
  0
ENDSEC
  0
SECTION
  2
BLOCKS
  0
BLOCK
  8
0
  2
$MODEL_SPACE
 70
     0
 10
0.0
 20
0.0
 30
0.0
  3
$MODEL_SPACE
  1

  0
ENDBLK
  5
38
  8
0
  0
BLOCK
 67
     1
  8
0
  2
$PAPER_SPACE
 70
     2
 10
0.0
 20
0.0
 30
0.0
  3
$PAPER_SPACE
  1

  0
ENDBLK
  5
36
 67
     1
  8
0
  0
BLOCK
  8
0
  2
GENAXEH
 70
     0
 10
0.0
 20
0.0
 30
0.0
  3
GENAXEH
  1

  0
LINE
  5
1721
  8
0
 10
-1.0
 20
0.0
 30
0.0
 11
1.0
 21
0.0
 31
0.0
  0
ENDBLK
  5
1723
  8
0
  0
BLOCK
  8
0
  2
*S1
 70
     1
 10
0.0
 20
0.0
 30
0.0
  3
*S1
  1

  0
ENDBLK
  5
2101
  8
0
  0
BLOCK
  8
0
  2
*U2
 70
     1
 10
0.0
 20
0.0
 30
0.0
  3
*U2
  1

  0
ENDBLK
  5
3EBB
  8
0
  0
BLOCK
  8
0
  2
A$C8EE771AF
 70
     0
 10
0.0
 20
0.0
 30
0.0
  3
A$C8EE771AF
  1

  0
ARC
  5
267B0
  8
0
  6
CONTINUOUS
 62
     3
 10
-0.0000000000000249
 20
-0.0000000000000071
 30
0.0
 40
34.899999999905873
 50
0.0000000000000127
 51
57.5366718750130275
  0
ARC
  5
267B1
  8
0
  6
CONTINUOUS
 62
     3
 10
-0.0000000000000053
 20
0.0000000000000053
 30
0.0
 40
34.8999999999058517
 50
62.4633281249770107
 51
297.5366718750229893
  0
ARC
  5
267B2
  8
0
  6
CONTINUOUS
 62
     3
 10
-0.0000000000000142
 20
-0.0000000000000018
 30
0.0
 40
34.8999999999058588
 50
302.4633281249870151
 51
0.0
  0
ARC
  5
267B3
  8
0
  6
CONTINUOUS
 62
     3
 10
-0.0000000000000142
 20
-0.0000000000000036
 30
0.0
 40
33.9123553971647169
 50
0.0000000000000127
 51
57.46488508664536
  0
ARC
  5
267B4
  8
0
  6
CONTINUOUS
 62
     3
 10
0.0000000000000018
 20
0.0000000000000018
 30
0.0
 40
33.9123553971647169
 50
62.5351149133444224
 51
297.4648850866556131
  0
ARC
  5
267B5
  8
0
  6
CONTINUOUS
 62
     3
 10
-0.0000000000000213
 20
0.0000000000000107
 30
0.0
 40
33.9123553971647311
 50
302.5351149133546187
 51
0.0
  0
LINE
  5
267B6
  8
0
  6
CONTINUOUS
 62
     3
 10
11.79903810567947
 20
17.4365334794719509
 30
0.0
 11
9.2009618943261504
 21
18.9365334794719509
 31
-0.0000000000000006
  0
LINE
  5
267B7
  8
0
  6
CONTINUOUS
 62
     3
 10
15.29903810567947
 20
23.4987113059630488
 30
0.0
 11
11.79903810567947
 21
17.4365334794719402
 31
-0.0000000000000008
  0
LINE
  5
267B8
  8
0
  6
CONTINUOUS
 62
     3
 10
15.29903810567947
 20
23.4987113059630488
 30
0.0
 11
12.7009618943261504
 21
24.9987113059630488
 31
-0.0000000000000006
  0
LINE
  5
267B9
  8
0
  6
CONTINUOUS
 62
     3
 10
12.7009618943261504
 20
24.9987113059630488
 30
0.0
 11
9.2009618943261504
 21
18.9365334794719402
 31
-0.0000000000000008
  0
LINE
  5
267BA
  8
0
  6
CONTINUOUS
 62
     3
 10
22.2990381056794291
 20
35.6230669589451594
 30
0.0
 11
15.29903810567947
 21
23.4987113059630595
 31
-0.0000000000000018
  0
LINE
  5
267BB
  8
0
  6
CONTINUOUS
 62
     3
 10
22.2990381056794291
 20
35.6230669589451594
 30
0.0
 11
19.7009618943261096
 21
37.1230669589451594
 31
-0.0000000000000006
  0
LINE
  5
267BC
  8
0
  6
CONTINUOUS
 62
     3
 10
19.7009618943261096
 20
37.1230669589451594
 30
0.0
 11
12.7009618943261504
 21
24.9987113059630595
 31
-0.0000000000000018
  0
LINE
  5
267BD
  8
0
  6
CONTINUOUS
 62
     3
 10
25.7875558231728803
 20
41.6653568887480432
 30
0.0
 11
22.2990381056794291
 21
35.6230669589451594
 31
-0.0000000000000008
  0
LINE
  5
267BE
  8
0
  6
CONTINUOUS
 62
     3
 10
23.1894796118196496
 20
43.1653568887481924
 30
0.0
 11
19.7009618943260989
 21
37.1230669589451523
 31
-0.0000000000000008
  0
LINE
  5
267BF
  8
0
  6
CONTINUOUS
 62
     3
 10
11.79903810567947
 20
-17.4365334794719509
 30
0.0
 11
9.2009618943261504
 21
-18.9365334794719509
 31
-0.0000000000000006
  0
LINE
  5
267C0
  8
0
  6
CONTINUOUS
 62
     3
 10
15.29903810567947
 20
-23.4987113059630488
 30
0.0
 11
11.79903810567947
 21
-17.4365334794719402
 31
-0.0000000000000008
  0
LINE
  5
267C1
  8
0
  6
CONTINUOUS
 62
     3
 10
12.7009618943261504
 20
-24.9987113059630488
 30
0.0
 11
9.2009618943261504
 21
-18.9365334794719402
 31
-0.0000000000000008
  0
LINE
  5
267C2
  8
0
  6
CONTINUOUS
 62
     3
 10
15.29903810567947
 20
-23.4987113059630488
 30
0.0
 11
12.7009618943261504
 21
-24.9987113059630488
 31
-0.0000000000000006
  0
LINE
  5
267C3
  8
0
  6
CONTINUOUS
 62
     3
 10
22.2990381056794291
 20
-35.6230669589451594
 30
0.0
 11
15.29903810567947
 21
-23.4987113059630595
 31
-0.0000000000000018
  0
LINE
  5
267C4
  8
0
  6
CONTINUOUS
 62
     3
 10
19.7009618943261096
 20
-37.1230669589451594
 30
0.0
 11
12.7009618943261504
 21
-24.9987113059630595
 31
-0.0000000000000018
  0
LINE
  5
267C5
  8
0
  6
CONTINUOUS
 62
     3
 10
22.2990381056794291
 20
-35.6230669589451594
 30
0.0
 11
19.7009618943261096
 21
-37.1230669589451594
 31
-0.0000000000000006
  0
LINE
  5
267C6
  8
0
  6
CONTINUOUS
 62
     3
 10
25.7875558231728803
 20
-41.6653568887480432
 30
0.0
 11
22.2990381056794291
 21
-35.6230669589451594
 31
-0.0000000000000008
  0
LINE
  5
267C7
  8
0
  6
CONTINUOUS
 62
     3
 10
23.1894796118196496
 20
-43.1653568887481924
 30
0.0
 11
19.7009618943260989
 21
-37.1230669589451523
 31
-0.0000000000000008
  0
CIRCLE
  5
267C8
  8
0
  6
CONTINUOUS
 62
     3
 10
0.0000000000000266
 20
0.0
 30
0.0
 40
51.0
  0
CIRCLE
  5
267C9
  8
0
  6
CONTINUOUS
 62
     3
 10
0.0000000000000266
 20
0.0
 30
0.0
 40
48.9999999999999929
  0
ARC
  5
267CA
  8
0
  6
CONTINUOUS
 62
     3
 10
0.0000000000000258
 20
0.0000000000000107
 30
0.0
 40
47.4999999999999716
 50
0.0
 51
58.1903587378930993
  0
ARC
  5
267CB
  8
0
  6
CONTINUOUS
 62
     3
 10
0.0000000000000383
 20
0.0000000000001137
 30
0.0
 40
47.4999999999998792
 50
61.8096412620996105
 51
81.679344812254584
  0
ARC
  5
267CC
  8
0
  6
CONTINUOUS
 62
     3
 10
-0.0000000000000097
 20
-0.0000000000000004
 30
0.0
 40
47.5
 50
98.3206551877454302
 51
201.6793448122542998
  0
ARC
  5
267CD
  8
0
  6
CONTINUOUS
 62
     3
 10
0.0000000000000027
 20
0.0000000000000071
 30
0.0
 40
47.5
 50
218.3206551877455013
 51
261.6793448122546124
  0
ARC
  5
267CE
  8
0
  6
CONTINUOUS
 62
     3
 10
-0.0000000000000772
 20
0.0000000000001634
 30
0.0
 40
47.5000000000001705
 50
278.3206551877455013
 51
298.1903587379003966
  0
ARC
  5
267CF
  8
0
  6
CONTINUOUS
 62
     3
 10
0.0000000000000756
 20
-0.0000000000000568
 30
0.0
 40
47.4999999999999076
 50
301.8096412621068225
 51
321.6793448122547261
  0
ARC
  5
267D0
  8
0
  6
CONTINUOUS
 62
     3
 10
0.0000000000000614
 20
-0.0000000000000169
 30
0.0
 40
47.4999999999999218
 50
338.3206551877452171
 51
0.0
  0
LINE
  5
267D1
  8
0
  6
CONTINUOUS
 62
     3
 10
13.85640646055103
 20
-47.0
 30
0.0
 11
-13.8564064605509696
 21
-47.0
 31
-0.0000000000000062
  0
LINE
  5
267D2
  8
0
  6
CONTINUOUS
 62
     3
 10
-33.774990747593101
 20
-35.4999999999999929
 30
-0.0000000000000142
 11
-47.6313972081440795
 21
-11.5000000000000107
 31
-0.0000000000000173
  0
LINE
  5
267D3
  8
0
  6
CONTINUOUS
 62
     3
 10
47.6313972081441435
 20
-11.5000000000000302
 30
0.0000000000000142
 11
33.7749907475931295
 21
-35.5
 31
0.0000000000000111
  0
LINE
  5
267D4
  8
0
  6
CONTINUOUS
 62
     3
 10
-13.8564064605509802
 20
47.0
 30
0.0
 11
13.8564064605510193
 21
47.0
 31
0.0000000000000062
  0
ARC
  5
267D5
  8
0
  6
VERDECKT
 62
     1
 10
-0.0000000000008527
 20
-0.000000000001581
 30
0.0
 40
34.8999999999076636
 50
57.5366718750132904
 51
62.4633281249769681
  0
ARC
  5
267D6
  8
0
  6
VERDECKT
 62
     1
 10
-0.0000000000004299
 20
0.0000000000008242
 30
0.0
 40
34.8999999999067896
 50
297.5366718750229893
 51
302.4633281249867878
  0
ARC
  5
267D7
  8
0
  6
VERDECKT
 62
     1
 10
0.0000000000001315
 20
0.0000000000002913
 30
0.0
 40
33.9123553971643901
 50
57.4648850866453031
 51
62.5351149133443727
  0
ARC
  5
267D8
  8
0
  6
VERDECKT
 62
     1
 10
-0.0000000000011937
 20
0.0000000000020357
 30
0.0
 40
33.9123553971670688
 50
297.4648850866557837
 51
302.535114913354505
  0
CIRCLE
  5
267D9
  8
0
  6
VERDECKT
 62
     1
 10
0.0
 20
0.0
 30
0.0
 40
35.5
  0
CIRCLE
  5
267DA
  8
0
  6
VERDECKT
 62
     1
 10
-0.0000000000000038
 20
0.0
 30
0.0
 40
36.5000000000000213
  0
CIRCLE
  5
267DB
  8
0
  6
VERDECKT
 62
     1
 10
-0.0000000000000061
 20
0.0
 30
0.0
 40
49.5000000000000071
  0
CIRCLE
  5
267DC
  8
0
  6
VERDECKT
 62
     1
 10
-0.0000000000000062
 20
0.0
 30
0.0
 40
48.218805230784767
  0
LINE
  5
267DD
  8
0
  6
VERDECKT
 62
     1
 10
24.7990381056794398
 20
39.9531939778673788
 30
0.0
 11
22.2009618943261202
 21
41.4531939778673717
 31
-0.0000000000000006
  0
LINE
  5
267DE
  8
0
  6
VERDECKT
 62
     1
 10
25.7990381056794185
 20
41.6852447854362325
 30
0.0
 11
25.7875558231728803
 21
41.6653568887480432
 31
0.0
  0
LINE
  5
267DF
  8
0
  6
VERDECKT
 62
     1
 10
25.7990381056794185
 20
41.6852447854362325
 30
0.0
 11
23.2009618943260989
 21
43.1852447854362183
 31
-0.0000000000000006
  0
LINE
  5
267E0
  8
0
  6
VERDECKT
 62
     1
 10
23.2009618943260989
 20
43.1852447854362183
 30
0.0
 11
23.1894796118196496
 21
43.1653568887481924
 31
0.0
  0
LINE
  5
267E1
  8
0
  6
VERDECKT
 62
     1
 10
24.7990381056794398
 20
-39.9531939778673788
 30
0.0
 11
22.2009618943261202
 21
-41.4531939778673717
 31
-0.0000000000000006
  0
LINE
  5
267E2
  8
0
  6
VERDECKT
 62
     1
 10
25.7990381056794185
 20
-41.6852447854362325
 30
0.0
 11
25.7875558231728803
 21
-41.6653568887480432
 31
0.0
  0
LINE
  5
267E3
  8
0
  6
VERDECKT
 62
     1
 10
23.2009618943260989
 20
-43.1852447854362183
 30
0.0
 11
23.1894796118196496
 21
-43.1653568887481924
 31
0.0
  0
LINE
  5
267E4
  8
0
  6
VERDECKT
 62
     1
 10
25.7990381056794185
 20
-41.6852447854362325
 30
0.0
 11
23.2009618943260989
 21
-43.1852447854362183
 31
-0.0000000000000006
  0
CIRCLE
  5
267E5
  8
0
  6
VERDECKT
 62
     1
 10
-0.0000000000000018
 20
0.0
 30
0.0
 40
49.4641308308352592
  0
ARC
  5
267E6
  8
0
  6
VERDECKT
 62
     1
 10
-0.0000000000001447
 20
-0.0000000000000995
 30
0.0
 40
47.5000000000001492
 50
58.1903587378929927
 51
61.8096412620995324
  0
ARC
  5
267E7
  8
0
  6
VERDECKT
 62
     1
 10
0.0000000000000005
 20
0.0000000000000071
 30
0.0
 40
47.4999999999999929
 50
81.6793448122545414
 51
98.3206551877454871
  0
ARC
  5
267E8
  8
0
  6
VERDECKT
 62
     1
 10
0.0000000000000614
 20
0.0000000000000462
 30
0.0
 40
47.5000000000000711
 50
201.6793448122544135
 51
218.3206551877455013
  0
ARC
  5
267E9
  8
0
  6
VERDECKT
 62
     1
 10
0.0000000000000134
 20
0.0000000000003411
 30
0.0
 40
47.5000000000003411
 50
261.6793448122546124
 51
278.3206551877453876
  0
ARC
  5
267EA
  8
0
  6
VERDECKT
 62
     1
 10
0.0000000000013475
 20
-0.0000000000024443
 30
0.0
 40
47.4999999999972076
 50
298.1903587379002829
 51
301.8096412621069931
  0
ARC
  5
267EB
  8
0
  6
VERDECKT
 62
     1
 10
-0.0000000000001092
 20
0.0000000000000568
 30
0.0
 40
47.5000000000001279
 50
321.6793448122547261
 51
338.3206551877452171
  0
LINE
  5
267EC
  8
0
  6
VERDECKT
 62
     1
 10
0.000000000000024
 20
-48.9999999999999929
 30
0.0
 11
-14.1421356237309404
 21
-48.9999999999999929
 31
-0.0000000000000031
  0
LINE
  5
267ED
  8
0
  6
VERDECKT
 62
     1
 10
14.1421356237309901
 20
-48.9999999999999929
 30
0.0
 11
0.0000000000000249
 21
-48.9999999999999929
 31
-0.0000000000000031
  0
LINE
  5
267EE
  8
0
  6
VERDECKT
 62
     1
 10
-42.4352447854374688
 20
-24.4999999999999716
 30
-0.0000000000000142
 11
-49.5063125973029301
 21
-12.2525512860840795
 31
-0.0000000000000158
  0
LINE
  5
267EF
  8
0
  6
VERDECKT
 62
     1
 10
-35.3641769735719933
 20
-36.747448713915901
 30
-0.0000000000000142
 11
-42.4352447854374688
 21
-24.4999999999999716
 31
-0.0000000000000158
  0
LINE
  5
267F0
  8
0
  6
VERDECKT
 62
     1
 10
42.4352447854375114
 20
-24.5000000000000213
 30
0.0000000000000142
 11
35.3641769735720217
 21
-36.7474487139159223
 31
0.0000000000000126
  0
LINE
  5
267F1
  8
0
  6
VERDECKT
 62
     1
 10
49.5063125973030012
 20
-12.2525512860841097
 30
0.0000000000000142
 11
42.4352447854375114
 21
-24.5000000000000213
 31
0.0000000000000126
  0
LINE
  5
267F2
  8
0
  6
VERDECKT
 62
     1
 10
0.0000000000000222
 20
48.9999999999999929
 30
0.0
 11
14.1421356237309901
 21
48.9999999999999929
 31
0.0000000000000031
  0
LINE
  5
267F3
  8
0
  6
VERDECKT
 62
     1
 10
-14.1421356237309404
 20
48.9999999999999929
 30
0.0
 11
0.0000000000000231
 21
48.9999999999999929
 31
0.0000000000000031
  0
ENDBLK
  5
267F5
  8
0
  0
BLOCK
  8
0
  2
A$C2D9A8429
 70
     0
 10
0.0
 20
0.0
 30
0.0
  3
A$C2D9A8429
  1

  0
LINE
  5
267F9
  8
0
  6
CONTINUOUS
 62
     3
 10
35.5
 20
0.0000000000000121
 30
0.0
 11
-35.5
 21
-0.0000000000000121
 31
0.0
210
0.0
220
1.0
230
-0.0000000000000002
  0
LINE
  5
267FA
  8
0
  6
CONTINUOUS
 62
     3
 10
36.5
 20
8.0000000000000089
 30
-0.0000000000000018
 11
-36.5
 21
7.9999999999999831
 31
-0.0000000000000018
210
0.0
220
1.0
230
-0.0000000000000002
  0
LINE
  5
267FB
  8
0
  6
CONTINUOUS
 62
     3
 10
49.5
 20
51.0415950941085512
 30
-0.0000000000000113
 11
-49.5000000000000213
 21
51.0415950941085228
 31
-0.0000000000000113
210
0.0
220
1.0
230
-0.0000000000000002
  0
LINE
  5
267FC
  8
0
  6
CONTINUOUS
 62
     3
 10
-35.5000000000000071
 20
-0.0000000000000129
 30
0.0
 11
-36.5000000000000071
 21
7.999999999999984
 31
-0.0000000000000018
210
0.0
220
1.0
230
-0.0000000000000002
  0
LINE
  5
267FD
  8
0
  6
CONTINUOUS
 62
     3
 10
35.5000000000000071
 20
0.0000000000000084
 30
0.0
 11
36.5000000000000071
 21
8.0000000000000089
 31
-0.0000000000000018
210
0.0
220
1.0
230
-0.0000000000000002
  0
LINE
  5
267FE
  8
0
  6
CONTINUOUS
 62
     3
 10
-36.5000000000000213
 20
7.9999999999999822
 30
-0.0000000000000018
 11
-36.5000000000000284
 21
31.9999999999999787
 31
-0.0000000000000071
210
0.0
220
1.0
230
-0.0000000000000002
  0
LINE
  5
267FF
  8
0
  6
CONTINUOUS
 62
     3
 10
36.5000000000000213
 20
8.0000000000000107
 30
-0.0000000000000018
 11
36.5
 21
32.0000000000000071
 31
-0.0000000000000071
210
0.0
220
1.0
230
-0.0000000000000002
  0
ARC
  5
26800
  8
0
  6
CONTINUOUS
 62
     3
 10
-41.5000000000000284
 20
32.0
 30
0.0
 40
5.0000000000000071
210
0.0
220
-0.0000000000000002
230
-1.0
 50
0.0000000000001272
 51
36.7985308346498883
  0
ARC
  5
26801
  8
0
  6
CONTINUOUS
 62
     3
 10
41.5000000000001066
 20
31.9999999999999609
 30
0.0
 40
5.0000000000000631
210
0.0
220
-0.0000000000000002
230
-1.0
 50
143.201469165350403
 51
179.999999999999801
  0
LINE
  5
26802
  8
0
  6
CONTINUOUS
 62
     3
 10
-37.4962663464380626
 20
34.9950153307345815
 30
-0.0000000000000078
 11
-49.5000000000000426
 21
51.0415950941085228
 31
-0.0000000000000113
210
0.0
220
1.0
230
-0.0000000000000002
  0
LINE
  5
26803
  8
0
  6
CONTINUOUS
 62
     3
 10
37.4962663464380412
 20
34.9950153307346028
 30
-0.0000000000000078
 11
49.5000000000000071
 21
51.041595094108537
 31
-0.0000000000000113
210
0.0
220
1.0
230
-0.0000000000000002
  0
LINE
  5
26804
  8
0
  6
CONTINUOUS
 62
     3
 10
48.2188052307847599
 20
52.0000000000000284
 30
-0.0000000000000115
 11
49.5
 21
51.0415950941085512
 31
-0.0000000000000113
210
0.0
220
1.0
230
-0.0000000000000002
  0
LINE
  5
26805
  8
0
  6
CONTINUOUS
 62
     3
 10
-48.2188052307848025
 20
52.0
 30
-0.0000000000000115
 11
-49.5000000000000213
 21
51.0415950941085228
 31
-0.0000000000000113
210
0.0
220
1.0
230
-0.0000000000000002
  0
LINE
  5
26806
  8
0
  6
CONTINUOUS
 62
     3
 10
49.4641308308352379
 20
52.0000000000000213
 30
-0.0000000000000115
 11
-49.4641308308352734
 21
52.0000000000000924
 31
-0.0000000000000115
210
0.0
220
1.0
230
-0.0000000000000002
  0
LINE
  5
26807
  8
0
  6
CONTINUOUS
 62
     3
 10
51.0000000000000284
 20
100.0
 30
-0.0000000000000222
 11
-51.0
 21
100.0
 31
-0.0000000000000222
210
0.0
220
1.0
230
-0.0000000000000002
  0
LINE
  5
26808
  8
0
  6
CONTINUOUS
 62
     3
 10
49.5063125973029727
 20
92.0000000000000142
 30
-0.0000000000000204
 11
49.5063125973029727
 21
85.0000000000000284
 31
-0.0000000000000189
210
0.0
220
1.0
230
-0.0000000000000002
  0
LINE
  5
26809
  8
0
  6
CONTINUOUS
 62
     3
 10
35.3641769735720004
 20
85.0000000000000284
 30
-0.0000000000000189
 11
49.5063125973029798
 21
85.0000000000000284
 31
-0.0000000000000189
210
0.0
220
1.0
230
-0.0000000000000002
  0
LINE
  5
2680A
  8
0
  6
CONTINUOUS
 62
     3
 10
35.3641769735720004
 20
85.0000000000000284
 30
-0.0000000000000189
 11
35.3641769735720075
 21
92.0000000000000142
 31
-0.0000000000000204
210
0.0
220
1.0
230
-0.0000000000000002
  0
LINE
  5
2680B
  8
0
  6
CONTINUOUS
 62
     3
 10
49.5063125973029869
 20
92.0000000000000142
 30
-0.0000000000000204
 11
35.3641769735720075
 21
92.0000000000000142
 31
-0.0000000000000204
210
0.0
220
1.0
230
-0.0000000000000002
  0
LINE
  5
2680C
  8
0
  6
CONTINUOUS
 62
     3
 10
-35.3641769735720075
 20
92.0000000000000568
 30
-0.0000000000000204
 11
-35.3641769735720075
 21
85.0000000000000568
 31
-0.0000000000000189
210
0.0
220
1.0
230
-0.0000000000000002
  0
LINE
  5
2680D
  8
0
  6
CONTINUOUS
 62
     3
 10
-49.5063125973029798
 20
85.0000000000000568
 30
-0.0000000000000189
 11
-35.3641769735720075
 21
85.0000000000000568
 31
-0.0000000000000189
210
0.0
220
1.0
230
-0.0000000000000002
  0
LINE
  5
2680E
  8
0
  6
CONTINUOUS
 62
     3
 10
-49.5063125973029727
 20
85.0000000000000568
 30
-0.0000000000000189
 11
-49.5063125973029727
 21
92.0000000000000568
 31
-0.0000000000000204
210
0.0
220
1.0
230
-0.0000000000000002
  0
LINE
  5
2680F
  8
0
  6
CONTINUOUS
 62
     3
 10
-35.3641769735720075
 20
92.0000000000000568
 30
-0.0000000000000204
 11
-49.5063125973029869
 21
92.0000000000000568
 31
-0.0000000000000204
210
0.0
220
1.0
230
-0.0000000000000002
  0
LINE
  5
26810
  8
0
  6
CONTINUOUS
 62
     3
 10
14.1421356237309706
 20
92.0000000000000142
 30
-0.0000000000000204
 11
14.1421356237309706
 21
85.0000000000000568
 31
-0.0000000000000189
210
0.0
220
1.0
230
-0.0000000000000002
  0
LINE
  5
26811
  8
0
  6
CONTINUOUS
 62
     3
 10
-14.1421356237309599
 20
85.0000000000000568
 30
-0.0000000000000189
 11
14.1421356237309599
 21
85.0000000000000568
 31
-0.0000000000000189
210
0.0
220
1.0
230
-0.0000000000000002
  0
LINE
  5
26812
  8
0
  6
CONTINUOUS
 62
     3
 10
-14.1421356237309599
 20
85.0000000000000568
 30
-0.0000000000000189
 11
-14.1421356237309599
 21
92.0000000000000142
 31
-0.0000000000000204
210
0.0
220
1.0
230
-0.0000000000000002
  0
LINE
  5
26813
  8
0
  6
CONTINUOUS
 62
     3
 10
14.1421356237309706
 20
92.0000000000000426
 30
-0.0000000000000204
 11
-14.1421356237309599
 21
92.0000000000000426
 31
-0.0000000000000204
210
0.0
220
1.0
230
-0.0000000000000002
  0
ARC
  5
26814
  8
0
  6
CONTINUOUS
 62
     3
 10
-50.0000000000000284
 20
60.0951232475672867
 30
0.0
 40
0.9999999999999644
210
0.0
220
-0.0000000000000002
230
-1.0
 50
180.0000000000003979
 51
190.8676216443390956
  0
ARC
  5
26815
  8
0
  6
CONTINUOUS
 62
     3
 10
50.0000000000000497
 20
60.0951232475673365
 30
0.0
 40
0.9999999999999646
210
0.0
220
-0.0000000000000002
230
-1.0
 50
349.132378355660876
 51
359.9999999999996021
  0
LINE
  5
26816
  8
0
  6
CONTINUOUS
 62
     3
 10
-49.4641308308352734
 20
52.0000000000000924
 30
-0.0000000000000115
 11
-50.9820654154176367
 21
59.9065827483619628
 31
-0.0000000000000133
210
0.0
220
1.0
230
-0.0000000000000002
  0
LINE
  5
26817
  8
0
  6
CONTINUOUS
 62
     3
 10
49.4641308308352379
 20
52.0000000000000497
 30
-0.0000000000000115
 11
50.9820654154176225
 21
59.9065827483619202
 31
-0.0000000000000133
210
0.0
220
1.0
230
-0.0000000000000002
  0
LINE
  5
26818
  8
0
  6
CONTINUOUS
 62
     3
 10
-51.0000000000000071
 20
60.0951232475673365
 30
-0.0000000000000133
 11
-51.0
 21
100.0
 31
-0.0000000000000222
210
0.0
220
1.0
230
-0.0000000000000002
  0
LINE
  5
26819
  8
0
  6
CONTINUOUS
 62
     3
 10
51.0
 20
60.0951232475672867
 30
-0.0000000000000133
 11
51.0000000000000071
 21
100.0
 31
-0.0000000000000222
210
0.0
220
1.0
230
-0.0000000000000002
  0
LINE
  5
2681A
  8
0
  6
VERDECKT
 62
     1
 10
34.8999999999058304
 20
8.0996123972834777
 30
-0.0000000000000018
 11
-34.8999999999058517
 21
8.0996123972834528
 31
-0.0000000000000018
210
0.0
220
1.0
230
-0.0000000000000002
  0
LINE
  5
2681B
  8
0
  6
VERDECKT
 62
     1
 10
33.9123553971647169
 20
0.198455575354422
 30
0.0
 11
-33.9123553971647169
 21
0.1984555753543989
 31
0.0
210
0.0
220
1.0
230
-0.0000000000000002
  0
ARC
  5
2681C
  8
0
  6
VERDECKT
 62
     1
 10
-41.5000000000000497
 20
32.0
 30
0.0
 40
6.600000000094183
210
0.0
220
-0.0000000000000002
230
-1.0
 50
0.0000000000001018
 51
36.7985308346498599
  0
ARC
  5
2681D
  8
0
  6
VERDECKT
 62
     1
 10
41.5000000000000284
 20
31.9999999999999893
 30
0.0
 40
6.600000000094127
210
0.0
220
-0.0000000000000002
230
-1.0
 50
143.2014691653500051
 51
179.9999999999998863
  0
LINE
  5
2681E
  8
0
  6
VERDECKT
 62
     1
 10
-34.8999999999058588
 20
8.0996123972834546
 30
-0.0000000000000018
 11
-34.899999999905873
 21
31.9999999999999893
 31
-0.0000000000000071
210
0.0
220
1.0
230
-0.0000000000000002
  0
LINE
  5
2681F
  8
0
  6
VERDECKT
 62
     1
 10
34.8999999999058588
 20
8.0996123972834813
 30
-0.0000000000000018
 11
34.8999999999058517
 21
32.0000000000000071
 31
-0.0000000000000071
210
0.0
220
1.0
230
-0.0000000000000002
  0
LINE
  5
26820
  8
0
  6
VERDECKT
 62
     1
 10
-33.9123553971647098
 20
0.198455575354398
 30
0.0
 11
-34.8999999999058517
 21
8.0996123972834528
 31
-0.0000000000000018
210
0.0
220
1.0
230
-0.0000000000000002
  0
LINE
  5
26821
  8
0
  6
VERDECKT
 62
     1
 10
33.9123553971647098
 20
0.1984555753544193
 30
0.0
 11
34.8999999999058517
 21
8.0996123972834813
 31
-0.0000000000000018
210
0.0
220
1.0
230
-0.0000000000000002
  0
LINE
  5
26822
  8
0
  6
VERDECKT
 62
     1
 10
33.9123553971647098
 20
0.1984555753544275
 30
0.0
 11
35.5
 21
0.0000000000000162
 31
0.0
210
0.0
220
1.0
230
-0.0000000000000002
  0
LINE
  5
26823
  8
0
  6
VERDECKT
 62
     1
 10
-33.9123553971647098
 20
0.1984555753544044
 30
0.0
 11
-35.5
 21
-0.000000000000008
 31
0.0
210
0.0
220
1.0
230
-0.0000000000000002
  0
LINE
  5
26824
  8
0
  6
VERDECKT
 62
     1
 10
-36.2150715772228011
 20
35.9534202366260729
 30
-0.000000000000008
 11
-48.2188052307848025
 21
52.0
 31
-0.0000000000000115
210
0.0
220
1.0
230
-0.0000000000000002
  0
LINE
  5
26825
  8
0
  6
VERDECKT
 62
     1
 10
36.2150715772227869
 20
35.9534202366261013
 30
-0.000000000000008
 11
48.2188052307847599
 21
52.0000000000000284
 31
-0.0000000000000115
210
0.0
220
1.0
230
-0.0000000000000002
  0
LINE
  5
26826
  8
0
  6
VERDECKT
 62
     1
 10
24.7990381056794185
 20
78.4547005383793419
 30
-0.0000000000000174
 11
24.7990381056794185
 21
88.3452994616207548
 31
-0.0000000000000196
210
0.0
220
1.0
230
-0.0000000000000002
  0
LINE
  5
26827
  8
0
  6
VERDECKT
 62
     1
 10
24.7990381056794185
 20
88.3452994616207548
 30
-0.0000000000000196
 11
22.2009618943260882
 21
88.3452994616207548
 31
-0.0000000000000196
210
0.0
220
1.0
230
-0.0000000000000002
  0
LINE
  5
26828
  8
0
  6
VERDECKT
 62
     1
 10
22.2009618943260882
 20
78.4547005383793419
 30
-0.0000000000000174
 11
22.2009618943260882
 21
88.3452994616207548
 31
-0.0000000000000196
210
0.0
220
1.0
230
-0.0000000000000002
  0
LINE
  5
26829
  8
0
  6
VERDECKT
 62
     1
 10
24.7990381056794185
 20
78.4547005383793419
 30
-0.0000000000000174
 11
22.2009618943260882
 21
78.4547005383793419
 31
-0.0000000000000174
210
0.0
220
1.0
230
-0.0000000000000002
  0
LINE
  5
2682A
  8
0
  6
VERDECKT
 62
     1
 10
25.7990381056794114
 20
77.3000000000000966
 30
-0.0000000000000172
 11
24.7990381056794185
 21
78.4547005383793419
 31
-0.0000000000000174
210
0.0
220
1.0
230
-0.0000000000000002
  0
LINE
  5
2682B
  8
0
  6
VERDECKT
 62
     1
 10
23.2009618943260882
 20
77.3000000000000966
 30
-0.0000000000000172
 11
22.2009618943260882
 21
78.4547005383793419
 31
-0.0000000000000174
210
0.0
220
1.0
230
-0.0000000000000002
  0
LINE
  5
2682C
  8
0
  6
VERDECKT
 62
     1
 10
25.7990381056794114
 20
77.3000000000000966
 30
-0.0000000000000172
 11
23.2009618943260882
 21
77.3000000000000966
 31
-0.0000000000000172
210
0.0
220
1.0
230
-0.0000000000000002
  0
LINE
  5
2682D
  8
0
  6
VERDECKT
 62
     1
 10
25.7990381056794114
 20
74.8000000000000824
 30
-0.0000000000000166
 11
25.7990381056794114
 21
77.3000000000000966
 31
-0.0000000000000172
210
0.0
220
1.0
230
-0.0000000000000002
  0
LINE
  5
2682E
  8
0
  6
VERDECKT
 62
     1
 10
23.2009618943260882
 20
74.8000000000000824
 30
-0.0000000000000166
 11
23.2009618943260882
 21
77.3000000000000966
 31
-0.0000000000000172
210
0.0
220
1.0
230
-0.0000000000000002
  0
LINE
  5
2682F
  8
0
  6
VERDECKT
 62
     1
 10
25.7990381056794114
 20
74.8000000000000824
 30
-0.0000000000000166
 11
23.2009618943260882
 21
74.8000000000000824
 31
-0.0000000000000166
210
0.0
220
1.0
230
-0.0000000000000002
  0
LINE
  5
26830
  8
0
  6
VERDECKT
 62
     1
 10
19.7009618943260705
 20
74.8000000000001251
 30
-0.0000000000000166
 11
23.2009618943260882
 21
74.8000000000000824
 31
-0.0000000000000166
210
0.0
220
1.0
230
-0.0000000000000002
  0
LINE
  5
26831
  8
0
  6
VERDECKT
 62
     1
 10
15.2990381056794593
 20
79.8000000000001393
 30
-0.0000000000000177
 11
22.2990381056794007
 21
74.8000000000001251
 31
-0.0000000000000166
210
0.0
220
1.0
230
-0.0000000000000002
  0
LINE
  5
26832
  8
0
  6
VERDECKT
 62
     1
 10
12.7009618943261398
 20
79.8000000000001393
 30
-0.0000000000000177
 11
19.7009618943260811
 21
74.8000000000001251
 31
-0.0000000000000166
210
0.0
220
1.0
230
-0.0000000000000002
  0
LINE
  5
26833
  8
0
  6
VERDECKT
 62
     1
 10
15.2990381056794593
 20
79.8000000000001393
 30
-0.0000000000000177
 11
12.7009618943261398
 21
79.8000000000001393
 31
-0.0000000000000177
210
0.0
220
1.0
230
-0.0000000000000002
  0
LINE
  5
26834
  8
0
  6
VERDECKT
 62
     1
 10
9.2009618943261664
 20
79.8000000000000824
 30
-0.0000000000000177
 11
12.7009618943261398
 21
79.8000000000001393
 31
-0.0000000000000177
210
0.0
220
1.0
230
-0.0000000000000002
  0
LINE
  5
26835
  8
0
  6
VERDECKT
 62
     1
 10
11.7990381056794504
 20
86.9999999999999432
 30
-0.0000000000000193
 11
11.7990381056794806
 21
79.8000000000000824
 31
-0.0000000000000177
210
0.0
220
1.0
230
-0.0000000000000002
  0
LINE
  5
26836
  8
0
  6
VERDECKT
 62
     1
 10
9.2009618943261309
 20
86.9999999999999432
 30
-0.0000000000000193
 11
9.2009618943261664
 21
79.8000000000000824
 31
-0.0000000000000177
210
0.0
220
1.0
230
-0.0000000000000002
  0
LINE
  5
26837
  8
0
  6
VERDECKT
 62
     1
 10
12.7009618943261309
 20
86.9999999999999432
 30
-0.0000000000000193
 11
9.2009618943261309
 21
86.9999999999999432
 31
-0.0000000000000193
210
0.0
220
1.0
230
-0.0000000000000002
  0
LINE
  5
26838
  8
0
  6
VERDECKT
 62
     1
 10
15.2990381056794504
 20
86.9999999999999432
 30
-0.0000000000000193
 11
12.7009618943261309
 21
86.9999999999999432
 31
-0.0000000000000193
210
0.0
220
1.0
230
-0.0000000000000002
  0
LINE
  5
26839
  8
0
  6
VERDECKT
 62
     1
 10
22.2990381056794114
 20
91.9999999999999432
 30
-0.0000000000000204
 11
15.2990381056794504
 21
86.9999999999999432
 31
-0.0000000000000193
210
0.0
220
1.0
230
-0.0000000000000002
  0
LINE
  5
2683A
  8
0
  6
VERDECKT
 62
     1
 10
19.7009618943260882
 20
91.9999999999999432
 30
-0.0000000000000204
 11
12.7009618943261309
 21
86.9999999999999432
 31
-0.0000000000000193
210
0.0
220
1.0
230
-0.0000000000000002
  0
LINE
  5
2683B
  8
0
  6
VERDECKT
 62
     1
 10
23.2009618943260811
 20
92.0000000000000142
 30
-0.0000000000000204
 11
19.7009618943260811
 21
91.9999999999999432
 31
-0.0000000000000204
210
0.0
220
1.0
230
-0.0000000000000002
  0
LINE
  5
2683C
  8
0
  6
VERDECKT
 62
     1
 10
25.7990381056794007
 20
92.0000000000000142
 30
-0.0000000000000204
 11
23.2009618943260811
 21
92.0000000000000142
 31
-0.0000000000000204
210
0.0
220
1.0
230
-0.0000000000000002
  0
LINE
  5
2683D
  8
0
  6
VERDECKT
 62
     1
 10
25.7990381056794114
 20
89.4999999999999858
 30
-0.0000000000000199
 11
25.7990381056794007
 21
92.0000000000000142
 31
-0.0000000000000204
210
0.0
220
1.0
230
-0.0000000000000002
  0
LINE
  5
2683E
  8
0
  6
VERDECKT
 62
     1
 10
23.2009618943260882
 20
89.4999999999999858
 30
-0.0000000000000199
 11
23.2009618943260811
 21
92.0000000000000142
 31
-0.0000000000000204
210
0.0
220
1.0
230
-0.0000000000000002
  0
LINE
  5
2683F
  8
0
  6
VERDECKT
 62
     1
 10
25.7990381056794114
 20
89.4999999999999858
 30
-0.0000000000000199
 11
23.2009618943260882
 21
89.4999999999999858
 31
-0.0000000000000199
210
0.0
220
1.0
230
-0.0000000000000002
  0
LINE
  5
26840
  8
0
  6
VERDECKT
 62
     1
 10
24.7990381056794185
 20
88.3452994616207548
 30
-0.0000000000000196
 11
25.7990381056794114
 21
89.4999999999999858
 31
-0.0000000000000199
210
0.0
220
1.0
230
-0.0000000000000002
  0
LINE
  5
26841
  8
0
  6
VERDECKT
 62
     1
 10
22.2009618943260882
 20
88.3452994616207548
 30
-0.0000000000000196
 11
23.2009618943260882
 21
89.4999999999999858
 31
-0.0000000000000199
210
0.0
220
1.0
230
-0.0000000000000002
  0
LINE
  5
26842
  8
0
  6
VERDECKT
 62
     1
 10
33.7749907475931224
 20
92.0000000000000142
 30
-0.0000000000000204
 11
33.7749907475931082
 21
85.0000000000000284
 31
-0.0000000000000189
210
0.0
220
1.0
230
-0.0000000000000002
  0
LINE
  5
26843
  8
0
  6
VERDECKT
 62
     1
 10
35.3641769735720075
 20
85.0000000000000284
 30
-0.0000000000000189
 11
33.7749907475931224
 21
85.0000000000000284
 31
-0.0000000000000189
210
0.0
220
1.0
230
-0.0000000000000002
  0
LINE
  5
26844
  8
0
  6
VERDECKT
 62
     1
 10
47.6313972081441221
 20
85.0000000000000284
 30
-0.0000000000000189
 11
47.6313972081441293
 21
92.0000000000000142
 31
-0.0000000000000204
210
0.0
220
1.0
230
-0.0000000000000002
  0
LINE
  5
26845
  8
0
  6
VERDECKT
 62
     1
 10
33.7749907475931082
 20
92.0000000000000142
 30
-0.0000000000000204
 11
35.3641769735720075
 21
92.0000000000000142
 31
-0.0000000000000204
210
0.0
220
1.0
230
-0.0000000000000002
  0
LINE
  5
26846
  8
0
  6
VERDECKT
 62
     1
 10
-47.6313972081441435
 20
92.0000000000000568
 30
-0.0000000000000204
 11
-47.6313972081441435
 21
85.0000000000000568
 31
-0.0000000000000189
210
0.0
220
1.0
230
-0.0000000000000002
  0
LINE
  5
26847
  8
0
  6
VERDECKT
 62
     1
 10
-33.7749907475931224
 20
85.0000000000000568
 30
-0.0000000000000189
 11
-35.3641769735720075
 21
85.0000000000000568
 31
-0.0000000000000189
210
0.0
220
1.0
230
-0.0000000000000002
  0
LINE
  5
26848
  8
0
  6
VERDECKT
 62
     1
 10
-33.7749907475930868
 20
85.0000000000000568
 30
-0.0000000000000189
 11
-33.7749907475930797
 21
92.0000000000000568
 31
-0.0000000000000204
210
0.0
220
1.0
230
-0.0000000000000002
  0
LINE
  5
26849
  8
0
  6
VERDECKT
 62
     1
 10
-35.3641769735720075
 20
92.0000000000000568
 30
-0.0000000000000204
 11
-33.7749907475931224
 21
92.0000000000000568
 31
-0.0000000000000204
210
0.0
220
1.0
230
-0.0000000000000002
  0
LINE
  5
2684A
  8
0
  6
VERDECKT
 62
     1
 10
-13.8564064605510193
 20
92.0000000000000426
 30
-0.0000000000000204
 11
-13.8564064605510193
 21
85.0000000000000568
 31
-0.0000000000000189
210
0.0
220
1.0
230
-0.0000000000000002
  0
LINE
  5
2684B
  8
0
  6
VERDECKT
 62
     1
 10
13.8564064605510193
 20
85.0000000000000568
 30
-0.0000000000000189
 11
13.8564064605510193
 21
92.0000000000000426
 31
-0.0000000000000204
210
0.0
220
1.0
230
-0.0000000000000002
  0
LINE
  5
2684C
  8
0
  6
VERDECKT
 62
     1
 10
47.4999999999999929
 20
52.3770809984107686
 30
-0.0000000000000116
 11
-47.5000000000000071
 21
52.3770809984107899
 31
-0.0000000000000116
210
0.0
220
1.0
230
-0.0000000000000002
  0
ARC
  5
2684D
  8
0
  6
VERDECKT
 62
     1
 10
-48.0000000000000995
 20
60.2853697427019384
 30
0.0
 40
0.9999999999998934
210
0.0
220
-0.0000000000000002
230
-1.0
 50
180.0
 51
190.8676216443394082
  0
ARC
  5
2684E
  8
0
  6
VERDECKT
 62
     1
 10
47.9999999999999218
 20
60.2853697427019881
 30
0.0
 40
1.000000000000077
210
0.0
220
-0.0000000000000002
230
-1.0
 50
349.1323783556616718
 51
359.9999999999996021
  0
LINE
  5
2684F
  8
0
  6
VERDECKT
 62
     1
 10
-49.0000000000000071
 20
60.2853697427019881
 30
-0.0000000000000134
 11
-48.9999999999999929
 21
100.0
 31
-0.0000000000000222
210
0.0
220
1.0
230
-0.0000000000000002
  0
LINE
  5
26850
  8
0
  6
VERDECKT
 62
     1
 10
48.9999999999999929
 20
60.2853697427019384
 30
-0.0000000000000134
 11
49.0000000000000071
 21
100.0
 31
-0.0000000000000222
210
0.0
220
1.0
230
-0.0000000000000002
  0
LINE
  5
26851
  8
0
  6
VERDECKT
 62
     1
 10
-47.5
 20
52.3770809984107828
 30
-0.0000000000000116
 11
-48.9820654154176367
 21
60.0968292434966074
 31
-0.0000000000000133
210
0.0
220
1.0
230
-0.0000000000000002
  0
LINE
  5
26852
  8
0
  6
VERDECKT
 62
     1
 10
47.4999999999999787
 20
52.3770809984107686
 30
-0.0000000000000116
 11
48.9820654154176012
 21
60.0968292434965718
 31
-0.0000000000000133
210
0.0
220
1.0
230
-0.0000000000000002
  0
LINE
  5
26853
  8
0
  6
VERDECKT
 62
     1
 10
47.4999999999999929
 20
52.3770809984107686
 30
-0.0000000000000116
 11
49.4641308308352379
 21
52.0000000000000497
 31
-0.0000000000000115
210
0.0
220
1.0
230
-0.0000000000000002
  0
LINE
  5
26854
  8
0
  6
VERDECKT
 62
     1
 10
-47.5000000000000071
 20
52.3770809984108112
 30
-0.0000000000000116
 11
-49.4641308308352734
 21
52.0000000000000924
 31
-0.0000000000000115
210
0.0
220
1.0
230
-0.0000000000000002
  0
ENDBLK
  5
26856
  8
0
  0
BLOCK
  8
0
  2
A$C7DFB0B4D
 70
     0
 10
0.0
 20
0.0
 30
0.0
  3
A$C7DFB0B4D
  1

  0
LINE
  5
2685A
  8
0
  6
CONTINUOUS
 62
     3
 10
35.5
 20
-0.0000000000000079
 30
0.0
 11
0.0
 21
0.0000000000000121
 31
0.0
210
0.0000000000000002
220
1.0
230
-0.0000000000000002
  0
LINE
  5
2685B
  8
0
  6
CONTINUOUS
 62
     3
 10
-0.0000000000000115
 20
0.0000000000000121
 30
0.0
 11
-35.5
 21
0.0000000000000079
 31
0.0
210
0.0000000000000002
220
1.0
230
-0.0000000000000002
  0
LINE
  5
2685C
  8
0
  6
CONTINUOUS
 62
     3
 10
36.5
 20
7.9999999999999867
 30
-0.0000000000000018
 11
0.0000000000000018
 21
8.0000000000000089
 31
-0.0000000000000018
210
0.0000000000000002
220
1.0
230
-0.0000000000000002
  0
LINE
  5
2685D
  8
0
  6
CONTINUOUS
 62
     3
 10
-0.0000000000000066
 20
8.0000000000000089
 30
-0.0000000000000018
 11
-36.5
 21
8.0000000000000036
 31
-0.0000000000000018
210
0.0000000000000002
220
1.0
230
-0.0000000000000002
  0
LINE
  5
2685E
  8
0
  6
CONTINUOUS
 62
     3
 10
49.5000000000000213
 20
51.0415950941085228
 30
-0.0000000000000113
 11
0.0000000000000113
 21
51.0415950941085512
 31
-0.0000000000000113
210
0.0000000000000002
220
1.0
230
-0.0000000000000002
  0
LINE
  5
2685F
  8
0
  6
CONTINUOUS
 62
     3
 10
-0.0000000000000037
 20
51.0415950941085512
 30
-0.0000000000000113
 11
-49.5
 21
51.0415950941085512
 31
-0.0000000000000113
210
0.0000000000000002
220
1.0
230
-0.0000000000000002
  0
LINE
  5
26860
  8
0
  6
CONTINUOUS
 62
     3
 10
-35.5000000000000071
 20
0.0000000000000074
 30
0.0
 11
-36.5000000000000071
 21
8.0000000000000036
 31
-0.0000000000000018
210
0.0000000000000002
220
1.0
230
-0.0000000000000002
  0
LINE
  5
26861
  8
0
  6
CONTINUOUS
 62
     3
 10
35.5000000000000071
 20
-0.0000000000000083
 30
0.0
 11
36.5000000000000071
 21
7.9999999999999858
 31
-0.0000000000000018
210
0.0000000000000002
220
1.0
230
-0.0000000000000002
  0
LINE
  5
26862
  8
0
  6
CONTINUOUS
 62
     3
 10
-36.5000000000000213
 20
8.0000000000000036
 30
-0.0000000000000018
 11
-36.5000000000000071
 21
32.0
 31
-0.0000000000000071
210
0.0000000000000002
220
1.0
230
-0.0000000000000002
  0
LINE
  5
26863
  8
0
  6
CONTINUOUS
 62
     3
 10
36.5000000000000213
 20
7.9999999999999858
 30
-0.0000000000000018
 11
36.5000000000000213
 21
31.9999999999999893
 31
-0.0000000000000071
210
0.0000000000000002
220
1.0
230
-0.0000000000000002
  0
ARC
  5
26864
  8
0
  6
CONTINUOUS
 62
     3
 10
-41.5000000000001066
 20
31.9999999999999716
 30
0.0
 40
5.0000000000000631
210
0.0
220
-0.0000000000000002
230
-1.0
 50
0.0000000000002163
 51
36.7985308346496396
  0
ARC
  5
26865
  8
0
  6
CONTINUOUS
 62
     3
 10
41.5000000000000995
 20
31.9999999999999893
 30
0.0
 40
5.0000000000000639
210
0.0
220
-0.0000000000000002
230
-1.0
 50
143.201469165350403
 51
179.999999999999801
  0
LINE
  5
26866
  8
0
  6
CONTINUOUS
 62
     3
 10
-37.4962663464380412
 20
34.9950153307346028
 30
-0.0000000000000078
 11
-49.5000000000000071
 21
51.041595094108537
 31
-0.0000000000000113
210
0.0000000000000002
220
1.0
230
-0.0000000000000002
  0
LINE
  5
26867
  8
0
  6
CONTINUOUS
 62
     3
 10
37.4962663464380626
 20
34.9950153307345815
 30
-0.0000000000000078
 11
49.5000000000000284
 21
51.0415950941085228
 31
-0.0000000000000113
210
0.0000000000000002
220
1.0
230
-0.0000000000000002
  0
LINE
  5
26868
  8
0
  6
CONTINUOUS
 62
     3
 10
48.2188052307848025
 20
52.0000000000000071
 30
-0.0000000000000115
 11
49.5000000000000213
 21
51.0415950941085228
 31
-0.0000000000000113
210
0.0000000000000002
220
1.0
230
-0.0000000000000002
  0
LINE
  5
26869
  8
0
  6
CONTINUOUS
 62
     3
 10
-48.2188052307847599
 20
52.0000000000000284
 30
-0.0000000000000115
 11
-49.5
 21
51.0415950941085512
 31
-0.0000000000000113
210
0.0000000000000002
220
1.0
230
-0.0000000000000002
  0
LINE
  5
2686A
  8
0
  6
CONTINUOUS
 62
     3
 10
49.4641308308352734
 20
52.0000000000000497
 30
-0.0000000000000115
 11
0.0000000000000115
 21
52.0000000000000426
 31
-0.0000000000000115
210
0.0000000000000002
220
1.0
230
-0.0000000000000002
  0
LINE
  5
2686B
  8
0
  6
CONTINUOUS
 62
     3
 10
0.0000000000000035
 20
52.0000000000000426
 30
-0.0000000000000115
 11
-49.4641308308352379
 21
52.0000000000000782
 31
-0.0000000000000115
210
0.0000000000000002
220
1.0
230
-0.0000000000000002
  0
LINE
  5
2686C
  8
0
  6
CONTINUOUS
 62
     3
 10
51.0000000000000213
 20
100.0
 30
-0.0000000000000222
 11
0.0000000000000222
 21
100.0
 31
-0.0000000000000222
210
0.0000000000000002
220
1.0
230
-0.0000000000000002
  0
LINE
  5
2686D
  8
0
  6
CONTINUOUS
 62
     3
 10
0.000000000000007
 20
100.0
 30
-0.0000000000000222
 11
-50.9999999999999716
 21
100.0
 31
-0.0000000000000222
210
0.0000000000000002
220
1.0
230
-0.0000000000000002
  0
LINE
  5
2686E
  8
0
  6
CONTINUOUS
 62
     3
 10
49.0000000000000213
 20
85.0000000000000284
 30
-0.0000000000000189
 11
51.0000000000000284
 21
85.0000000000000284
 31
-0.0000000000000189
210
0.0000000000000002
220
1.0
230
-0.0000000000000002
  0
LINE
  5
2686F
  8
0
  6
CONTINUOUS
 62
     3
 10
49.0000000000000213
 20
85.0000000000000284
 30
-0.0000000000000189
 11
49.0000000000000213
 21
92.0000000000000142
 31
-0.0000000000000204
210
0.0000000000000002
220
1.0
230
-0.0000000000000002
  0
LINE
  5
26870
  8
0
  6
CONTINUOUS
 62
     3
 10
51.0000000000000284
 20
92.0000000000000142
 30
-0.0000000000000204
 11
49.0000000000000213
 21
92.0000000000000142
 31
-0.0000000000000204
210
0.0000000000000002
220
1.0
230
-0.0000000000000002
  0
LINE
  5
26871
  8
0
  6
CONTINUOUS
 62
     3
 10
-12.2525512860840795
 20
92.0000000000000142
 30
-0.0000000000000204
 11
-12.2525512860840795
 21
85.0000000000000284
 31
-0.0000000000000189
210
0.0000000000000002
220
1.0
230
-0.0000000000000002
  0
LINE
  5
26872
  8
0
  6
CONTINUOUS
 62
     3
 10
-36.747448713915901
 20
85.0000000000000568
 30
-0.0000000000000189
 11
-12.2525512860840902
 21
85.0000000000000284
 31
-0.0000000000000189
210
0.0000000000000002
220
1.0
230
-0.0000000000000002
  0
LINE
  5
26873
  8
0
  6
CONTINUOUS
 62
     3
 10
-36.747448713915901
 20
85.0000000000000568
 30
-0.0000000000000189
 11
-36.747448713915901
 21
92.0000000000000426
 31
-0.0000000000000204
210
0.0000000000000002
220
1.0
230
-0.0000000000000002
  0
LINE
  5
26874
  8
0
  6
CONTINUOUS
 62
     3
 10
-12.2525512860840795
 20
92.0000000000000142
 30
-0.0000000000000204
 11
-36.747448713915901
 21
92.0000000000000426
 31
-0.0000000000000204
210
0.0000000000000002
220
1.0
230
-0.0000000000000002
  0
LINE
  5
26875
  8
0
  6
CONTINUOUS
 62
     3
 10
-48.9999999999999716
 20
92.0000000000000426
 30
-0.0000000000000204
 11
-48.9999999999999716
 21
85.0000000000000568
 31
-0.0000000000000189
210
0.0000000000000002
220
1.0
230
-0.0000000000000002
  0
LINE
  5
26876
  8
0
  6
CONTINUOUS
 62
     3
 10
-50.9999999999999929
 20
85.0000000000000568
 30
-0.0000000000000189
 11
-48.9999999999999787
 21
85.0000000000000568
 31
-0.0000000000000189
210
0.0000000000000002
220
1.0
230
-0.0000000000000002
  0
LINE
  5
26877
  8
0
  6
CONTINUOUS
 62
     3
 10
-48.9999999999999716
 20
92.0000000000000568
 30
-0.0000000000000204
 11
-50.9999999999999787
 21
92.0000000000000568
 31
-0.0000000000000204
210
0.0000000000000002
220
1.0
230
-0.0000000000000002
  0
ARC
  5
26878
  8
0
  6
CONTINUOUS
 62
     3
 10
-50.0000000000001279
 20
60.0951232475672867
 30
0.0
 40
0.9999999999998935
210
0.0
220
-0.0000000000000002
230
-1.0
 50
180.0
 51
190.8676216443394082
  0
ARC
  5
26879
  8
0
  6
CONTINUOUS
 62
     3
 10
50.0000000000000995
 20
60.0951232475673223
 30
0.0
 40
0.9999999999998935
210
0.0
220
-0.0000000000000002
230
-1.0
 50
349.1323783556604781
 51
0.0000000000000127
  0
LINE
  5
2687A
  8
0
  6
CONTINUOUS
 62
     3
 10
-49.4641308308352379
 20
52.0000000000000782
 30
-0.0000000000000115
 11
-50.9820654154176083
 21
59.9065827483619628
 31
-0.0000000000000133
210
0.0000000000000002
220
1.0
230
-0.0000000000000002
  0
LINE
  5
2687B
  8
0
  6
CONTINUOUS
 62
     3
 10
49.4641308308352734
 20
52.0000000000000497
 30
-0.0000000000000115
 11
50.9820654154176367
 21
59.9065827483619202
 31
-0.0000000000000133
210
0.0000000000000002
220
1.0
230
-0.0000000000000002
  0
LINE
  5
2687C
  8
0
  6
CONTINUOUS
 62
     3
 10
-50.9999999999999929
 20
60.0951232475673294
 30
-0.0000000000000133
 11
-50.9999999999999787
 21
85.0000000000000568
 31
-0.0000000000000189
210
0.0000000000000002
220
1.0
230
-0.0000000000000002
  0
LINE
  5
2687D
  8
0
  6
CONTINUOUS
 62
     3
 10
-50.9999999999999787
 20
92.0000000000000568
 30
-0.0000000000000204
 11
-50.9999999999999787
 21
100.0
 31
-0.0000000000000222
210
0.0000000000000002
220
1.0
230
-0.0000000000000002
  0
LINE
  5
2687E
  8
0
  6
CONTINUOUS
 62
     3
 10
51.0000000000000213
 20
60.095123247567301
 30
-0.0000000000000133
 11
51.0000000000000284
 21
85.0000000000000284
 31
-0.0000000000000189
210
0.0000000000000002
220
1.0
230
-0.0000000000000002
  0
LINE
  5
2687F
  8
0
  6
CONTINUOUS
 62
     3
 10
51.0000000000000284
 20
92.0000000000000142
 30
-0.0000000000000204
 11
51.0000000000000284
 21
100.0
 31
-0.0000000000000222
210
0.0000000000000002
220
1.0
230
-0.0000000000000002
  0
LINE
  5
26880
  8
0
  6
VERDECKT
 62
     1
 10
34.8999999999058304
 20
8.0996123972834564
 30
-0.0000000000000018
 11
0.0000000000000018
 21
8.0996123972834777
 31
-0.0000000000000018
210
0.0000000000000002
220
1.0
230
-0.0000000000000002
  0
LINE
  5
26881
  8
0
  6
VERDECKT
 62
     1
 10
-0.0000000000000031
 20
8.0996123972834777
 30
-0.0000000000000018
 11
-34.8999999999058517
 21
8.0996123972834724
 31
-0.0000000000000018
210
0.0000000000000002
220
1.0
230
-0.0000000000000002
  0
LINE
  5
26882
  8
0
  6
VERDECKT
 62
     1
 10
33.9123553971647098
 20
0.1984555753544029
 30
0.0
 11
0.0
 21
0.198455575354422
 31
0.0
210
0.0000000000000002
220
1.0
230
-0.0000000000000002
  0
LINE
  5
26883
  8
0
  6
VERDECKT
 62
     1
 10
-0.0000000000000092
 20
0.198455575354422
 30
0.0
 11
-33.9123553971647169
 21
0.198455575354418
 31
0.0
210
0.0000000000000002
220
1.0
230
-0.0000000000000002
  0
ARC
  5
26884
  8
0
  6
VERDECKT
 62
     1
 10
-41.5000000000000568
 20
31.9999999999999787
 30
0.0
 40
6.6000000000941696
210
0.0
220
-0.0000000000000002
230
-1.0
 50
0.0000000000000763
 51
36.798530834649867
  0
ARC
  5
26885
  8
0
  6
VERDECKT
 62
     1
 10
41.5
 20
32.0000000000000071
 30
0.0
 40
6.6000000000941199
210
0.0
220
-0.0000000000000002
230
-1.0
 50
143.2014691653500051
 51
180.0
  0
LINE
  5
26886
  8
0
  6
VERDECKT
 62
     1
 10
-34.8999999999058588
 20
8.0996123972834742
 30
-0.0000000000000018
 11
-34.8999999999058517
 21
32.0000000000000071
 31
-0.0000000000000071
210
0.0000000000000002
220
1.0
230
-0.0000000000000002
  0
LINE
  5
26887
  8
0
  6
VERDECKT
 62
     1
 10
34.8999999999058588
 20
8.0996123972834582
 30
-0.0000000000000018
 11
34.899999999905873
 21
31.9999999999999893
 31
-0.0000000000000071
210
0.0000000000000002
220
1.0
230
-0.0000000000000002
  0
LINE
  5
26888
  8
0
  6
VERDECKT
 62
     1
 10
-33.9123553971647098
 20
0.1984555753544171
 30
0.0
 11
-34.8999999999058517
 21
8.0996123972834724
 31
-0.0000000000000018
210
0.0000000000000002
220
1.0
230
-0.0000000000000002
  0
LINE
  5
26889
  8
0
  6
VERDECKT
 62
     1
 10
33.9123553971647098
 20
0.198455575354402
 30
0.0
 11
34.8999999999058517
 21
8.0996123972834582
 31
-0.0000000000000018
210
0.0000000000000002
220
1.0
230
-0.0000000000000002
  0
LINE
  5
2688A
  8
0
  6
VERDECKT
 62
     1
 10
33.9123553971647098
 20
0.1984555753544085
 30
0.0
 11
35.5
 21
-0.0000000000000038
 31
0.0
210
0.0000000000000002
220
1.0
230
-0.0000000000000002
  0
LINE
  5
2688B
  8
0
  6
VERDECKT
 62
     1
 10
-33.9123553971647098
 20
0.1984555753544235
 30
0.0
 11
-35.5
 21
0.0000000000000119
 31
0.0
210
0.0000000000000002
220
1.0
230
-0.0000000000000002
  0
LINE
  5
2688C
  8
0
  6
VERDECKT
 62
     1
 10
-36.2150715772227798
 20
35.9534202366260871
 30
-0.000000000000008
 11
-48.2188052307847599
 21
52.0000000000000213
 31
-0.0000000000000115
210
0.0000000000000002
220
1.0
230
-0.0000000000000002
  0
LINE
  5
2688D
  8
0
  6
VERDECKT
 62
     1
 10
36.2150715772227869
 20
35.9534202366260729
 30
-0.000000000000008
 11
48.2188052307847883
 21
52.0
 31
-0.0000000000000115
210
0.0000000000000002
220
1.0
230
-0.0000000000000002
  0
LINE
  5
2688E
  8
0
  6
VERDECKT
 62
     1
 10
39.953193977867393
 20
78.4547005383793135
 30
-0.0000000000000174
 11
39.9531939778674001
 21
88.3452994616207548
 31
-0.0000000000000196
210
0.0000000000000002
220
1.0
230
-0.0000000000000002
  0
LINE
  5
2688F
  8
0
  6
VERDECKT
 62
     1
 10
39.953193977867393
 20
78.4547005383793135
 30
-0.0000000000000174
 11
41.4531939778673788
 21
78.4547005383793135
 31
-0.0000000000000174
210
0.0000000000000002
220
1.0
230
-0.0000000000000002
  0
LINE
  5
26890
  8
0
  6
VERDECKT
 62
     1
 10
41.4531939778673788
 20
78.4547005383793135
 30
-0.0000000000000174
 11
41.453193977867393
 21
88.3452994616207548
 31
-0.0000000000000196
210
0.0000000000000002
220
1.0
230
-0.0000000000000002
  0
LINE
  5
26891
  8
0
  6
VERDECKT
 62
     1
 10
39.9531939778674001
 20
88.3452994616207548
 30
-0.0000000000000196
 11
41.453193977867393
 21
88.3452994616207548
 31
-0.0000000000000196
210
0.0000000000000002
220
1.0
230
-0.0000000000000002
  0
LINE
  5
26892
  8
0
  6
VERDECKT
 62
     1
 10
41.6852447854362609
 20
77.3000000000000824
 30
-0.0000000000000172
 11
39.953193977867393
 21
78.4547005383793135
 31
-0.0000000000000174
210
0.0000000000000002
220
1.0
230
-0.0000000000000002
  0
LINE
  5
26893
  8
0
  6
VERDECKT
 62
     1
 10
41.6852447854362609
 20
77.3000000000000824
 30
-0.0000000000000172
 11
43.1852447854362609
 21
77.3000000000000824
 31
-0.0000000000000172
210
0.0000000000000002
220
1.0
230
-0.0000000000000002
  0
LINE
  5
26894
  8
0
  6
VERDECKT
 62
     1
 10
43.1852447854362609
 20
77.3000000000000824
 30
-0.0000000000000172
 11
41.4531939778673788
 21
78.4547005383793135
 31
-0.0000000000000174
210
0.0000000000000002
220
1.0
230
-0.0000000000000002
  0
LINE
  5
26895
  8
0
  6
VERDECKT
 62
     1
 10
41.6852447854362609
 20
74.8000000000000682
 30
-0.0000000000000166
 11
41.6852447854362609
 21
77.3000000000000824
 31
-0.0000000000000172
210
0.0000000000000002
220
1.0
230
-0.0000000000000002
  0
LINE
  5
26896
  8
0
  6
VERDECKT
 62
     1
 10
41.6852447854362609
 20
74.8000000000000682
 30
-0.0000000000000166
 11
43.1852447854362609
 21
74.8000000000000682
 31
-0.0000000000000166
210
0.0000000000000002
220
1.0
230
-0.0000000000000002
  0
LINE
  5
26897
  8
0
  6
VERDECKT
 62
     1
 10
43.1852447854362609
 20
74.8000000000000682
 30
-0.0000000000000166
 11
43.1852447854362609
 21
77.3000000000000824
 31
-0.0000000000000172
210
0.0000000000000002
220
1.0
230
-0.0000000000000002
  0
LINE
  5
26898
  8
0
  6
VERDECKT
 62
     1
 10
35.6230669589451523
 20
74.8000000000001108
 30
-0.0000000000000166
 11
41.6852447854362609
 21
74.8000000000000682
 31
-0.0000000000000166
210
0.0000000000000002
220
1.0
230
-0.0000000000000002
  0
LINE
  5
26899
  8
0
  6
VERDECKT
 62
     1
 10
23.4987113059630808
 20
79.8000000000001393
 30
-0.0000000000000177
 11
35.6230669589451523
 21
74.8000000000001108
 31
-0.0000000000000166
210
0.0000000000000002
220
1.0
230
-0.0000000000000002
  0
LINE
  5
2689A
  8
0
  6
VERDECKT
 62
     1
 10
23.4987113059630808
 20
79.8000000000001393
 30
-0.0000000000000177
 11
24.9987113059630808
 21
79.8000000000001393
 31
-0.0000000000000177
210
0.0000000000000002
220
1.0
230
-0.0000000000000002
  0
LINE
  5
2689B
  8
0
  6
VERDECKT
 62
     1
 10
24.9987113059630808
 20
79.8000000000001393
 30
-0.0000000000000177
 11
37.1230669589451381
 21
74.8000000000001108
 31
-0.0000000000000166
210
0.0000000000000002
220
1.0
230
-0.0000000000000002
  0
LINE
  5
2689C
  8
0
  6
VERDECKT
 62
     1
 10
17.436533479472029
 20
79.8000000000000824
 30
-0.0000000000000177
 11
23.4987113059630808
 21
79.8000000000001393
 31
-0.0000000000000177
210
0.0000000000000002
220
1.0
230
-0.0000000000000002
  0
LINE
  5
2689D
  8
0
  6
VERDECKT
 62
     1
 10
17.4365334794719686
 20
86.9999999999999432
 30
-0.0000000000000193
 11
17.436533479472029
 21
79.8000000000000824
 31
-0.0000000000000177
210
0.0000000000000002
220
1.0
230
-0.0000000000000002
  0
LINE
  5
2689E
  8
0
  6
VERDECKT
 62
     1
 10
18.9365334794719615
 20
86.9999999999999432
 30
-0.0000000000000193
 11
18.9365334794720184
 21
79.8000000000000824
 31
-0.0000000000000177
210
0.0000000000000002
220
1.0
230
-0.0000000000000002
  0
LINE
  5
2689F
  8
0
  6
VERDECKT
 62
     1
 10
23.4987113059630701
 20
86.9999999999999432
 30
-0.0000000000000193
 11
17.4365334794719615
 21
86.9999999999999432
 31
-0.0000000000000193
210
0.0000000000000002
220
1.0
230
-0.0000000000000002
  0
LINE
  5
268A0
  8
0
  6
VERDECKT
 62
     1
 10
23.4987113059630701
 20
86.9999999999999432
 30
-0.0000000000000193
 11
24.9987113059630595
 21
86.9999999999999432
 31
-0.0000000000000193
210
0.0000000000000002
220
1.0
230
-0.0000000000000002
  0
LINE
  5
268A1
  8
0
  6
VERDECKT
 62
     1
 10
35.6230669589451807
 20
91.9999999999999289
 30
-0.0000000000000204
 11
23.4987113059630701
 21
86.9999999999999432
 31
-0.0000000000000193
210
0.0000000000000002
220
1.0
230
-0.0000000000000002
  0
LINE
  5
268A2
  8
0
  6
VERDECKT
 62
     1
 10
37.1230669589451807
 20
91.9999999999999289
 30
-0.0000000000000204
 11
24.9987113059630808
 21
86.9999999999999432
 31
-0.0000000000000193
210
0.0000000000000002
220
1.0
230
-0.0000000000000002
  0
LINE
  5
268A3
  8
0
  6
VERDECKT
 62
     1
 10
41.6852447854362467
 20
92.0
 30
-0.0000000000000204
 11
35.6230669589451807
 21
91.9999999999999289
 31
-0.0000000000000204
210
0.0000000000000002
220
1.0
230
-0.0000000000000002
  0
LINE
  5
268A4
  8
0
  6
VERDECKT
 62
     1
 10
41.6852447854362467
 20
92.0
 30
-0.0000000000000204
 11
43.1852447854362467
 21
92.0
 31
-0.0000000000000204
210
0.0000000000000002
220
1.0
230
-0.0000000000000002
  0
LINE
  5
268A5
  8
0
  6
VERDECKT
 62
     1
 10
41.685244785436268
 20
89.4999999999999716
 30
-0.0000000000000199
 11
41.6852447854362467
 21
92.0
 31
-0.0000000000000204
210
0.0000000000000002
220
1.0
230
-0.0000000000000002
  0
LINE
  5
268A6
  8
0
  6
VERDECKT
 62
     1
 10
41.685244785436268
 20
89.4999999999999716
 30
-0.0000000000000199
 11
43.185244785436268
 21
89.4999999999999716
 31
-0.0000000000000199
210
0.0000000000000002
220
1.0
230
-0.0000000000000002
  0
LINE
  5
268A7
  8
0
  6
VERDECKT
 62
     1
 10
43.185244785436268
 20
89.4999999999999716
 30
-0.0000000000000199
 11
43.1852447854362467
 21
92.0
 31
-0.0000000000000204
210
0.0000000000000002
220
1.0
230
-0.0000000000000002
  0
LINE
  5
268A8
  8
0
  6
VERDECKT
 62
     1
 10
39.9531939778674001
 20
88.3452994616207548
 30
-0.0000000000000196
 11
41.6852447854362822
 21
89.4999999999999716
 31
-0.0000000000000199
210
0.0000000000000002
220
1.0
230
-0.0000000000000002
  0
LINE
  5
268A9
  8
0
  6
VERDECKT
 62
     1
 10
41.453193977867393
 20
88.3452994616207548
 30
-0.0000000000000196
 11
43.185244785436268
 21
89.4999999999999716
 31
-0.0000000000000199
210
0.0000000000000002
220
1.0
230
-0.0000000000000002
  0
LINE
  5
268AA
  8
0
  6
VERDECKT
 62
     1
 10
-39.9531939778673717
 20
78.4547005383793561
 30
-0.0000000000000174
 11
-39.9531939778673575
 21
88.3452994616207832
 31
-0.0000000000000196
210
0.0000000000000002
220
1.0
230
-0.0000000000000002
  0
LINE
  5
268AB
  8
0
  6
VERDECKT
 62
     1
 10
-39.9531939778673575
 20
88.3452994616207832
 30
-0.0000000000000196
 11
-41.4531939778673433
 21
88.3452994616207832
 31
-0.0000000000000196
210
0.0000000000000002
220
1.0
230
-0.0000000000000002
  0
LINE
  5
268AC
  8
0
  6
VERDECKT
 62
     1
 10
-41.4531939778673504
 20
78.4547005383793561
 30
-0.0000000000000174
 11
-41.4531939778673433
 21
88.3452994616207832
 31
-0.0000000000000196
210
0.0000000000000002
220
1.0
230
-0.0000000000000002
  0
LINE
  5
268AD
  8
0
  6
VERDECKT
 62
     1
 10
-39.9531939778673717
 20
78.4547005383793561
 30
-0.0000000000000174
 11
-41.4531939778673504
 21
78.4547005383793561
 31
-0.0000000000000174
210
0.0000000000000002
220
1.0
230
-0.0000000000000002
  0
LINE
  5
268AE
  8
0
  6
VERDECKT
 62
     1
 10
-41.6852447854362325
 20
77.3000000000001108
 30
-0.0000000000000172
 11
-39.9531939778673575
 21
78.4547005383793561
 31
-0.0000000000000174
210
0.0000000000000002
220
1.0
230
-0.0000000000000002
  0
LINE
  5
268AF
  8
0
  6
VERDECKT
 62
     1
 10
-43.1852447854362396
 20
77.3000000000001108
 30
-0.0000000000000172
 11
-41.4531939778673504
 21
78.4547005383793561
 31
-0.0000000000000174
210
0.0000000000000002
220
1.0
230
-0.0000000000000002
  0
LINE
  5
268B0
  8
0
  6
VERDECKT
 62
     1
 10
-41.6852447854362325
 20
77.3000000000001108
 30
-0.0000000000000172
 11
-43.1852447854362396
 21
77.3000000000001108
 31
-0.0000000000000172
210
0.0000000000000002
220
1.0
230
-0.0000000000000002
  0
LINE
  5
268B1
  8
0
  6
VERDECKT
 62
     1
 10
-41.6852447854362325
 20
74.8000000000000966
 30
-0.0000000000000166
 11
-41.6852447854362325
 21
77.3000000000001108
 31
-0.0000000000000172
210
0.0000000000000002
220
1.0
230
-0.0000000000000002
  0
LINE
  5
268B2
  8
0
  6
VERDECKT
 62
     1
 10
-43.1852447854362396
 20
74.8000000000000966
 30
-0.0000000000000166
 11
-43.1852447854362396
 21
77.3000000000001108
 31
-0.0000000000000172
210
0.0000000000000002
220
1.0
230
-0.0000000000000002
  0
LINE
  5
268B3
  8
0
  6
VERDECKT
 62
     1
 10
-41.6852447854362325
 20
74.8000000000000966
 30
-0.0000000000000166
 11
-43.1852447854362396
 21
74.8000000000000966
 31
-0.0000000000000166
210
0.0000000000000002
220
1.0
230
-0.0000000000000002
  0
LINE
  5
268B4
  8
0
  6
VERDECKT
 62
     1
 10
-35.6230669589451168
 20
74.8000000000001393
 30
-0.0000000000000166
 11
-41.6852447854362325
 21
74.8000000000000966
 31
-0.0000000000000166
210
0.0000000000000002
220
1.0
230
-0.0000000000000002
  0
LINE
  5
268B5
  8
0
  6
VERDECKT
 62
     1
 10
-23.4987113059630488
 20
79.8000000000001393
 30
-0.0000000000000177
 11
-35.6230669589451168
 21
74.8000000000001393
 31
-0.0000000000000166
210
0.0000000000000002
220
1.0
230
-0.0000000000000002
  0
LINE
  5
268B6
  8
0
  6
VERDECKT
 62
     1
 10
-24.9987113059630417
 20
79.8000000000001393
 30
-0.0000000000000177
 11
-37.1230669589451097
 21
74.8000000000001393
 31
-0.0000000000000166
210
0.0000000000000002
220
1.0
230
-0.0000000000000002
  0
LINE
  5
268B7
  8
0
  6
VERDECKT
 62
     1
 10
-23.4987113059630488
 20
79.8000000000001393
 30
-0.0000000000000177
 11
-24.9987113059630417
 21
79.8000000000001393
 31
-0.0000000000000177
210
0.0000000000000002
220
1.0
230
-0.0000000000000002
  0
LINE
  5
268B8
  8
0
  6
VERDECKT
 62
     1
 10
-17.4365334794719899
 20
79.8000000000000824
 30
-0.0000000000000177
 11
-23.4987113059630488
 21
79.8000000000001393
 31
-0.0000000000000177
210
0.0000000000000002
220
1.0
230
-0.0000000000000002
  0
LINE
  5
268B9
  8
0
  6
VERDECKT
 62
     1
 10
-17.4365334794719296
 20
86.9999999999999432
 30
-0.0000000000000193
 11
-17.4365334794719899
 21
79.8000000000000824
 31
-0.0000000000000177
210
0.0000000000000002
220
1.0
230
-0.0000000000000002
  0
LINE
  5
268BA
  8
0
  6
VERDECKT
 62
     1
 10
-18.9365334794719296
 20
86.9999999999999432
 30
-0.0000000000000193
 11
-18.9365334794719899
 21
79.8000000000000824
 31
-0.0000000000000177
210
0.0000000000000002
220
1.0
230
-0.0000000000000002
  0
LINE
  5
268BB
  8
0
  6
VERDECKT
 62
     1
 10
-23.498711305963031
 20
86.9999999999999432
 30
-0.0000000000000193
 11
-17.4365334794719296
 21
86.9999999999999432
 31
-0.0000000000000193
210
0.0000000000000002
220
1.0
230
-0.0000000000000002
  0
LINE
  5
268BC
  8
0
  6
VERDECKT
 62
     1
 10
-23.498711305963031
 20
86.9999999999999432
 30
-0.0000000000000193
 11
-24.998711305963031
 21
86.9999999999999432
 31
-0.0000000000000193
210
0.0000000000000002
220
1.0
230
-0.0000000000000002
  0
LINE
  5
268BD
  8
0
  6
VERDECKT
 62
     1
 10
-35.6230669589451381
 20
91.9999999999999716
 30
-0.0000000000000204
 11
-23.4987113059630417
 21
86.9999999999999432
 31
-0.0000000000000193
210
0.0000000000000002
220
1.0
230
-0.0000000000000002
  0
LINE
  5
268BE
  8
0
  6
VERDECKT
 62
     1
 10
-37.1230669589451381
 20
91.9999999999999716
 30
-0.0000000000000204
 11
-24.9987113059630417
 21
86.9999999999999432
 31
-0.0000000000000193
210
0.0000000000000002
220
1.0
230
-0.0000000000000002
  0
LINE
  5
268BF
  8
0
  6
VERDECKT
 62
     1
 10
-41.6852447854362111
 20
92.0000000000000142
 30
-0.0000000000000204
 11
-36.747448713915901
 21
91.9999999999999858
 31
-0.0000000000000204
210
0.0000000000000002
220
1.0
230
-0.0000000000000002
  0
LINE
  5
268C0
  8
0
  6
VERDECKT
 62
     1
 10
-41.6852447854362111
 20
92.0000000000000142
 30
-0.0000000000000204
 11
-43.1852447854361969
 21
92.0000000000000142
 31
-0.0000000000000204
210
0.0000000000000002
220
1.0
230
-0.0000000000000002
  0
LINE
  5
268C1
  8
0
  6
VERDECKT
 62
     1
 10
-41.6852447854362325
 20
89.5000000000000142
 30
-0.0000000000000199
 11
-41.6852447854362111
 21
92.0000000000000142
 31
-0.0000000000000204
210
0.0000000000000002
220
1.0
230
-0.0000000000000002
  0
LINE
  5
268C2
  8
0
  6
VERDECKT
 62
     1
 10
-43.1852447854362325
 20
89.5000000000000142
 30
-0.0000000000000199
 11
-43.1852447854362111
 21
92.0000000000000142
 31
-0.0000000000000204
210
0.0000000000000002
220
1.0
230
-0.0000000000000002
  0
LINE
  5
268C3
  8
0
  6
VERDECKT
 62
     1
 10
-41.6852447854362325
 20
89.5000000000000142
 30
-0.0000000000000199
 11
-43.1852447854362325
 21
89.5000000000000142
 31
-0.0000000000000199
210
0.0000000000000002
220
1.0
230
-0.0000000000000002
  0
LINE
  5
268C4
  8
0
  6
VERDECKT
 62
     1
 10
-39.9531939778673575
 20
88.3452994616207832
 30
-0.0000000000000196
 11
-41.6852447854362325
 21
89.5000000000000142
 31
-0.0000000000000199
210
0.0000000000000002
220
1.0
230
-0.0000000000000002
  0
LINE
  5
268C5
  8
0
  6
VERDECKT
 62
     1
 10
-41.4531939778673433
 20
88.3452994616207832
 30
-0.0000000000000196
 11
-43.1852447854362325
 21
89.5000000000000142
 31
-0.0000000000000199
210
0.0000000000000002
220
1.0
230
-0.0000000000000002
  0
LINE
  5
268C6
  8
0
  6
VERDECKT
 62
     1
 10
47.0000000000000071
 20
92.0000000000000142
 30
-0.0000000000000204
 11
47.0000000000000071
 21
85.0000000000000284
 31
-0.0000000000000189
210
0.0000000000000002
220
1.0
230
-0.0000000000000002
  0
LINE
  5
268C7
  8
0
  6
VERDECKT
 62
     1
 10
49.0000000000000213
 20
85.0000000000000284
 30
-0.0000000000000189
 11
47.0000000000000213
 21
85.0000000000000284
 31
-0.0000000000000189
210
0.0000000000000002
220
1.0
230
-0.0000000000000002
  0
LINE
  5
268C8
  8
0
  6
VERDECKT
 62
     1
 10
47.0000000000000213
 20
92.0000000000000142
 30
-0.0000000000000204
 11
49.0000000000000213
 21
92.0000000000000142
 31
-0.0000000000000204
210
0.0000000000000002
220
1.0
230
-0.0000000000000002
  0
LINE
  5
268C9
  8
0
  6
VERDECKT
 62
     1
 10
-35.4999999999999787
 20
92.0000000000000426
 30
-0.0000000000000204
 11
-35.4999999999999787
 21
85.0000000000000568
 31
-0.0000000000000189
210
0.0000000000000002
220
1.0
230
-0.0000000000000002
  0
LINE
  5
268CA
  8
0
  6
VERDECKT
 62
     1
 10
-11.5000000000000107
 20
85.0000000000000284
 30
-0.0000000000000189
 11
-12.2525512860840902
 21
85.0000000000000284
 31
-0.0000000000000189
210
0.0000000000000002
220
1.0
230
-0.0000000000000002
  0
LINE
  5
268CB
  8
0
  6
VERDECKT
 62
     1
 10
-11.5000000000000195
 20
85.0000000000000284
 30
-0.0000000000000189
 11
-11.5000000000000195
 21
92.0000000000000142
 31
-0.0000000000000204
210
0.0000000000000002
220
1.0
230
-0.0000000000000002
  0
LINE
  5
268CC
  8
0
  6
VERDECKT
 62
     1
 10
-12.2525512860840902
 20
92.0000000000000142
 30
-0.0000000000000204
 11
-11.5000000000000107
 21
92.0000000000000142
 31
-0.0000000000000204
210
0.0000000000000002
220
1.0
230
-0.0000000000000002
  0
LINE
  5
268CD
  8
0
  6
VERDECKT
 62
     1
 10
-46.9999999999999787
 20
85.0000000000000568
 30
-0.0000000000000189
 11
-48.9999999999999787
 21
85.0000000000000568
 31
-0.0000000000000189
210
0.0000000000000002
220
1.0
230
-0.0000000000000002
  0
LINE
  5
268CE
  8
0
  6
VERDECKT
 62
     1
 10
-46.9999999999999787
 20
85.0000000000000568
 30
-0.0000000000000189
 11
-46.9999999999999787
 21
92.0000000000000568
 31
-0.0000000000000204
210
0.0000000000000002
220
1.0
230
-0.0000000000000002
  0
LINE
  5
268CF
  8
0
  6
VERDECKT
 62
     1
 10
-48.9999999999999716
 20
92.0000000000000568
 30
-0.0000000000000204
 11
-46.9999999999999787
 21
92.0000000000000568
 31
-0.0000000000000204
210
0.0000000000000002
220
1.0
230
-0.0000000000000002
  0
LINE
  5
268D0
  8
0
  6
VERDECKT
 62
     1
 10
47.5
 20
52.3770809984107828
 30
-0.0000000000000116
 11
0.0000000000000116
 21
52.3770809984107686
 31
-0.0000000000000116
210
0.0000000000000002
220
1.0
230
-0.0000000000000002
  0
LINE
  5
268D1
  8
0
  6
VERDECKT
 62
     1
 10
0.0000000000000009
 20
52.3770809984107686
 30
-0.0000000000000116
 11
-47.4999999999999929
 21
52.3770809984107828
 31
-0.0000000000000116
210
0.0000000000000002
220
1.0
230
-0.0000000000000002
  0
ARC
  5
268D2
  8
0
  6
VERDECKT
 62
     1
 10
-47.9999999999999289
 20
60.2853697427019597
 30
0.0
 40
1.0000000000000779
210
0.0
220
-0.0000000000000002
230
-1.0
 50
180.0000000000007958
 51
190.8676216443386124
  0
ARC
  5
268D3
  8
0
  6
VERDECKT
 62
     1
 10
47.9999999999999005
 20
60.285369742701981
 30
0.0
 40
1.000000000000079
210
0.0
220
-0.0000000000000002
230
-1.0
 50
349.1323783556612739
 51
359.9999999999992042
  0
LINE
  5
268D4
  8
0
  6
VERDECKT
 62
     1
 10
-48.9999999999999787
 20
60.285369742701981
 30
-0.0000000000000134
 11
-48.9999999999999787
 21
85.0000000000000568
 31
-0.0000000000000189
210
0.0000000000000002
220
1.0
230
-0.0000000000000002
  0
LINE
  5
268D5
  8
0
  6
VERDECKT
 62
     1
 10
-48.9999999999999787
 20
92.0000000000000568
 30
-0.0000000000000204
 11
-48.9999999999999787
 21
100.0
 31
-0.0000000000000222
210
0.0000000000000002
220
1.0
230
-0.0000000000000002
  0
LINE
  5
268D6
  8
0
  6
VERDECKT
 62
     1
 10
49.0000000000000213
 20
60.2853697427019526
 30
-0.0000000000000134
 11
49.0000000000000213
 21
85.0000000000000284
 31
-0.0000000000000189
210
0.0000000000000002
220
1.0
230
-0.0000000000000002
  0
LINE
  5
268D7
  8
0
  6
VERDECKT
 62
     1
 10
49.0000000000000213
 20
92.0000000000000142
 30
-0.0000000000000204
 11
49.0000000000000213
 21
100.0
 31
-0.0000000000000222
210
0.0000000000000002
220
1.0
230
-0.0000000000000002
  0
LINE
  5
268D8
  8
0
  6
VERDECKT
 62
     1
 10
-47.4999999999999787
 20
52.3770809984107828
 30
-0.0000000000000116
 11
-48.9820654154176012
 21
60.0968292434966003
 31
-0.0000000000000133
210
0.0000000000000002
220
1.0
230
-0.0000000000000002
  0
LINE
  5
268D9
  8
0
  6
VERDECKT
 62
     1
 10
47.5
 20
52.3770809984107686
 30
-0.0000000000000116
 11
48.9820654154176367
 21
60.0968292434965718
 31
-0.0000000000000133
210
0.0000000000000002
220
1.0
230
-0.0000000000000002
  0
LINE
  5
268DA
  8
0
  6
VERDECKT
 62
     1
 10
47.5000000000000071
 20
52.3770809984107828
 30
-0.0000000000000116
 11
49.4641308308352734
 21
52.0000000000000568
 31
-0.0000000000000115
210
0.0000000000000002
220
1.0
230
-0.0000000000000002
  0
LINE
  5
268DB
  8
0
  6
VERDECKT
 62
     1
 10
-47.4999999999999929
 20
52.3770809984107899
 30
-0.0000000000000116
 11
-49.4641308308352379
 21
52.0000000000000924
 31
-0.0000000000000115
210
0.0000000000000002
220
1.0
230
-0.0000000000000002
  0
ENDBLK
  5
268DD
  8
0
  0
ENDSEC
  0
SECTION
  2
ENTITIES
  0
TEXT
  5
5DDE
  8
VOLL
 10
78.076754716981128
 20
31.025947764705851
 30
0.0
 40
1.8
  1

  7
GREEKS
  0
INSERT
  5
5DDF
  8
ADSK_ASSOC_ENTITY_BACKUPS
  2
*S1
 10
0.0
 20
0.0
 30
0.0
  0
INSERT
  5
267F6
  8
STEMPEL
  2
A$C8EE771AF
 10
0.0
 20
-100.0
 30
0.0
  0
INSERT
  5
26857
  8
STEMPEL
  2
A$C2D9A8429
 10
0.0
 20
0.0
 30
0.0
  0
INSERT
  5
268DE
  8
STEMPEL
  2
A$C7DFB0B4D
 10
150.0
 20
0.0
 30
0.0
  0
VIEWPORT
  5
1571
 67
     1
  8
0
 10
148.2499998278399005
 20
209.7499997328229995
 30
0.0
 40
794.4259072970313582
 41
421.6875080723174278
 68
     1
 69
     1
1001
ACAD
1000
MVIEW
1002
{
1070
    16
1010
0.0
1020
0.0
1030
0.0
1010
0.0
1020
0.0
1030
1.0
1040
0.0
1040
421.6875080723174278
1040
148.2499998278399005
1040
209.7499997328229995
1040
50.0
1040
0.0
1040
0.0
1070
     0
1070
  1500
1070
     1
1070
     1
1070
     0
1070
     0
1070
     0
1070
     0
1040
0.0
1040
0.0
1040
0.0
1040
10.0
1040
10.0
1040
10.0
1040
10.0
1070
     0
1002
{
1002
}
1002
}
1001
GENIUS_GENOBJ-N-SDF_13
1002
{
1000
OWNER
1000
GEN
1002
}
1001
GENIUS_GENODEF_13
1002
{
1000
HIER
1070
     0
1002
}
1002
{
1000
MANEDIT
1070
     0
1002
}
1002
{
1000
NOSEL
1070
     0
1002
}
1002
{
1000
BEHIND
1070
     0
1002
}
1002
{
1000
OTHER
1070
     0
1002
}
1002
{
1000
REACTOR
1002
}
1001
GENIUS_GENSCREG_15
1000
PF
1040
1.0
1000
DF
1040
1.0
1000
MIN
1011
-98.3237311841076007
1021
0.0
1031
0.0
1021
-84.5929851452383446
1031
0.0
1000
MAX
1011
756.7695330154733711
1021
0.0
1031
0.0
1021
339.8977580961391141
1031
0.0
1000
FLAGS
1070
     4
  0
ENDSEC
  0
EOF
