  0
SECTION
  2
HEADER
  9
$ACADVER
  1
AC1009
  9
$INSBASE
 10
0.0
 20
0.0
 30
0.0
  9
$EXTMIN
 10
-920.5611618995892513
 20
-346.2965698242186932
 30
-250.0
  9
$EXTMAX
 10
250.0
 20
153.7034319636101998
 30
374.4365103763817046
  9
$LIMMIN
 10
0.0
 20
0.0
  9
$LIMMAX
 10
420.0
 20
297.0
  9
$ORTHOMODE
 70
     1
  9
$REGENMODE
 70
     1
  9
$FILLMODE
 70
     1
  9
$QTEXTMODE
 70
     0
  9
$MIRRTEXT
 70
     1
  9
$DRAGMODE
 70
     2
  9
$LTSCALE
 40
10.0
  9
$OSMODE
 70
  3583
  9
$ATTMODE
 70
     1
  9
$TEXTSIZE
 40
3.5
  9
$TRACEWID
 40
1.0
  9
$TEXTSTYLE
  7
STANDARD
  9
$CLAYER
  8
STEMPEL
  9
$CELTYPE
  6
BYLAYER
  9
$CECOLOR
 62
   256
  9
$DIMSCALE
 40
1.0
  9
$DIMASZ
 40
3.5
  9
$DIMEXO
 40
1.0
  9
$DIMDLI
 40
0.38
  9
$DIMRND
 40
0.0
  9
$DIMDLE
 40
0.0
  9
$DIMEXE
 40
1.0
  9
$DIMTP
 40
0.0
  9
$DIMTM
 40
0.000000001
  9
$DIMTXT
 40
3.5
  9
$DIMCEN
 40
0.09
  9
$DIMTSZ
 40
0.0
  9
$DIMTOL
 70
     0
  9
$DIMLIM
 70
     0
  9
$DIMTIH
 70
     0
  9
$DIMTOH
 70
     0
  9
$DIMSE1
 70
     0
  9
$DIMSE2
 70
     0
  9
$DIMTAD
 70
     1
  9
$DIMZIN
 70
     8
  9
$DIMBLK
  1

  9
$DIMASO
 70
     1
  9
$DIMSHO
 70
     0
  9
$DIMPOST
  1

  9
$DIMAPOST
  1

  9
$DIMALT
 70
     0
  9
$DIMALTD
 70
     2
  9
$DIMALTF
 40
25.3999999999999986
  9
$DIMLFAC
 40
2.0
  9
$DIMTOFL
 70
     1
  9
$DIMTVP
 40
0.0
  9
$DIMTIX
 70
     0
  9
$DIMSOXD
 70
     0
  9
$DIMSAH
 70
     0
  9
$DIMBLK1
  1

  9
$DIMBLK2
  1

  9
$DIMSTYLE
  2
LORO
  9
$DIMCLRD
 70
     0
  9
$DIMCLRE
 70
     0
  9
$DIMCLRT
 70
     1
  9
$DIMTFAC
 40
0.5
  9
$DIMGAP
 40
1.5
  9
$LUNITS
 70
     2
  9
$LUPREC
 70
     2
  9
$SKETCHINC
 40
1.0
  9
$FILLETRAD
 40
0.0
  9
$AUNITS
 70
     0
  9
$AUPREC
 70
     0
  9
$MENU
  1
ACAD
  9
$ELEVATION
 40
0.0
  9
$PELEVATION
 40
0.0
  9
$THICKNESS
 40
0.0
  9
$LIMCHECK
 70
     0
  9
$BLIPMODE
 70
     0
  9
$CHAMFERA
 40
0.0
  9
$CHAMFERB
 40
0.0
  9
$SKPOLY
 70
     0
  9
$TDCREATE
 40
2455397.867048610933125
  9
$TDUPDATE
 40
2460928.4075347217731178
  9
$TDINDWG
 40
0.5400867244999999
  9
$TDUSRTIMER
 40
0.5400867244999999
  9
$USRTIMER
 70
     1
  9
$ANGBASE
 50
0.0
  9
$ANGDIR
 70
     0
  9
$PDMODE
 70
     0
  9
$PDSIZE
 40
0.0
  9
$PLINEWID
 40
0.0
  9
$COORDS
 70
     1
  9
$SPLFRAME
 70
     0
  9
$SPLINETYPE
 70
     6
  9
$SPLINESEGS
 70
     8
  9
$ATTDIA
 70
     1
  9
$ATTREQ
 70
     1
  9
$HANDLING
 70
     1
  9
$HANDSEED
  5
3664
  9
$SURFTAB1
 70
     6
  9
$SURFTAB2
 70
     6
  9
$SURFTYPE
 70
     6
  9
$SURFU
 70
     6
  9
$SURFV
 70
     6
  9
$UCSNAME
  2

  9
$UCSORG
 10
0.0
 20
0.0
 30
0.0
  9
$UCSXDIR
 10
1.0
 20
0.0
 30
0.0
  9
$UCSYDIR
 10
0.0
 20
1.0
 30
0.0
  9
$PUCSNAME
  2

  9
$PUCSORG
 10
0.0
 20
0.0
 30
0.0
  9
$PUCSXDIR
 10
1.0
 20
0.0
 30
0.0
  9
$PUCSYDIR
 10
0.0
 20
1.0
 30
0.0
  9
$USERI1
 70
     0
  9
$USERI2
 70
     0
  9
$USERI3
 70
     0
  9
$USERI4
 70
     0
  9
$USERI5
 70
     0
  9
$USERR1
 40
0.0
  9
$USERR2
 40
0.0
  9
$USERR3
 40
0.0
  9
$USERR4
 40
0.0
  9
$USERR5
 40
0.0
  9
$WORLDVIEW
 70
     1
  9
$SHADEDGE
 70
     3
  9
$SHADEDIF
 70
    70
  9
$TILEMODE
 70
     1
  9
$MAXACTVP
 70
    16
  9
$PLIMCHECK
 70
     0
  9
$PEXTMIN
 10
1.0000000000000000E+20
 20
1.0000000000000000E+20
 30
1.0000000000000000E+20
  9
$PEXTMAX
 10
-1.0000000000000000E+20
 20
-1.0000000000000000E+20
 30
-1.0000000000000000E+20
  9
$PLIMMIN
 10
-0.2600611791208394
 20
-0.2541427611794802
  9
$PLIMMAX
 10
593.7399388208790469
 20
419.7458572388205198
  9
$UNITMODE
 70
     0
  9
$VISRETAIN
 70
     0
  9
$PLINEGEN
 70
     0
  9
$PSLTSCALE
 70
     0
  0
ENDSEC
  0
SECTION
  2
TABLES
  0
TABLE
  2
VPORT
 70
     1
  0
VPORT
  2
*ACTIVE
 70
     0
 10
0.0
 20
0.0
 11
1.0
 21
1.0
 12
0.0
 22
0.0
 13
0.0
 23
0.0
 14
1.0
 24
1.0
 15
10.0
 25
10.0
 16
-0.0000000000004547
 26
0.0
 36
2157.7169021879558386
 17
-372.3339004383312272
 27
-107.1850785565307973
 37
327.0639801025390057
 40
786.0142241137772317
 41
1.9004329004328999
 42
50.0
 43
0.0
 44
0.0
 50
0.0
 51
0.0
 71
     0
 72
  1500
 73
     1
 74
     0
 75
     0
 76
     0
 77
     0
 78
     0
  0
ENDTAB
  0
TABLE
  2
LTYPE
 70
     4
  0
LTYPE
  2
CONTINUOUS
 70
     0
  3
Solid line
 72
    65
 73
     0
 40
0.0
  0
LTYPE
  2
STRICHPUNKT
 70
     0
  3
__ . __ . __ . __ . __ . __ . __ . __ . __ . __
 72
    65
 73
     4
 40
1.0
 49
0.5
 49
-0.25
 49
0.0
 49
-0.25
  0
LTYPE
  2
AUSGEZOGEN
 70
     0
  3
Ausgezogene Linie
 72
    65
 73
     0
 40
0.0
  0
LTYPE
  2
VERDECKT
 70
     0
  3
Verdeckt __ __ __ __ __ __ __ __ __ __ __ __ __
 72
    65
 73
     2
 40
0.375
 49
0.25
 49
-0.125
  0
ENDTAB
  0
TABLE
  2
LAYER
 70
     6
  0
LAYER
  2
0
 70
     0
 62
     7
  6
CONTINUOUS
  0
LAYER
  2
STEMPEL
 70
     0
 62
     3
  6
CONTINUOUS
  0
LAYER
  2
DEFPOINTS
 70
     0
 62
     7
  6
AUSGEZOGEN
  0
LAYER
  2
ADSK_ASSOC_ENTITY_BACKUPS
 70
     1
 62
    -7
  6
CONTINUOUS
  0
LAYER
  2
MATERIAL__EDELSTAHL_
 70
     0
 62
   254
  6
CONTINUOUS
  0
LAYER
  2
DICHTELEMENT
 70
     0
 62
   250
  6
CONTINUOUS
  0
ENDTAB
  0
TABLE
  2
STYLE
 70
     2
  0
STYLE
  2
STANDARD
 70
     0
 40
0.0
 41
0.8
 50
0.0
 71
     0
 42
3.5
  3
simplex.shx
  4

  0
STYLE
  2

 70
     1
 40
0.0
 41
1.0
 50
0.0
 71
     0
 42
2.5
  3
ltypeshp.shx
  4

  0
ENDTAB
  0
TABLE
  2
VIEW
 70
     0
  0
ENDTAB
  0
TABLE
  2
UCS
 70
     0
  0
ENDTAB
  0
TABLE
  2
APPID
 70
    28
  0
APPID
  2
ACAD
 70
     0
  0
APPID
  2
ACAD_NAV_VCDISPLAY
 70
     0
  0
APPID
  2
GRADIENTCOLOR1ACI
 70
     0
  0
APPID
  2
GRADIENTCOLOR2ACI
 70
     0
  0
APPID
  2
ACAD_DSTYLE_DIMRADIAL_EXTENSION
 70
     0
  0
APPID
  2
ACADANNOMONITORALERTICONDI
 70
     0
  0
APPID
  2
ACAD_EXEMPT_FROM_CAD_STANDARDS
 70
     0
  0
APPID
  2
ACAD_MLEADERVER
 70
     0
  0
APPID
  2
ACAD_PSEXT
 70
     0
  0
APPID
  2
ACAECLAYERSTANDARD
 70
     0
  0
APPID
  2
ACAUTHENVIRON
 70
     0
  0
APPID
  2
ACCMTRANSPARENCY
 70
     0
  0
APPID
  2
ACAD_STEPID
 70
     0
  0
APPID
  2
ACSYNERGY
 70
     0
  0
APPID
  2
SYNERGY_BODY_TBR_ID
 70
     0
  0
APPID
  2
ACAD_VIEW_EDGE_ID
 70
     0
  0
APPID
  2
ACAD_MODELDOC_XFORM
 70
     0
  0
APPID
  2
ACAD_DIMASSOC_CALC_DIMLFAC
 70
     0
  0
APPID
  2
ACAD_DIMASSOC_DIMLFAC
 70
     0
  0
APPID
  2
ACAD_DIMASSOC_OVERRIDDEN_D
 70
     0
  0
APPID
  2
ACSYNERGYSKETCH
 70
     0
  0
APPID
  2
ACAD_DSTYLE_DIMJAG
 70
     0
  0
APPID
  2
ACAD_DSTYLE_DIMTALN
 70
     0
  0
APPID
  2
ACDBDYNAMICBLOCKGUID
 70
     0
  0
APPID
  2
ACAD_DSTYLE_DIMBREAK
 70
     0
  0
APPID
  2
PLOTTRANSPARENCY
 70
     0
  0
APPID
  2
ACADANNOPO
 70
     0
  0
APPID
  2
ACADANNOTATIVE
 70
     0
  0
ENDTAB
  0
TABLE
  2
DIMSTYLE
 70
     2
  0
DIMSTYLE
  2
STANDARD
 70
     0
  3

  4

  5

  6

  7

 40
1.0
 41
0.18
 42
0.0625
 43
0.38
 44
0.18
 45
0.0
 46
0.0
 47
0.0
 48
0.0
140
0.18
141
0.09
142
0.0
143
25.3999999999999986
144
1.0
145
0.0
146
1.0
147
0.09
 71
     0
 72
     0
 73
     1
 74
     1
 75
     0
 76
     0
 77
     0
 78
     0
170
     0
171
     2
172
     0
173
     0
174
     0
175
     0
176
     0
177
     0
178
     0
  0
DIMSTYLE
  2
LORO
 70
     0
  3

  4

  5

  6

  7

 40
1.0
 41
3.5
 42
1.0
 43
0.38
 44
1.0
 45
0.0
 46
0.0
 47
0.0
 48
0.000000001
140
3.5
141
0.09
142
0.0
143
25.3999999999999986
144
2.0
145
0.0
146
0.5
147
1.5
 71
     0
 72
     0
 73
     0
 74
     0
 75
     0
 76
     0
 77
     1
 78
     8
170
     0
171
     2
172
     1
173
     0
174
     0
175
     0
176
     0
177
     0
178
     1
  0
ENDTAB
  0
ENDSEC
  0
SECTION
  2
BLOCKS
  0
BLOCK
  8
0
  2
$MODEL_SPACE
 70
     0
 10
0.0
 20
0.0
 30
0.0
  3
$MODEL_SPACE
  1

  0
ENDBLK
  5
38
  8
0
  0
BLOCK
 67
     1
  8
0
  2
$PAPER_SPACE
 70
     0
 10
0.0
 20
0.0
 30
0.0
  3
$PAPER_SPACE
  1

  0
ENDBLK
  5
36
 67
     1
  8
0
  0
BLOCK
  8
0
  2
*S0
 70
     1
 10
0.0
 20
0.0
 30
0.0
  3
*S0
  1

  0
ENDBLK
  5
D6E
  8
0
  0
BLOCK
  8
0
  2
A$C8CB12866
 70
     0
 10
0.0
 20
0.0
 30
0.0
  3
A$C8CB12866
  1

  0
LINE
  5
3594
  8
0
  6
CONTINUOUS
 62
     3
 10
-40.9999999999999574
 20
113.9167612232333937
 30
-0.0000000000000253
 11
-41.0
 21
0.0000000000000091
 31
0.0
210
0.0000000000000002
220
1.0
230
-0.0000000000000002
  0
LINE
  5
3595
  8
0
  6
CONTINUOUS
 62
     3
 10
-41.0
 20
-0.00000000000002
 30
0.0
 11
-41.0000000000000426
 21
-113.9167612232332942
 31
0.0000000000000253
210
0.0000000000000002
220
1.0
230
-0.0000000000000002
  0
LINE
  5
3596
  8
0
  6
CONTINUOUS
 62
     3
 10
-0.000000000039342
 20
-230.0
 30
0.0000000000000511
 11
-0.0000000000427607
 21
-250.0
 31
0.0000000000000555
210
0.0000000000000002
220
1.0
230
-0.0000000000000002
  0
LINE
  5
3597
  8
0
  6
CONTINUOUS
 62
     3
 10
-1.00000000004276
 20
-249.999999999999801
 30
0.0000000000000555
 11
-1.0000000000393421
 21
-229.999999999999801
 31
0.0000000000000511
210
0.0000000000000002
220
1.0
230
-0.0000000000000002
  0
LINE
  5
3598
  8
0
  6
CONTINUOUS
 62
     3
 10
-1.00000000004276
 20
-249.999999999999801
 30
0.0000000000000555
 11
-0.0000000000427607
 21
-250.0
 31
0.0000000000000555
210
0.0000000000000002
220
1.0
230
-0.0000000000000002
  0
LINE
  5
3599
  8
0
  6
CONTINUOUS
 62
     3
 10
-0.9999999999607114
 20
230.000000000000199
 30
-0.0000000000000511
 11
-1.0000000000393421
 21
-229.999999999999801
 31
0.0000000000000511
210
0.0000000000000002
220
1.0
230
-0.0000000000000002
  0
LINE
  5
359A
  8
0
  6
CONTINUOUS
 62
     3
 10
-0.9999999999607114
 20
230.000000000000199
 30
-0.0000000000000511
 11
-0.9999999999572926
 21
250.000000000000199
 31
-0.0000000000000555
210
0.0000000000000002
220
1.0
230
-0.0000000000000002
  0
LINE
  5
359B
  8
0
  6
CONTINUOUS
 62
     3
 10
0.0000000000427073
 20
250.0
 30
-0.0000000000000555
 11
0.0000000000392886
 21
230.0
 31
-0.0000000000000511
210
0.0000000000000002
220
1.0
230
-0.0000000000000002
  0
LINE
  5
359C
  8
0
  6
CONTINUOUS
 62
     3
 10
0.0000000000427074
 20
250.0
 30
-0.0000000000000555
 11
-0.9999999999572926
 21
250.000000000000199
 31
-0.0000000000000555
210
0.0000000000000002
220
1.0
230
-0.0000000000000002
  0
LINE
  5
359D
  8
0
  6
CONTINUOUS
 62
     3
 10
0.0000000000392886
 20
230.0
 30
-0.0000000000000511
 11
-0.000000000039342
 21
-230.0
 31
0.0000000000000511
210
0.0000000000000002
220
1.0
230
-0.0000000000000002
  0
LINE
  5
359E
  8
0
  6
CONTINUOUS
 62
     3
 10
-40.9999999999999787
 20
113.9167612232333937
 30
-0.0000000000000253
 11
-1.6005638815814349
 21
131.0832389693586038
 31
-0.0000000000000291
210
0.0000000000000002
220
1.0
230
-0.0000000000000002
  0
LINE
  5
359F
  8
0
  6
CONTINUOUS
 62
     3
 10
-41.0000000000000497
 20
-113.9167612232332942
 30
0.0000000000000253
 11
-1.600563881581508
 21
-131.0832389693586038
 31
0.0000000000000291
210
0.0000000000000002
220
1.0
230
-0.0000000000000002
  0
ARC
  5
35A0
  8
0
  6
CONTINUOUS
 62
     3
 10
1.9999999999999929
 20
132.0
 30
0.0
 40
1.00000000000001
210
0.0
220
-0.0000000000000002
230
-1.0
 50
180.0
 51
246.4570677485019985
  0
ARC
  5
35A1
  8
0
  6
CONTINUOUS
 62
     3
 10
2.0000000000000671
 20
-132.0
 30
0.0
 40
1.0000000000000071
210
0.0
220
-0.0000000000000002
230
-1.0
 50
113.542932251497902
 51
180.0
  0
LINE
  5
35A2
  8
0
  6
CONTINUOUS
 62
     3
 10
-157.5914680539193
 20
-115.2000000000001023
 30
0.0000000000000256
 11
-157.5914680539193
 21
115.2000000000001023
 31
-0.0000000000000256
210
0.0000000000000002
220
1.0
230
-0.0000000000000002
  0
LINE
  5
35A3
  8
0
  6
CONTINUOUS
 62
     3
 10
-154.7225537860302893
 20
-116.0771151141681941
 30
0.0000000000000258
 11
-154.7225537860300904
 21
116.0771151141681941
 31
-0.0000000000000258
210
0.0000000000000002
220
1.0
230
-0.0000000000000002
  0
LINE
  5
35A4
  8
0
  6
CONTINUOUS
 62
     3
 10
-153.3946876835497051
 20
-118.5744680355397946
 30
0.0000000000000263
 11
-153.3946876835495914
 21
118.5744680355397946
 31
-0.0000000000000263
210
0.0000000000000002
220
1.0
230
-0.0000000000000002
  0
LINE
  5
35A5
  8
0
  6
CONTINUOUS
 62
     3
 10
-150.8973347621781045
 20
-117.2466019330591962
 30
0.000000000000026
 11
-150.8973347621779908
 21
117.2466019330591962
 31
-0.000000000000026
210
0.0000000000000002
220
1.0
230
-0.0000000000000002
  0
LINE
  5
35A6
  8
0
  6
CONTINUOUS
 62
     3
 10
-149.9410300062151009
 20
-117.5389736377819929
 30
0.0000000000000261
 11
-149.941030006214902
 21
117.5389736377818934
 31
-0.0000000000000261
210
0.0000000000000002
220
1.0
230
-0.0000000000000002
  0
LINE
  5
35A7
  8
0
  6
CONTINUOUS
 62
     3
 10
-148.613163903734403
 20
-120.0363265591533946
 30
0.0000000000000267
 11
-148.6131639037342893
 21
120.0363265591533946
 31
-0.0000000000000267
210
0.0000000000000002
220
1.0
230
-0.0000000000000002
  0
LINE
  5
35A8
  8
0
  6
CONTINUOUS
 62
     3
 10
-146.1158109823630014
 20
-118.7084604566727961
 30
0.0000000000000264
 11
-146.1158109823628877
 21
118.7084604566727961
 31
-0.0000000000000264
210
0.0000000000000002
220
1.0
230
-0.0000000000000002
  0
LINE
  5
35A9
  8
0
  6
CONTINUOUS
 62
     3
 10
-141.8478569473610946
 20
-120.0133049522281965
 30
0.0000000000000266
 11
-141.8478569473610094
 21
120.0133049522281965
 31
-0.0000000000000266
210
0.0000000000000002
220
1.0
230
-0.0000000000000002
  0
LINE
  5
35AA
  8
0
  6
CONTINUOUS
 62
     3
 10
-138.8611618995892911
 20
-123.0
 30
0.0000000000000273
 11
-138.8611618995890922
 21
123.0
 31
-0.0000000000000273
210
0.0000000000000002
220
1.0
230
-0.0000000000000002
  0
LINE
  5
35AB
  8
0
  6
CONTINUOUS
 62
     3
 10
-135.9955341917257101
 20
-120.1343722921364048
 30
0.0000000000000267
 11
-135.9955341917255964
 21
120.1343722921364048
 31
-0.0000000000000267
210
0.0000000000000002
220
1.0
230
-0.0000000000000002
  0
LINE
  5
35AC
  8
0
  6
CONTINUOUS
 62
     3
 10
-125.5611618995891945
 20
-125.0
 30
0.0000000000000278
 11
-125.5611618995891945
 21
125.0
 31
-0.0000000000000278
210
0.0000000000000002
220
1.0
230
-0.0000000000000002
  0
LINE
  5
35AD
  8
0
  6
CONTINUOUS
 62
     3
 10
-124.561161899589294
 20
-102.5
 30
0.0000000000000228
 11
-124.5611618995891945
 21
102.5
 31
-0.0000000000000228
210
0.0000000000000002
220
1.0
230
-0.0000000000000002
  0
LINE
  5
35AE
  8
0
  6
CONTINUOUS
 62
     3
 10
-170.5611618995893082
 20
-115.0185271117517942
 30
0.0000000000000255
 11
-170.5611618995891945
 21
115.0185271117518937
 31
-0.0000000000000255
210
0.0000000000000002
220
1.0
230
-0.0000000000000002
  0
LINE
  5
35AF
  8
0
  6
CONTINUOUS
 62
     3
 10
-160.5611618995893082
 20
-120.0
 30
0.0000000000000266
 11
-160.5611618995891092
 21
120.0
 31
-0.0000000000000266
210
0.0000000000000002
220
1.0
230
-0.0000000000000002
  0
LINE
  5
35B0
  8
0
  6
CONTINUOUS
 62
     3
 10
-157.5914680539193
 20
115.2000000000001023
 30
-0.0000000000000256
 11
-154.7225537860300904
 21
116.0771151141681941
 31
-0.0000000000000258
210
0.0000000000000002
220
1.0
230
-0.0000000000000002
  0
LINE
  5
35B1
  8
0
  6
CONTINUOUS
 62
     3
 10
-157.5914680539193
 20
-115.2000000000001023
 30
0.0000000000000256
 11
-154.7225537860302893
 21
-116.0771151141681941
 31
0.0000000000000258
210
0.0000000000000002
220
1.0
230
-0.0000000000000002
  0
LINE
  5
35B2
  8
0
  6
CONTINUOUS
 62
     3
 10
-154.7225537860300904
 20
116.0771151141681941
 30
-0.0000000000000258
 11
-153.3946876835495914
 21
118.5744680355397946
 31
-0.0000000000000263
210
0.0000000000000002
220
1.0
230
-0.0000000000000002
  0
LINE
  5
35B3
  8
0
  6
CONTINUOUS
 62
     3
 10
-154.7225537860302893
 20
-116.0771151141681941
 30
0.0000000000000258
 11
-153.3946876835497051
 21
-118.5744680355397946
 31
0.0000000000000263
210
0.0000000000000002
220
1.0
230
-0.0000000000000002
  0
LINE
  5
35B4
  8
0
  6
CONTINUOUS
 62
     3
 10
-150.8973347621781045
 20
-117.2466019330591962
 30
0.000000000000026
 11
-153.3946876835497051
 21
-118.5744680355397946
 31
0.0000000000000263
210
0.0000000000000002
220
1.0
230
-0.0000000000000002
  0
LINE
  5
35B5
  8
0
  6
CONTINUOUS
 62
     3
 10
-150.8973347621779908
 20
117.2466019330591962
 30
-0.000000000000026
 11
-153.3946876835495914
 21
118.5744680355397946
 31
-0.0000000000000263
210
0.0000000000000002
220
1.0
230
-0.0000000000000002
  0
LINE
  5
35B6
  8
0
  6
CONTINUOUS
 62
     3
 10
-150.8973347621779908
 20
117.2466019330591962
 30
-0.000000000000026
 11
-149.941030006214902
 21
117.5389736377818934
 31
-0.0000000000000261
210
0.0000000000000002
220
1.0
230
-0.0000000000000002
  0
LINE
  5
35B7
  8
0
  6
CONTINUOUS
 62
     3
 10
-150.8973347621781045
 20
-117.2466019330591962
 30
0.000000000000026
 11
-149.9410300062151009
 21
-117.5389736377818934
 31
0.0000000000000261
210
0.0000000000000002
220
1.0
230
-0.0000000000000002
  0
LINE
  5
35B8
  8
0
  6
CONTINUOUS
 62
     3
 10
-149.941030006214902
 20
117.5389736377818934
 30
-0.0000000000000261
 11
-148.6131639037342893
 21
120.036326559153494
 31
-0.0000000000000267
210
0.0000000000000002
220
1.0
230
-0.0000000000000002
  0
LINE
  5
35B9
  8
0
  6
CONTINUOUS
 62
     3
 10
-149.9410300062151009
 20
-117.5389736377818934
 30
0.0000000000000261
 11
-148.613163903734403
 21
-120.036326559153494
 31
0.0000000000000267
210
0.0000000000000002
220
1.0
230
-0.0000000000000002
  0
LINE
  5
35BA
  8
0
  6
CONTINUOUS
 62
     3
 10
-146.1158109823630014
 20
-118.7084604566727961
 30
0.0000000000000264
 11
-148.613163903734403
 21
-120.036326559153494
 31
0.0000000000000267
210
0.0000000000000002
220
1.0
230
-0.0000000000000002
  0
LINE
  5
35BB
  8
0
  6
CONTINUOUS
 62
     3
 10
-146.1158109823628877
 20
118.7084604566727961
 30
-0.0000000000000264
 11
-148.6131639037342893
 21
120.036326559153494
 31
-0.0000000000000267
210
0.0000000000000002
220
1.0
230
-0.0000000000000002
  0
LINE
  5
35BC
  8
0
  6
CONTINUOUS
 62
     3
 10
-146.1158109823628877
 20
118.7084604566727961
 30
-0.0000000000000264
 11
-141.8478569473610094
 21
120.0133049522281965
 31
-0.0000000000000266
210
0.0000000000000002
220
1.0
230
-0.0000000000000002
  0
LINE
  5
35BD
  8
0
  6
CONTINUOUS
 62
     3
 10
-146.1158109823630014
 20
-118.7084604566727961
 30
0.0000000000000264
 11
-141.8478569473610946
 21
-120.0133049522281965
 31
0.0000000000000266
210
0.0000000000000002
220
1.0
230
-0.0000000000000002
  0
LINE
  5
35BE
  8
0
  6
CONTINUOUS
 62
     3
 10
-141.8478569473610094
 20
120.0133049522281965
 30
-0.0000000000000266
 11
-138.8611618995890922
 21
123.0
 31
-0.0000000000000273
210
0.0000000000000002
220
1.0
230
-0.0000000000000002
  0
LINE
  5
35BF
  8
0
  6
CONTINUOUS
 62
     3
 10
-141.8478569473610946
 20
-120.0133049522281965
 30
0.0000000000000266
 11
-138.8611618995892911
 21
-123.0
 31
0.0000000000000273
210
0.0000000000000002
220
1.0
230
-0.0000000000000002
  0
LINE
  5
35C0
  8
0
  6
CONTINUOUS
 62
     3
 10
-135.9955341917257101
 20
-120.1343722921364048
 30
0.0000000000000267
 11
-138.8611618995892911
 21
-123.0
 31
0.0000000000000273
210
0.0000000000000002
220
1.0
230
-0.0000000000000002
  0
LINE
  5
35C1
  8
0
  6
CONTINUOUS
 62
     3
 10
-135.9955341917255964
 20
120.1343722921364048
 30
-0.0000000000000267
 11
-138.8611618995890922
 21
123.0
 31
-0.0000000000000273
210
0.0000000000000002
220
1.0
230
-0.0000000000000002
  0
LINE
  5
35C2
  8
0
  6
CONTINUOUS
 62
     3
 10
-135.9955341917255964
 20
120.1343722921364048
 30
-0.0000000000000267
 11
-125.561161899589095
 21
125.0
 31
-0.0000000000000278
210
0.0000000000000002
220
1.0
230
-0.0000000000000002
  0
LINE
  5
35C3
  8
0
  6
CONTINUOUS
 62
     3
 10
-135.9955341917257101
 20
-120.1343722921364048
 30
0.0000000000000267
 11
-125.5611618995891945
 21
-125.0
 31
0.0000000000000278
210
0.0000000000000002
220
1.0
230
-0.0000000000000002
  0
ARC
  5
35C4
  8
0
  6
CONTINUOUS
 62
     3
 10
134.5611618995893082
 20
-102.4999999999999005
 30
0.0
 40
10.0000000000000604
210
0.0
220
-0.0000000000000002
230
-1.0
 50
180.0000000000007958
 51
205.8419327631671081
  0
ARC
  5
35C5
  8
0
  6
CONTINUOUS
 62
     3
 10
134.5611618995891945
 20
102.4999999999999005
 30
0.0
 40
10.0000000000000497
210
0.0
220
-0.0000000000000002
230
-1.0
 50
154.1580672368328919
 51
179.9999999999992042
  0
ARC
  5
35C6
  8
0
  6
CONTINUOUS
 62
     3
 10
167.5611618995891945
 20
-115.0185271117518937
 30
0.0
 40
2.999999999999988
210
0.0
220
-0.0000000000000002
230
-1.0
 50
285.0000000000006821
 51
0.0000000000002831
  0
ARC
  5
35C7
  8
0
  6
CONTINUOUS
 62
     3
 10
167.5611618995893082
 20
115.0185271117519932
 30
0.0
 40
2.9999999999999152
210
0.0
220
-0.0000000000000002
230
-1.0
 50
359.9999999999992042
 51
75.0000000000017906
  0
LINE
  5
35C8
  8
0
  6
CONTINUOUS
 62
     3
 10
-168.3376190348967043
 20
117.9163045906191059
 30
-0.0000000000000262
 11
-160.5611618995891945
 21
120.0
 31
-0.0000000000000266
210
0.0000000000000002
220
1.0
230
-0.0000000000000002
  0
LINE
  5
35C9
  8
0
  6
CONTINUOUS
 62
     3
 10
-168.3376190348969033
 20
-117.9163045906191059
 30
0.0000000000000262
 11
-160.5611618995893082
 21
-120.0
 31
0.0000000000000266
210
0.0000000000000002
220
1.0
230
-0.0000000000000002
  0
ARC
  5
35CA
  8
0
  6
CONTINUOUS
 62
     3
 10
159.0611618995891945
 20
-115.5
 30
0.0
 40
1.5
210
0.0
220
-0.0000000000000002
230
-1.0
 50
359.9999999999994884
 51
168.4630409671873963
  0
ARC
  5
35CB
  8
0
  6
CONTINUOUS
 62
     3
 10
159.0611618995891945
 20
115.5
 30
0.0
 40
1.5000000000000011
210
0.0
220
-0.0000000000000002
230
-1.0
 50
191.5369590328126037
 51
0.0000000000005076
  0
LINE
  5
35CC
  8
0
  6
VERDECKT
 62
     1
 10
-40.6005643236064415
 20
113.0
 30
-0.0000000000000251
 11
-40.6005643236064628
 21
0.000000000000009
 31
0.0
210
0.0000000000000002
220
1.0
230
-0.0000000000000002
  0
LINE
  5
35CD
  8
0
  6
VERDECKT
 62
     1
 10
-40.6005643236064628
 20
-0.0000000000000248
 30
0.0
 11
-40.6005643236065126
 21
-113.0
 31
0.0000000000000251
210
0.0000000000000002
220
1.0
230
-0.0000000000000002
  0
LINE
  5
35CE
  8
0
  6
VERDECKT
 62
     1
 10
-40.6005643236064628
 20
113.0000000000000995
 30
-0.0000000000000251
 11
-1.2011277631628929
 21
130.1664779387172075
 31
-0.0000000000000289
210
0.0000000000000002
220
1.0
230
-0.0000000000000002
  0
LINE
  5
35CF
  8
0
  6
VERDECKT
 62
     1
 10
-40.6005643236065126
 20
-113.0
 30
0.0000000000000251
 11
-1.201127763162944
 21
-130.1664779387172075
 31
0.0000000000000289
210
0.0000000000000002
220
1.0
230
-0.0000000000000002
  0
LINE
  5
35D0
  8
0
  6
VERDECKT
 62
     1
 10
-40.6005643236065126
 20
-113.0
 30
0.0000000000000251
 11
-41.0000000000000426
 21
-113.9167612232332942
 31
0.0000000000000253
210
0.0000000000000002
220
1.0
230
-0.0000000000000002
  0
LINE
  5
35D1
  8
0
  6
VERDECKT
 62
     1
 10
-40.6005643236064415
 20
113.0
 30
-0.0000000000000251
 11
-40.9999999999999716
 21
113.9167612232333937
 31
-0.0000000000000253
210
0.0000000000000002
220
1.0
230
-0.0000000000000002
  0
ARC
  5
35D2
  8
0
  6
VERDECKT
 62
     1
 10
2.0000000000000262
 20
132.0
 30
0.0
 40
2.0000000000000511
210
0.0
220
-0.0000000000000002
230
-1.0
 50
180.0000000000007958
 51
246.4570677485016006
  0
ARC
  5
35D3
  8
0
  6
VERDECKT
 62
     1
 10
2.0000000000001008
 20
-132.0
 30
0.0
 40
2.0000000000000528
210
0.0
220
-0.0000000000000002
230
-1.0
 50
113.5429322514983994
 51
179.9999999999992042
  0
LINE
  5
35D4
  8
0
  6
VERDECKT
 62
     1
 10
-0.000000000000447
 20
227.0000000000001137
 30
-0.0000000000000504
 11
-1.0000000000004461
 21
227.0000000000001137
 31
-0.0000000000000504
210
0.0000000000000002
220
1.0
230
-0.0000000000000002
  0
LINE
  5
35D5
  8
0
  6
VERDECKT
 62
     1
 10
0.0000000000005775
 20
233.0000000000001137
 30
-0.0000000000000517
 11
-0.9999999999994225
 21
233.0000000000001137
 31
-0.0000000000000517
210
0.0000000000000002
220
1.0
230
-0.0000000000000002
  0
LINE
  5
35D6
  8
0
  6
VERDECKT
 62
     1
 10
-0.0000000000006308
 20
-232.999999999999801
 30
0.0000000000000517
 11
-1.0000000000006299
 21
-232.999999999999801
 31
0.0000000000000517
210
0.0000000000000002
220
1.0
230
-0.0000000000000002
  0
LINE
  5
35D7
  8
0
  6
VERDECKT
 62
     1
 10
0.0000000000003937
 20
-226.999999999999801
 30
0.0000000000000504
 11
-0.9999999999996063
 21
-226.999999999999801
 31
0.0000000000000504
210
0.0000000000000002
220
1.0
230
-0.0000000000000002
  0
LINE
  5
35D8
  8
0
  6
VERDECKT
 62
     1
 10
-131.5611618995893082
 20
-117.5
 30
0.0000000000000261
 11
-131.5611618995891092
 21
117.5
 31
-0.0000000000000261
210
0.0000000000000002
220
1.0
230
-0.0000000000000002
  0
LINE
  5
35D9
  8
0
  6
VERDECKT
 62
     1
 10
-126.5611618995891945
 20
-99.9999999999999432
 30
0.0000000000000222
 11
-126.5611618995891945
 21
100.0
 31
-0.0000000000000222
210
0.0000000000000002
220
1.0
230
-0.0000000000000002
  0
LINE
  5
35DA
  8
0
  6
VERDECKT
 62
     1
 10
-155.5611618995893082
 20
-110.0
 30
0.0000000000000244
 11
-155.5611618995891945
 21
110.0
 31
-0.0000000000000244
210
0.0000000000000002
220
1.0
230
-0.0000000000000002
  0
LINE
  5
35DB
  8
0
  6
VERDECKT
 62
     1
 10
-131.5611618995891092
 20
117.5
 30
-0.0000000000000261
 11
-125.561161899589095
 21
123.5
 31
-0.0000000000000274
210
0.0000000000000002
220
1.0
230
-0.0000000000000002
  0
LINE
  5
35DC
  8
0
  6
VERDECKT
 62
     1
 10
-131.5611618995893082
 20
-117.5
 30
0.0000000000000261
 11
-125.5611618995891945
 21
-123.5
 31
0.0000000000000274
210
0.0000000000000002
220
1.0
230
-0.0000000000000002
  0
ARC
  5
35DD
  8
0
  6
VERDECKT
 62
     1
 10
134.5611618995893082
 20
-102.4999999999997016
 30
0.0
 40
10.0000000000001297
210
0.0
220
-0.0000000000000002
230
-1.0
 50
205.8419327631675912
 51
252.5423968762777065
  0
ARC
  5
35DE
  8
0
  6
VERDECKT
 62
     1
 10
134.5611618995893082
 20
102.4999999999997016
 30
0.0
 40
10.0000000000001297
210
0.0
220
-0.0000000000000002
230
-1.0
 50
107.457603123722393
 51
154.1580672368324088
  0
LINE
  5
35DF
  8
0
  6
VERDECKT
 62
     1
 10
-126.5611618995891945
 20
100.0
 30
-0.0000000000000222
 11
-124.5611618995891945
 21
100.0
 31
-0.0000000000000222
210
0.0000000000000002
220
1.0
230
-0.0000000000000002
  0
LINE
  5
35E0
  8
0
  6
VERDECKT
 62
     1
 10
-126.5611618995891945
 20
-100.0
 30
0.0000000000000222
 11
-124.561161899589294
 21
-100.0
 31
0.0000000000000222
210
0.0000000000000002
220
1.0
230
-0.0000000000000002
  0
ARC
  5
35E1
  8
0
  6
VERDECKT
 62
     1
 10
136.5611618995891945
 20
-100.0
 30
0.0
 40
10.0
210
0.0
220
-0.0000000000000002
230
-1.0
 50
180.0
 51
270.0
  0
ARC
  5
35E2
  8
0
  6
VERDECKT
 62
     1
 10
136.5611618995891945
 20
100.0
 30
0.0
 40
10.0
210
0.0
220
-0.0000000000000002
230
-1.0
 50
90.0000000000000284
 51
180.0
  0
LINE
  5
35E3
  8
0
  6
VERDECKT
 62
     1
 10
-155.5611618995891945
 20
110.0
 30
-0.0000000000000244
 11
-136.5611618995891945
 21
110.0
 31
-0.0000000000000244
210
0.0000000000000002
220
1.0
230
-0.0000000000000002
  0
LINE
  5
35E4
  8
0
  6
VERDECKT
 62
     1
 10
-155.5611618995893082
 20
-110.0
 30
0.0000000000000244
 11
-136.5611618995893082
 21
-110.0
 31
0.0000000000000244
210
0.0000000000000002
220
1.0
230
-0.0000000000000002
  0
LINE
  5
35E5
  8
0
  6
VERDECKT
 62
     1
 10
-155.5611618995893082
 20
-110.0
 30
0.0000000000000244
 11
-167.9267699298046921
 21
-111.5183057522874037
 31
0.0000000000000248
210
0.0000000000000002
220
1.0
230
-0.0000000000000002
  0
LINE
  5
35E6
  8
0
  6
VERDECKT
 62
     1
 10
-155.5611618995891945
 20
110.0
 30
-0.0000000000000244
 11
-167.9267699298046921
 21
111.5183057522875032
 31
-0.0000000000000248
210
0.0000000000000002
220
1.0
230
-0.0000000000000002
  0
ARC
  5
35E7
  8
0
  6
VERDECKT
 62
     1
 10
167.5611618995891945
 20
-114.4959442072113944
 30
0.0
 40
3.0000000000000862
210
0.0
220
-0.0000000000000002
230
-1.0
 50
0.0000000000000127
 51
82.9999999999975131
  0
ARC
  5
35E8
  8
0
  6
VERDECKT
 62
     1
 10
167.5611618995891092
 20
114.4959442072113944
 30
0.0
 40
3.0000000000000799
210
0.0
220
-0.0000000000000002
230
-1.0
 50
277.0000000000019895
 51
359.9999999999994884
  0
ENDBLK
  5
35EA
  8
0
  0
BLOCK
  8
0
  2
A$C6E5AECD1
 70
     0
 10
0.0
 20
0.0
 30
0.0
  3
A$C6E5AECD1
  1

  0
CIRCLE
  5
35EE
  8
0
  6
CONTINUOUS
 62
     3
 10
0.0
 20
0.0
 30
0.0
 40
113.0
210
0.0
220
-0.0000000000000002
230
-1.0
  0
CIRCLE
  5
35EF
  8
0
  6
CONTINUOUS
 62
     3
 10
230.0
 20
230.000000000000199
 30
0.0
 40
3.0
210
0.0
220
-0.0000000000000002
230
-1.0
  0
CIRCLE
  5
35F0
  8
0
  6
CONTINUOUS
 62
     3
 10
-230.0
 20
-229.999999999999801
 30
0.0
 40
3.0
210
0.0
220
-0.0000000000000002
230
-1.0
  0
CIRCLE
  5
35F1
  8
0
  6
CONTINUOUS
 62
     3
 10
230.0
 20
-229.999999999999801
 30
0.0
 40
3.0
210
0.0
220
-0.0000000000000002
230
-1.0
  0
CIRCLE
  5
35F2
  8
0
  6
CONTINUOUS
 62
     3
 10
-230.0
 20
230.0000000000001137
 30
0.0
 40
3.0
210
0.0
220
-0.0000000000000002
230
-1.0
  0
ARC
  5
35F3
  8
0
  6
CONTINUOUS
 62
     3
 10
230.0
 20
-229.9999999999998863
 30
0.0
 40
20.0
210
0.0
220
-0.0000000000000002
230
-1.0
 50
270.0
 51
0.000000000000007
  0
LINE
  5
35F4
  8
0
  6
CONTINUOUS
 62
     3
 10
-230.0
 20
-250.0
 30
0.0000000000000555
 11
230.0
 21
-250.0
 31
0.0000000000000555
210
0.0000000000000001
220
1.0
230
-0.0000000000000002
  0
ARC
  5
35F5
  8
0
  6
CONTINUOUS
 62
     3
 10
-230.0000000000001137
 20
-230.0
 30
0.0
 40
19.9999999999998792
210
0.0
220
-0.0000000000000002
230
-1.0
 50
180.0
 51
270.0000000000002842
  0
LINE
  5
35F6
  8
0
  6
CONTINUOUS
 62
     3
 10
250.0
 20
-230.0
 30
0.0000000000000511
 11
250.0
 21
230.0
 31
-0.0000000000000511
210
0.0000000000000001
220
1.0
230
-0.0000000000000002
  0
ARC
  5
35F7
  8
0
  6
CONTINUOUS
 62
     3
 10
230.0
 20
230.0000000000001137
 30
0.0
 40
20.0
210
0.0
220
-0.0000000000000002
230
-1.0
 50
0.000000000000007
 51
90.0000000000000284
  0
LINE
  5
35F8
  8
0
  6
CONTINUOUS
 62
     3
 10
-250.0
 20
230.0000000000001137
 30
-0.0000000000000511
 11
-250.0
 21
-229.9999999999998863
 31
0.0000000000000511
210
0.0000000000000001
220
1.0
230
-0.0000000000000002
  0
ARC
  5
35F9
  8
0
  6
CONTINUOUS
 62
     3
 10
-230.0
 20
230.0
 30
0.0
 40
20.0
210
0.0
220
-0.0000000000000002
230
-1.0
 50
90.0000000000000284
 51
180.0
  0
LINE
  5
35FA
  8
0
  6
CONTINUOUS
 62
     3
 10
230.0
 20
250.0
 30
-0.0000000000000555
 11
-230.0
 21
250.0
 31
-0.0000000000000555
210
0.0000000000000001
220
1.0
230
-0.0000000000000002
  0
CIRCLE
  5
35FB
  8
0
  6
CONTINUOUS
 62
     3
 10
-0.0000000000000568
 20
-0.0000000000000329
 30
0.0
 40
112.0393920141692945
  0
CIRCLE
  5
35FC
  8
0
  6
CONTINUOUS
 62
     3
 10
-0.0000000000000284
 20
-0.0000000000000338
 30
0.0
 40
100.0
  0
CIRCLE
  5
35FD
  8
0
  6
VERDECKT
 62
     1
 10
0.0
 20
0.0
 30
0.0
 40
113.9167612232332942
210
0.0
220
-0.0000000000000002
230
-1.0
  0
CIRCLE
  5
35FE
  8
0
  6
VERDECKT
 62
     1
 10
-0.0000000000000568
 20
-0.0000000000000297
 30
0.0
 40
115.2000000000000028
  0
CIRCLE
  5
35FF
  8
0
  6
VERDECKT
 62
     1
 10
-0.0000000000000568
 20
-0.0000000000000301
 30
0.0
 40
116.0771151141681941
  0
CIRCLE
  5
3600
  8
0
  6
VERDECKT
 62
     1
 10
-0.0000000000000568
 20
-0.0000000000000303
 30
0.0
 40
118.5744680355396952
  0
CIRCLE
  5
3601
  8
0
  6
VERDECKT
 62
     1
 10
-0.0000000000000568
 20
-0.0000000000000306
 30
0.0
 40
117.2466019330590967
  0
CIRCLE
  5
3602
  8
0
  6
VERDECKT
 62
     1
 10
-0.0000000000000568
 20
-0.0000000000000307
 30
0.0
 40
117.5389736377818934
  0
CIRCLE
  5
3603
  8
0
  6
VERDECKT
 62
     1
 10
-0.0000000000000568
 20
-0.0000000000000308
 30
0.0
 40
120.0363265591533946
  0
CIRCLE
  5
3604
  8
0
  6
VERDECKT
 62
     1
 10
-0.0000000000000568
 20
-0.0000000000000311
 30
0.0
 40
118.7084604566727961
  0
CIRCLE
  5
3605
  8
0
  6
VERDECKT
 62
     1
 10
-0.0000000000000568
 20
-0.0000000000000317
 30
0.0
 40
120.013304952228097
  0
CIRCLE
  5
3606
  8
0
  6
VERDECKT
 62
     1
 10
-0.0000000000000568
 20
-0.000000000000032
 30
0.0
 40
123.0
  0
CIRCLE
  5
3607
  8
0
  6
VERDECKT
 62
     1
 10
-0.0000000000000568
 20
-0.0000000000000324
 30
0.0
 40
120.1343722921364048
  0
CIRCLE
  5
3608
  8
0
  6
VERDECKT
 62
     1
 10
-0.0000000000000284
 20
-0.0000000000000337
 30
0.0
 40
125.0
  0
CIRCLE
  5
3609
  8
0
  6
VERDECKT
 62
     1
 10
-0.0000000000000284
 20
-0.0000000000000337
 30
0.0
 40
123.5
  0
CIRCLE
  5
360A
  8
0
  6
VERDECKT
 62
     1
 10
-0.0000000000000568
 20
-0.0000000000000329
 30
0.0
 40
117.5
  0
CIRCLE
  5
360B
  8
0
  6
VERDECKT
 62
     1
 10
-0.0000000000000568
 20
-0.0000000000000323
 30
0.0
 40
110.0
  0
CIRCLE
  5
360C
  8
0
  6
VERDECKT
 62
     1
 10
-0.0000000000000568
 20
-0.0000000000000294
 30
0.0
 40
120.0
  0
CIRCLE
  5
360D
  8
0
  6
VERDECKT
 62
     1
 10
-0.0000000000000568
 20
-0.0000000000000296
 30
0.0
 40
114.0
  0
ENDBLK
  5
360F
  8
0
  0
ENDSEC
  0
SECTION
  2
ENTITIES
  0
INSERT
  5
D70
  8
ADSK_ASSOC_ENTITY_BACKUPS
  2
*S0
 10
0.0
 20
0.0
 30
0.0
  0
INSERT
  5
35EB
  8
STEMPEL
  2
A$C8CB12866
 10
0.0
 20
-96.296568036389985
 30
279.6914329326904749
  0
INSERT
  5
3610
  8
STEMPEL
  2
A$C6E5AECD1
 10
-620.5611618995892513
 20
-96.2965680363899139
 30
279.6914329326904749
  0
VIEWPORT
  5
D51
 67
     1
  8
0
 10
296.7399388208791038
 20
209.7458572388204914
 30
0.0
 40
802.3246303869141229
 41
422.1799307958477812
 68
     1
 69
     1
1001
ACAD
1000
MVIEW
1002
{
1070
    16
1010
0.0
1020
0.0
1030
0.0
1010
0.0
1020
0.0
1030
1.0
1040
0.0
1040
422.1799307958477812
1040
296.7399388208791038
1040
209.7458572388204914
1040
50.0
1040
0.0
1040
0.0
1070
     0
1070
  1500
1070
     1
1070
     1
1070
     0
1070
     0
1070
     0
1070
     0
1040
0.0
1040
0.0
1040
0.0
1040
10.0
1040
10.0
1040
10.0
1040
10.0
1070
     0
1002
{
1002
}
1002
}
  0
ENDSEC
  0
EOF
