  0
SECTION
  2
HEADER
  9
$ACADVER
  1
AC1009
  9
$INSBASE
 10
0.0
 20
0.0
 30
0.0
  9
$EXTMIN
 10
-743.5611618995892513
 20
-328.9363536153518908
 30
-225.0
  9
$EXTMAX
 10
225.0
 20
121.063652038574304
 30
314.5335313489431996
  9
$LIMMIN
 10
0.0
 20
0.0
  9
$LIMMAX
 10
420.0
 20
297.0
  9
$ORTHOMODE
 70
     1
  9
$REGENMODE
 70
     1
  9
$FILLMODE
 70
     1
  9
$QTEXTMODE
 70
     0
  9
$MIRRTEXT
 70
     1
  9
$DRAGMODE
 70
     2
  9
$LTSCALE
 40
10.0
  9
$OSMODE
 70
  3583
  9
$ATTMODE
 70
     1
  9
$TEXTSIZE
 40
3.5
  9
$TRACEWID
 40
1.0
  9
$TEXTSTYLE
  7
STANDARD
  9
$CLAYER
  8
STEMPEL
  9
$CELTYPE
  6
BYLAYER
  9
$CECOLOR
 62
   256
  9
$DIMSCALE
 40
1.0
  9
$DIMASZ
 40
3.5
  9
$DIMEXO
 40
1.0
  9
$DIMDLI
 40
0.38
  9
$DIMRND
 40
0.0
  9
$DIMDLE
 40
0.0
  9
$DIMEXE
 40
1.0
  9
$DIMTP
 40
0.0
  9
$DIMTM
 40
0.000000001
  9
$DIMTXT
 40
3.5
  9
$DIMCEN
 40
0.09
  9
$DIMTSZ
 40
0.0
  9
$DIMTOL
 70
     0
  9
$DIMLIM
 70
     0
  9
$DIMTIH
 70
     0
  9
$DIMTOH
 70
     0
  9
$DIMSE1
 70
     0
  9
$DIMSE2
 70
     0
  9
$DIMTAD
 70
     1
  9
$DIMZIN
 70
     8
  9
$DIMBLK
  1

  9
$DIMASO
 70
     1
  9
$DIMSHO
 70
     0
  9
$DIMPOST
  1

  9
$DIMAPOST
  1

  9
$DIMALT
 70
     0
  9
$DIMALTD
 70
     2
  9
$DIMALTF
 40
25.3999999999999986
  9
$DIMLFAC
 40
2.0
  9
$DIMTOFL
 70
     1
  9
$DIMTVP
 40
0.0
  9
$DIMTIX
 70
     0
  9
$DIMSOXD
 70
     0
  9
$DIMSAH
 70
     0
  9
$DIMBLK1
  1

  9
$DIMBLK2
  1

  9
$DIMSTYLE
  2
LORO
  9
$DIMCLRD
 70
     0
  9
$DIMCLRE
 70
     0
  9
$DIMCLRT
 70
     1
  9
$DIMTFAC
 40
0.5
  9
$DIMGAP
 40
1.5
  9
$LUNITS
 70
     2
  9
$LUPREC
 70
     2
  9
$SKETCHINC
 40
1.0
  9
$FILLETRAD
 40
0.0
  9
$AUNITS
 70
     0
  9
$AUPREC
 70
     0
  9
$MENU
  1
ACAD
  9
$ELEVATION
 40
0.0
  9
$PELEVATION
 40
0.0
  9
$THICKNESS
 40
0.0
  9
$LIMCHECK
 70
     0
  9
$BLIPMODE
 70
     0
  9
$CHAMFERA
 40
0.0
  9
$CHAMFERB
 40
0.0
  9
$SKPOLY
 70
     0
  9
$TDCREATE
 40
2455397.867048610933125
  9
$TDUPDATE
 40
2460928.4053587960079312
  9
$TDINDWG
 40
0.4796700579
  9
$TDUSRTIMER
 40
0.4796700579
  9
$USRTIMER
 70
     1
  9
$ANGBASE
 50
0.0
  9
$ANGDIR
 70
     0
  9
$PDMODE
 70
     0
  9
$PDSIZE
 40
0.0
  9
$PLINEWID
 40
0.0
  9
$COORDS
 70
     1
  9
$SPLFRAME
 70
     0
  9
$SPLINETYPE
 70
     6
  9
$SPLINESEGS
 70
     8
  9
$ATTDIA
 70
     1
  9
$ATTREQ
 70
     1
  9
$HANDLING
 70
     1
  9
$HANDSEED
  5
312D
  9
$SURFTAB1
 70
     6
  9
$SURFTAB2
 70
     6
  9
$SURFTYPE
 70
     6
  9
$SURFU
 70
     6
  9
$SURFV
 70
     6
  9
$UCSNAME
  2

  9
$UCSORG
 10
0.0
 20
0.0
 30
0.0
  9
$UCSXDIR
 10
1.0
 20
0.0
 30
0.0
  9
$UCSYDIR
 10
0.0
 20
1.0
 30
0.0
  9
$PUCSNAME
  2

  9
$PUCSORG
 10
0.0
 20
0.0
 30
0.0
  9
$PUCSXDIR
 10
1.0
 20
0.0
 30
0.0
  9
$PUCSYDIR
 10
0.0
 20
1.0
 30
0.0
  9
$USERI1
 70
     0
  9
$USERI2
 70
     0
  9
$USERI3
 70
     0
  9
$USERI4
 70
     0
  9
$USERI5
 70
     0
  9
$USERR1
 40
0.0
  9
$USERR2
 40
0.0
  9
$USERR3
 40
0.0
  9
$USERR4
 40
0.0
  9
$USERR5
 40
0.0
  9
$WORLDVIEW
 70
     1
  9
$SHADEDGE
 70
     3
  9
$SHADEDIF
 70
    70
  9
$TILEMODE
 70
     1
  9
$MAXACTVP
 70
    16
  9
$PLIMCHECK
 70
     0
  9
$PEXTMIN
 10
1.0000000000000000E+20
 20
1.0000000000000000E+20
 30
1.0000000000000000E+20
  9
$PEXTMAX
 10
-1.0000000000000000E+20
 20
-1.0000000000000000E+20
 30
-1.0000000000000000E+20
  9
$PLIMMIN
 10
-0.2600611791208394
 20
-0.2541427611794802
  9
$PLIMMAX
 10
593.7399388208790469
 20
419.7458572388205198
  9
$UNITMODE
 70
     0
  9
$VISRETAIN
 70
     0
  9
$PLINEGEN
 70
     0
  9
$PSLTSCALE
 70
     0
  0
ENDSEC
  0
SECTION
  2
TABLES
  0
TABLE
  2
VPORT
 70
     1
  0
VPORT
  2
*ACTIVE
 70
     0
 10
0.0
 20
0.0
 11
1.0
 21
1.0
 12
0.0
 22
0.0
 13
0.0
 23
0.0
 14
1.0
 24
1.0
 15
10.0
 25
10.0
 16
-0.0000000000003979
 26
0.0
 36
1866.2241420258790185
 17
-298.3954095764693193
 27
-121.8946389277077031
 37
264.7597274780272869
 40
691.3943490676961119
 41
1.9004329004328999
 42
50.0
 43
0.0
 44
0.0
 50
0.0
 51
0.0
 71
     0
 72
  1500
 73
     1
 74
     0
 75
     0
 76
     0
 77
     0
 78
     0
  0
ENDTAB
  0
TABLE
  2
LTYPE
 70
     4
  0
LTYPE
  2
CONTINUOUS
 70
     0
  3
Solid line
 72
    65
 73
     0
 40
0.0
  0
LTYPE
  2
STRICHPUNKT
 70
     0
  3
__ . __ . __ . __ . __ . __ . __ . __ . __ . __
 72
    65
 73
     4
 40
1.0
 49
0.5
 49
-0.25
 49
0.0
 49
-0.25
  0
LTYPE
  2
AUSGEZOGEN
 70
     0
  3
Ausgezogene Linie
 72
    65
 73
     0
 40
0.0
  0
LTYPE
  2
VERDECKT
 70
     0
  3
Verdeckt __ __ __ __ __ __ __ __ __ __ __ __ __
 72
    65
 73
     2
 40
0.375
 49
0.25
 49
-0.125
  0
ENDTAB
  0
TABLE
  2
LAYER
 70
     6
  0
LAYER
  2
0
 70
     0
 62
     7
  6
CONTINUOUS
  0
LAYER
  2
STEMPEL
 70
     0
 62
     3
  6
CONTINUOUS
  0
LAYER
  2
DEFPOINTS
 70
     0
 62
     7
  6
AUSGEZOGEN
  0
LAYER
  2
ADSK_ASSOC_ENTITY_BACKUPS
 70
     1
 62
    -7
  6
CONTINUOUS
  0
LAYER
  2
MATERIAL__EDELSTAHL_
 70
     0
 62
   254
  6
CONTINUOUS
  0
LAYER
  2
DICHTELEMENT
 70
     0
 62
   250
  6
CONTINUOUS
  0
ENDTAB
  0
TABLE
  2
STYLE
 70
     2
  0
STYLE
  2
STANDARD
 70
     0
 40
0.0
 41
0.8
 50
0.0
 71
     0
 42
3.5
  3
simplex.shx
  4

  0
STYLE
  2

 70
     1
 40
0.0
 41
1.0
 50
0.0
 71
     0
 42
2.5
  3
ltypeshp.shx
  4

  0
ENDTAB
  0
TABLE
  2
VIEW
 70
     0
  0
ENDTAB
  0
TABLE
  2
UCS
 70
     0
  0
ENDTAB
  0
TABLE
  2
APPID
 70
    28
  0
APPID
  2
ACAD
 70
     0
  0
APPID
  2
ACAD_NAV_VCDISPLAY
 70
     0
  0
APPID
  2
GRADIENTCOLOR1ACI
 70
     0
  0
APPID
  2
GRADIENTCOLOR2ACI
 70
     0
  0
APPID
  2
ACAD_DSTYLE_DIMRADIAL_EXTENSION
 70
     0
  0
APPID
  2
ACADANNOMONITORALERTICONDI
 70
     0
  0
APPID
  2
ACAD_EXEMPT_FROM_CAD_STANDARDS
 70
     0
  0
APPID
  2
ACAD_MLEADERVER
 70
     0
  0
APPID
  2
ACAD_PSEXT
 70
     0
  0
APPID
  2
ACAECLAYERSTANDARD
 70
     0
  0
APPID
  2
ACAUTHENVIRON
 70
     0
  0
APPID
  2
ACCMTRANSPARENCY
 70
     0
  0
APPID
  2
ACAD_STEPID
 70
     0
  0
APPID
  2
ACSYNERGY
 70
     0
  0
APPID
  2
SYNERGY_BODY_TBR_ID
 70
     0
  0
APPID
  2
ACAD_VIEW_EDGE_ID
 70
     0
  0
APPID
  2
ACAD_MODELDOC_XFORM
 70
     0
  0
APPID
  2
ACAD_DIMASSOC_CALC_DIMLFAC
 70
     0
  0
APPID
  2
ACAD_DIMASSOC_DIMLFAC
 70
     0
  0
APPID
  2
ACAD_DIMASSOC_OVERRIDDEN_D
 70
     0
  0
APPID
  2
ACSYNERGYSKETCH
 70
     0
  0
APPID
  2
ACAD_DSTYLE_DIMJAG
 70
     0
  0
APPID
  2
ACAD_DSTYLE_DIMTALN
 70
     0
  0
APPID
  2
ACDBDYNAMICBLOCKGUID
 70
     0
  0
APPID
  2
ACAD_DSTYLE_DIMBREAK
 70
     0
  0
APPID
  2
PLOTTRANSPARENCY
 70
     0
  0
APPID
  2
ACADANNOPO
 70
     0
  0
APPID
  2
ACADANNOTATIVE
 70
     0
  0
ENDTAB
  0
TABLE
  2
DIMSTYLE
 70
     2
  0
DIMSTYLE
  2
STANDARD
 70
     0
  3

  4

  5

  6

  7

 40
1.0
 41
0.18
 42
0.0625
 43
0.38
 44
0.18
 45
0.0
 46
0.0
 47
0.0
 48
0.0
140
0.18
141
0.09
142
0.0
143
25.3999999999999986
144
1.0
145
0.0
146
1.0
147
0.09
 71
     0
 72
     0
 73
     1
 74
     1
 75
     0
 76
     0
 77
     0
 78
     0
170
     0
171
     2
172
     0
173
     0
174
     0
175
     0
176
     0
177
     0
178
     0
  0
DIMSTYLE
  2
LORO
 70
     0
  3

  4

  5

  6

  7

 40
1.0
 41
3.5
 42
1.0
 43
0.38
 44
1.0
 45
0.0
 46
0.0
 47
0.0
 48
0.000000001
140
3.5
141
0.09
142
0.0
143
25.3999999999999986
144
2.0
145
0.0
146
0.5
147
1.5
 71
     0
 72
     0
 73
     0
 74
     0
 75
     0
 76
     0
 77
     1
 78
     8
170
     0
171
     2
172
     1
173
     0
174
     0
175
     0
176
     0
177
     0
178
     1
  0
ENDTAB
  0
ENDSEC
  0
SECTION
  2
BLOCKS
  0
BLOCK
  8
0
  2
$MODEL_SPACE
 70
     0
 10
0.0
 20
0.0
 30
0.0
  3
$MODEL_SPACE
  1

  0
ENDBLK
  5
38
  8
0
  0
BLOCK
 67
     1
  8
0
  2
$PAPER_SPACE
 70
     0
 10
0.0
 20
0.0
 30
0.0
  3
$PAPER_SPACE
  1

  0
ENDBLK
  5
36
 67
     1
  8
0
  0
BLOCK
  8
0
  2
*S0
 70
     1
 10
0.0
 20
0.0
 30
0.0
  3
*S0
  1

  0
ENDBLK
  5
D6E
  8
0
  0
BLOCK
  8
0
  2
A$C6C02BBA9
 70
     0
 10
0.0
 20
0.0
 30
0.0
  3
A$C6C02BBA9
  1

  0
LINE
  5
3068
  8
0
  6
CONTINUOUS
 62
     3
 10
-160.5611618995893082
 20
-90.5000000000000142
 30
0.0000000000000201
 11
-160.5611618995891945
 21
90.5
 31
-0.0000000000000201
210
0.0000000000000002
220
1.0
230
-0.0000000000000002
  0
LINE
  5
3069
  8
0
  6
CONTINUOUS
 62
     3
 10
-157.5611618995893082
 20
-85.6073547818157721
 30
0.000000000000019
 11
-157.5611618995891945
 21
85.6073547818157152
 31
-0.000000000000019
210
0.0000000000000002
220
1.0
230
-0.0000000000000002
  0
LINE
  5
306A
  8
0
  6
CONTINUOUS
 62
     3
 10
-152.3611618995892911
 20
-87.5000000000000568
 30
0.0000000000000194
 11
-152.3611618995892059
 21
87.4999999999999858
 31
-0.0000000000000194
210
0.0000000000000002
220
1.0
230
-0.0000000000000002
  0
LINE
  5
306B
  8
0
  6
CONTINUOUS
 62
     3
 10
-147.5611618995893082
 20
-87.5000000000000142
 30
0.0000000000000194
 11
-147.5611618995891945
 21
87.4999999999999858
 31
-0.0000000000000194
210
0.0000000000000002
220
1.0
230
-0.0000000000000002
  0
LINE
  5
306C
  8
0
  6
CONTINUOUS
 62
     3
 10
-144.5611618995893082
 20
-90.5000000000000426
 30
0.0000000000000201
 11
-144.5611618995891945
 21
90.4999999999999858
 31
-0.0000000000000201
210
0.0000000000000002
220
1.0
230
-0.0000000000000002
  0
LINE
  5
306D
  8
0
  6
CONTINUOUS
 62
     3
 10
-143.5611618995891945
 20
-90.5000000000000426
 30
0.0000000000000201
 11
-143.5611618995891945
 21
90.4999999999999858
 31
-0.0000000000000201
210
0.0000000000000002
220
1.0
230
-0.0000000000000002
  0
LINE
  5
306E
  8
0
  6
CONTINUOUS
 62
     3
 10
-140.5611618995893082
 20
-87.5000000000000142
 30
0.0000000000000194
 11
-140.5611618995891945
 21
87.4999999999999858
 31
-0.0000000000000194
210
0.0000000000000002
220
1.0
230
-0.0000000000000002
  0
LINE
  5
306F
  8
0
  6
CONTINUOUS
 62
     3
 10
-139.7573143222959118
 20
-87.5000000000000142
 30
0.0000000000000194
 11
-139.7573143222959118
 21
87.4999999999999858
 31
-0.0000000000000194
210
0.0000000000000002
220
1.0
230
-0.0000000000000002
  0
LINE
  5
3070
  8
0
  6
CONTINUOUS
 62
     3
 10
-134.5611618995893082
 20
-90.5000000000000426
 30
0.0000000000000201
 11
-134.5611618995891945
 21
90.4999999999999858
 31
-0.0000000000000201
210
0.0000000000000002
220
1.0
230
-0.0000000000000002
  0
LINE
  5
3071
  8
0
  6
CONTINUOUS
 62
     3
 10
-133.5611618995891945
 20
-76.5000000000000426
 30
0.000000000000017
 11
-133.5611618995891945
 21
76.4999999999999858
 31
-0.000000000000017
210
0.0000000000000002
220
1.0
230
-0.0000000000000002
  0
LINE
  5
3072
  8
0
  6
CONTINUOUS
 62
     3
 10
-168.5611618995891945
 20
-85.0151724426985567
 30
0.0000000000000189
 11
-168.5611618995891945
 21
85.0151724426985282
 31
-0.0000000000000189
210
0.0000000000000002
220
1.0
230
-0.0000000000000002
  0
ARC
  5
3073
  8
0
  6
CONTINUOUS
 62
     3
 10
159.5611618995891945
 20
-85.5000000000000142
 30
0.0
 40
1.0
210
0.0
220
-0.0000000000000002
230
-1.0
 50
359.9999999999992042
 51
89.99999999999838
  0
ARC
  5
3074
  8
0
  6
CONTINUOUS
 62
     3
 10
159.5611618995891945
 20
85.4999999999999716
 30
0.0
 40
0.9999999999999859
210
0.0
220
-0.0000000000000002
230
-1.0
 50
270.0
 51
359.9999999999992042
  0
LINE
  5
3075
  8
0
  6
CONTINUOUS
 62
     3
 10
-159.5611618995891945
 20
84.4999999999999858
 30
-0.0000000000000188
 11
-158.5611618995891945
 21
84.4999999999999858
 31
-0.0000000000000188
210
0.0000000000000002
220
1.0
230
-0.0000000000000002
  0
LINE
  5
3076
  8
0
  6
CONTINUOUS
 62
     3
 10
-159.5611618995893082
 20
-84.5000000000000426
 30
0.0000000000000188
 11
-158.5611618995893082
 21
-84.5000000000000426
 31
0.0000000000000188
210
0.0000000000000002
220
1.0
230
-0.0000000000000002
  0
ARC
  5
3077
  8
0
  6
CONTINUOUS
 62
     3
 10
158.5611618995891945
 20
-85.5000000000000142
 30
0.0
 40
0.9999999999999859
210
0.0
220
-0.0000000000000002
230
-1.0
 50
89.99999999999838
 51
180.0000000000007958
  0
ARC
  5
3078
  8
0
  6
CONTINUOUS
 62
     3
 10
158.5611618995891945
 20
85.4999999999999716
 30
0.0
 40
0.9999999999999717
210
0.0
220
-0.0000000000000002
230
-1.0
 50
179.9999999999992042
 51
270.0000000000017053
  0
LINE
  5
3079
  8
0
  6
CONTINUOUS
 62
     3
 10
-157.5611618995891945
 20
85.607354781815701
 30
-0.000000000000019
 11
-152.3611618995892059
 21
87.4999999999999858
 31
-0.0000000000000194
210
0.0000000000000002
220
1.0
230
-0.0000000000000002
  0
LINE
  5
307A
  8
0
  6
CONTINUOUS
 62
     3
 10
-157.5611618995893082
 20
-85.6073547818157436
 30
0.000000000000019
 11
-152.3611618995892911
 21
-87.5000000000000284
 31
0.0000000000000194
210
0.0000000000000002
220
1.0
230
-0.0000000000000002
  0
LINE
  5
307B
  8
0
  6
CONTINUOUS
 62
     3
 10
-152.3611618995892059
 20
87.4999999999999858
 30
-0.0000000000000194
 11
-147.5611618995891945
 21
87.4999999999999858
 31
-0.0000000000000194
210
0.0000000000000002
220
1.0
230
-0.0000000000000002
  0
LINE
  5
307C
  8
0
  6
CONTINUOUS
 62
     3
 10
-152.3611618995892911
 20
-87.5000000000000568
 30
0.0000000000000194
 11
-147.5611618995893082
 21
-87.5000000000000568
 31
0.0000000000000194
210
0.0000000000000002
220
1.0
230
-0.0000000000000002
  0
LINE
  5
307D
  8
0
  6
CONTINUOUS
 62
     3
 10
-147.5611618995891945
 20
87.4999999999999858
 30
-0.0000000000000194
 11
-144.5611618995891945
 21
90.4999999999999858
 31
-0.0000000000000201
210
0.0000000000000002
220
1.0
230
-0.0000000000000002
  0
LINE
  5
307E
  8
0
  6
CONTINUOUS
 62
     3
 10
-147.5611618995893082
 20
-87.5000000000000568
 30
0.0000000000000194
 11
-144.5611618995893082
 21
-90.5000000000000426
 31
0.0000000000000201
210
0.0000000000000002
220
1.0
230
-0.0000000000000002
  0
LINE
  5
307F
  8
0
  6
CONTINUOUS
 62
     3
 10
-144.5611618995891945
 20
90.4999999999999858
 30
-0.0000000000000201
 11
-143.5611618995891945
 21
90.4999999999999858
 31
-0.0000000000000201
210
0.0000000000000002
220
1.0
230
-0.0000000000000002
  0
LINE
  5
3080
  8
0
  6
CONTINUOUS
 62
     3
 10
-144.5611618995893082
 20
-90.5000000000000426
 30
0.0000000000000201
 11
-143.5611618995891945
 21
-90.5000000000000426
 31
0.0000000000000201
210
0.0000000000000002
220
1.0
230
-0.0000000000000002
  0
LINE
  5
3081
  8
0
  6
CONTINUOUS
 62
     3
 10
-140.5611618995893082
 20
-87.5000000000000568
 30
0.0000000000000194
 11
-143.5611618995891945
 21
-90.5000000000000426
 31
0.0000000000000201
210
0.0000000000000002
220
1.0
230
-0.0000000000000002
  0
LINE
  5
3082
  8
0
  6
CONTINUOUS
 62
     3
 10
-140.5611618995891945
 20
87.4999999999999858
 30
-0.0000000000000194
 11
-143.5611618995891945
 21
90.4999999999999858
 31
-0.0000000000000201
210
0.0000000000000002
220
1.0
230
-0.0000000000000002
  0
LINE
  5
3083
  8
0
  6
CONTINUOUS
 62
     3
 10
-140.5611618995891945
 20
87.4999999999999858
 30
-0.0000000000000194
 11
-139.7573143222959118
 21
87.4999999999999858
 31
-0.0000000000000194
210
0.0000000000000002
220
1.0
230
-0.0000000000000002
  0
LINE
  5
3084
  8
0
  6
CONTINUOUS
 62
     3
 10
-140.5611618995893082
 20
-87.5000000000000568
 30
0.0000000000000194
 11
-139.7573143222959118
 21
-87.5000000000000568
 31
0.0000000000000194
210
0.0000000000000002
220
1.0
230
-0.0000000000000002
  0
LINE
  5
3085
  8
0
  6
CONTINUOUS
 62
     3
 10
-139.7573143222959118
 20
87.4999999999999858
 30
-0.0000000000000194
 11
-134.5611618995891945
 21
90.4999999999999858
 31
-0.0000000000000201
210
0.0000000000000002
220
1.0
230
-0.0000000000000002
  0
LINE
  5
3086
  8
0
  6
CONTINUOUS
 62
     3
 10
-139.7573143222959118
 20
-87.5000000000000568
 30
0.0000000000000194
 11
-134.5611618995893082
 21
-90.5000000000000426
 31
0.0000000000000201
210
0.0000000000000002
220
1.0
230
-0.0000000000000002
  0
ARC
  5
3087
  8
0
  6
CONTINUOUS
 62
     3
 10
141.5611618995893082
 20
-76.5000000000001421
 30
0.0
 40
8.000000000000087
210
0.0
220
-0.0000000000000002
230
-1.0
 50
179.9999999999992895
 51
208.9550243718601052
  0
ARC
  5
3088
  8
0
  6
CONTINUOUS
 62
     3
 10
141.5611618995891945
 20
76.5000000000000853
 30
0.0
 40
8.000000000000087
210
0.0
220
-0.0000000000000002
230
-1.0
 50
151.0449756281398095
 51
180.0000000000007105
  0
ARC
  5
3089
  8
0
  6
CONTINUOUS
 62
     3
 10
166.0611618995893082
 20
-85.0151724426985993
 30
0.0
 40
2.4999999999999432
210
0.0
220
-0.0000000000000002
230
-1.0
 50
299.9999999999993179
 51
0.0000000000006743
  0
ARC
  5
308A
  8
0
  6
CONTINUOUS
 62
     3
 10
166.0611618995893082
 20
85.0151724426985709
 30
0.0
 40
2.4999999999999432
210
0.0
220
-0.0000000000000002
230
-1.0
 50
359.9999999999993179
 51
60.0000000000007816
  0
LINE
  5
308B
  8
0
  6
CONTINUOUS
 62
     3
 10
-167.3111618995891945
 20
87.1802359521596486
 30
-0.0000000000000194
 11
-162.1412889185114068
 21
90.1650635094611062
 31
-0.00000000000002
210
0.0000000000000002
220
1.0
230
-0.0000000000000002
  0
LINE
  5
308C
  8
0
  6
CONTINUOUS
 62
     3
 10
-167.3111618995893082
 20
-87.180235952159677
 30
0.0000000000000194
 11
-162.1412889185114921
 21
-90.1650635094611346
 31
0.00000000000002
210
0.0000000000000002
220
1.0
230
-0.0000000000000002
  0
ARC
  5
308D
  8
0
  6
CONTINUOUS
 62
     3
 10
160.8912889185114068
 20
-87.9999999999998863
 30
0.0
 40
2.5000000000001421
210
0.0
220
-0.0000000000000002
230
-1.0
 50
270.0
 51
299.999999999998181
  0
ARC
  5
308E
  8
0
  6
CONTINUOUS
 62
     3
 10
160.8912889185114068
 20
87.9999999999998579
 30
0.0
 40
2.500000000000147
210
0.0
220
-0.0000000000000002
230
-1.0
 50
60.000000000000469
 51
89.9999999999987068
  0
LINE
  5
308F
  8
0
  6
CONTINUOUS
 62
     3
 10
-160.8912889185114068
 20
90.5
 30
-0.0000000000000201
 11
-160.5611618995891945
 21
90.5
 31
-0.0000000000000201
210
0.0000000000000002
220
1.0
230
-0.0000000000000002
  0
LINE
  5
3090
  8
0
  6
CONTINUOUS
 62
     3
 10
-160.8912889185114921
 20
-90.5000000000000142
 30
0.0000000000000201
 11
-160.5611618995893082
 21
-90.5000000000000142
 31
0.0000000000000201
210
0.0000000000000002
220
1.0
230
-0.0000000000000002
  0
LINE
  5
3091
  8
0
  6
CONTINUOUS
 62
     3
 10
-29.9999999999999787
 20
83.8881769789468734
 30
-0.0000000000000186
 11
-30.0
 21
0.0000000000000067
 31
0.0
210
0.0000000000000002
220
1.0
230
-0.0000000000000002
  0
LINE
  5
3092
  8
0
  6
CONTINUOUS
 62
     3
 10
-30.0
 20
-0.0000000000000094
 30
0.0
 11
-30.0000000000000213
 21
-83.8881769789468876
 31
0.0000000000000186
210
0.0000000000000002
220
1.0
230
-0.0000000000000002
  0
LINE
  5
3093
  8
0
  6
CONTINUOUS
 62
     3
 10
-1.0000000000000631
 20
-225.0
 30
0.00000000000005
 11
-1.000000000000058
 21
-205.0000000000001137
 31
0.0000000000000455
210
0.0000000000000002
220
1.0
230
-0.0000000000000002
  0
LINE
  5
3094
  8
0
  6
CONTINUOUS
 62
     3
 10
-0.0000000000000637
 20
-225.0
 30
0.00000000000005
 11
-1.0000000000000631
 21
-225.0
 31
0.00000000000005
210
0.0000000000000002
220
1.0
230
-0.0000000000000002
  0
LINE
  5
3095
  8
0
  6
CONTINUOUS
 62
     3
 10
-0.0000000000000637
 20
-225.0
 30
0.00000000000005
 11
-0.0000000000000581
 21
-205.0000000000001137
 31
0.0000000000000455
210
0.0000000000000002
220
1.0
230
-0.0000000000000002
  0
LINE
  5
3096
  8
0
  6
CONTINUOUS
 62
     3
 10
0.0000000000000637
 20
225.0
 30
-0.00000000000005
 11
-0.9999999999999362
 21
225.0
 31
-0.00000000000005
210
0.0000000000000002
220
1.0
230
-0.0000000000000002
  0
LINE
  5
3097
  8
0
  6
CONTINUOUS
 62
     3
 10
-0.9999999999999419
 20
205.0000000000001137
 30
-0.0000000000000455
 11
-0.9999999999999362
 21
225.0
 31
-0.00000000000005
210
0.0000000000000002
220
1.0
230
-0.0000000000000002
  0
LINE
  5
3098
  8
0
  6
CONTINUOUS
 62
     3
 10
0.0000000000000581
 20
205.0000000000001137
 30
-0.0000000000000455
 11
0.0000000000000637
 21
225.0
 31
-0.00000000000005
210
0.0000000000000002
220
1.0
230
-0.0000000000000002
  0
LINE
  5
3099
  8
0
  6
CONTINUOUS
 62
     3
 10
-0.9999999999999419
 20
205.0000000000001137
 30
-0.0000000000000455
 11
-1.000000000000058
 21
-205.0000000000001137
 31
0.0000000000000455
210
0.0000000000000002
220
1.0
230
-0.0000000000000002
  0
LINE
  5
309A
  8
0
  6
CONTINUOUS
 62
     3
 10
0.0000000000000581
 20
205.0000000000001137
 30
-0.0000000000000455
 11
-0.0000000000000581
 21
-205.0000000000001137
 31
0.0000000000000455
210
0.0000000000000002
220
1.0
230
-0.0000000000000002
  0
ARC
  5
309B
  8
0
  6
CONTINUOUS
 62
     3
 10
1.999999999999982
 20
99.5000000000000426
 30
0.0
 40
1.0000000000000111
210
0.0
220
-0.0000000000000002
230
-1.0
 50
180.0
 51
242.6450192949723998
  0
ARC
  5
309C
  8
0
  6
CONTINUOUS
 62
     3
 10
2.0000000000000369
 20
-99.5000000000000426
 30
0.0
 40
1.0000000000000051
210
0.0
220
-0.0000000000000002
230
-1.0
 50
117.3549807050275007
 51
180.0
  0
LINE
  5
309D
  8
0
  6
CONTINUOUS
 62
     3
 10
-29.9999999999999716
 20
83.8881769789468734
 30
-0.0000000000000186
 11
-1.5404979447576099
 21
98.6118232939172685
 31
-0.0000000000000219
210
0.0000000000000002
220
1.0
230
-0.0000000000000002
  0
LINE
  5
309E
  8
0
  6
CONTINUOUS
 62
     3
 10
-30.0000000000000107
 20
-83.8881769789468734
 30
0.0000000000000186
 11
-1.5404979447576681
 21
-98.6118232939172685
 31
0.0000000000000219
210
0.0000000000000002
220
1.0
230
-0.0000000000000002
  0
LINE
  5
309F
  8
0
  6
VERDECKT
 62
     1
 10
-137.5611618995893082
 20
-85.5000000000000426
 30
0.000000000000019
 11
-137.5611618995891945
 21
85.4999999999999858
 31
-0.000000000000019
210
0.0000000000000002
220
1.0
230
-0.0000000000000002
  0
LINE
  5
30A0
  8
0
  6
VERDECKT
 62
     1
 10
-135.5611618995893082
 20
-72.5000000000000995
 30
0.0000000000000161
 11
-135.5611618995891945
 21
72.5000000000000142
 31
-0.0000000000000161
210
0.0000000000000002
220
1.0
230
-0.0000000000000002
  0
LINE
  5
30A1
  8
0
  6
VERDECKT
 62
     1
 10
-137.5611618995891945
 20
85.4999999999999858
 30
-0.000000000000019
 11
-134.5611618995891945
 21
88.4999999999999858
 31
-0.0000000000000197
210
0.0000000000000002
220
1.0
230
-0.0000000000000002
  0
LINE
  5
30A2
  8
0
  6
VERDECKT
 62
     1
 10
-137.5611618995893082
 20
-85.5000000000000426
 30
0.000000000000019
 11
-134.5611618995893082
 21
-88.5000000000000426
 31
0.0000000000000197
210
0.0000000000000002
220
1.0
230
-0.0000000000000002
  0
ARC
  5
30A3
  8
0
  6
VERDECKT
 62
     1
 10
141.5611618995891092
 20
-76.5000000000003126
 30
0.0
 40
7.9999999999998561
210
0.0
220
-0.0000000000000002
230
-1.0
 50
208.9550243718595937
 51
240.0000000000003126
  0
ARC
  5
30A4
  8
0
  6
VERDECKT
 62
     1
 10
141.5611618995891092
 20
76.5000000000002558
 30
0.0
 40
7.9999999999998632
210
0.0
220
-0.0000000000000002
230
-1.0
 50
119.9999999999996021
 51
151.0449756281402927
  0
LINE
  5
30A5
  8
0
  6
VERDECKT
 62
     1
 10
-135.5611618995891945
 20
72.5000000000000142
 30
-0.0000000000000161
 11
-133.5611618995891945
 21
72.5000000000000142
 31
-0.0000000000000161
210
0.0000000000000002
220
1.0
230
-0.0000000000000002
  0
LINE
  5
30A6
  8
0
  6
VERDECKT
 62
     1
 10
-135.5611618995893082
 20
-72.5000000000000711
 30
0.0000000000000161
 11
-133.5611618995893082
 21
-72.5000000000000711
 31
0.0000000000000161
210
0.0000000000000002
220
1.0
230
-0.0000000000000002
  0
ARC
  5
30A7
  8
0
  6
VERDECKT
 62
     1
 10
143.5611618995891945
 20
-72.5000000000000995
 30
0.0
 40
7.9999999999999156
210
0.0
220
-0.0000000000000002
230
-1.0
 50
179.999999999999801
 51
270.0000000000006253
  0
ARC
  5
30A8
  8
0
  6
VERDECKT
 62
     1
 10
143.5611618995891945
 20
72.5
 30
0.0
 40
7.9999999999999867
210
0.0
220
-0.0000000000000002
230
-1.0
 50
90.0000000000000284
 51
179.9999999999998863
  0
LINE
  5
30A9
  8
0
  6
VERDECKT
 62
     1
 10
-160.5611618995891945
 20
80.5
 30
-0.0000000000000179
 11
-143.5611618995891945
 21
80.4999999999999858
 31
-0.0000000000000179
210
0.0000000000000002
220
1.0
230
-0.0000000000000002
  0
LINE
  5
30AA
  8
0
  6
VERDECKT
 62
     1
 10
-160.5611618995893082
 20
-80.5000000000000142
 30
0.0000000000000179
 11
-143.5611618995891945
 21
-80.5000000000000426
 31
0.0000000000000179
210
0.0000000000000002
220
1.0
230
-0.0000000000000002
  0
LINE
  5
30AB
  8
0
  6
VERDECKT
 62
     1
 10
-160.5611618995893082
 20
-80.5000000000000142
 30
0.0000000000000179
 11
-166.7082095123454906
 21
-82.1470964436737461
 31
0.0000000000000182
210
0.0000000000000002
220
1.0
230
-0.0000000000000002
  0
LINE
  5
30AC
  8
0
  6
VERDECKT
 62
     1
 10
-160.5611618995891945
 20
80.5
 30
-0.0000000000000179
 11
-166.7082095123454906
 21
82.1470964436737177
 31
-0.0000000000000182
210
0.0000000000000002
220
1.0
230
-0.0000000000000002
  0
ARC
  5
30AD
  8
0
  6
VERDECKT
 62
     1
 10
166.0611618995893082
 20
-84.561911009396411
 30
0.0
 40
2.499999999999972
210
0.0
220
-0.0000000000000002
230
-1.0
 50
359.9999999999997158
 51
75.0000000000013785
  0
ARC
  5
30AE
  8
0
  6
VERDECKT
 62
     1
 10
166.0611618995893082
 20
84.5619110093963968
 30
0.0
 40
2.4999999999999778
210
0.0
220
-0.0000000000000002
230
-1.0
 50
284.9999999999985789
 51
0.0000000000003435
  0
LINE
  5
30AF
  8
0
  6
VERDECKT
 62
     1
 10
-29.5404984721796993
 20
83.0000000000000142
 30
-0.0000000000000184
 11
-29.5404984721797206
 21
0.0000000000000066
 31
0.0
210
0.0000000000000002
220
1.0
230
-0.0000000000000002
  0
LINE
  5
30B0
  8
0
  6
VERDECKT
 62
     1
 10
-29.5404984721797206
 20
-0.0000000000000055
 30
0.0
 11
-29.5404984721797383
 21
-83.0
 31
0.0000000000000184
210
0.0000000000000002
220
1.0
230
-0.0000000000000002
  0
ARC
  5
30B1
  8
0
  6
VERDECKT
 62
     1
 10
1.999999999999968
 20
99.5000000000000426
 30
0.0
 40
2.0000000000000022
210
0.0
220
-0.0000000000000002
230
-1.0
 50
180.0
 51
242.6450192949731104
  0
ARC
  5
30B2
  8
0
  6
VERDECKT
 62
     1
 10
2.000000000000024
 20
-99.5000000000000426
 30
0.0
 40
2.0000000000000009
210
0.0
220
-0.0000000000000002
230
-1.0
 50
117.3549807050269038
 51
180.0
  0
LINE
  5
30B3
  8
0
  6
VERDECKT
 62
     1
 10
-29.5404984721797312
 20
-83.0000000000000142
 30
0.0000000000000184
 11
-30.0000000000000213
 21
-83.8881769789468876
 31
0.0000000000000186
210
0.0000000000000002
220
1.0
230
-0.0000000000000002
  0
LINE
  5
30B4
  8
0
  6
VERDECKT
 62
     1
 10
-29.5404984721796886
 20
83.0000000000000142
 30
-0.0000000000000184
 11
-29.9999999999999787
 21
83.8881769789468876
 31
-0.0000000000000186
210
0.0000000000000002
220
1.0
230
-0.0000000000000002
  0
LINE
  5
30B5
  8
0
  6
VERDECKT
 62
     1
 10
-29.5404984721796993
 20
83.0000000000000142
 30
-0.0000000000000184
 11
-1.0809958895152501
 21
97.7236465878344944
 31
-0.0000000000000217
210
0.0000000000000002
220
1.0
230
-0.0000000000000002
  0
LINE
  5
30B6
  8
0
  6
VERDECKT
 62
     1
 10
-29.540498472179749
 20
-83.0000000000000142
 30
0.0000000000000184
 11
-1.080995889515304
 21
-97.7236465878344944
 31
0.0000000000000217
210
0.0000000000000002
220
1.0
230
-0.0000000000000002
  0
LINE
  5
30B7
  8
0
  6
VERDECKT
 62
     1
 10
-0.0000000000000589
 20
-208.0
 30
0.0000000000000462
 11
-1.0000000000000591
 21
-208.0
 31
0.0000000000000462
210
0.0000000000000002
220
1.0
230
-0.0000000000000002
  0
LINE
  5
30B8
  8
0
  6
VERDECKT
 62
     1
 10
-0.0000000000000572
 20
-202.0
 30
0.0000000000000449
 11
-1.0000000000000571
 21
-202.0
 31
0.0000000000000449
210
0.0000000000000002
220
1.0
230
-0.0000000000000002
  0
LINE
  5
30B9
  8
0
  6
VERDECKT
 62
     1
 10
0.0000000000000572
 20
202.0
 30
-0.0000000000000449
 11
-0.9999999999999428
 21
202.0
 31
-0.0000000000000449
210
0.0000000000000002
220
1.0
230
-0.0000000000000002
  0
LINE
  5
30BA
  8
0
  6
VERDECKT
 62
     1
 10
0.0000000000000589
 20
208.0
 30
-0.0000000000000462
 11
-0.999999999999941
 21
208.0
 31
-0.0000000000000462
210
0.0000000000000002
220
1.0
230
-0.0000000000000002
  0
ENDBLK
  5
30BC
  8
0
  0
BLOCK
  8
0
  2
A$C3AC41933
 70
     0
 10
0.0
 20
0.0
 30
0.0
  3
A$C3AC41933
  1

  0
CIRCLE
  5
30C0
  8
0
  6
CONTINUOUS
 62
     3
 10
-0.0000000000000853
 20
-0.0000000000000549
 30
0.0
 40
72.5000000000000284
  0
CIRCLE
  5
30C1
  8
0
  6
CONTINUOUS
 62
     3
 10
0.0
 20
0.0000000000000018
 30
0.0
 40
83.0
210
0.0
220
-0.0000000000000002
230
-1.0
  0
CIRCLE
  5
30C2
  8
0
  6
CONTINUOUS
 62
     3
 10
-205.0
 20
205.0
 30
0.0
 40
3.0000000000000071
210
0.0
220
-0.0000000000000002
230
-1.0
  0
CIRCLE
  5
30C3
  8
0
  6
CONTINUOUS
 62
     3
 10
-205.0
 20
-205.0000000000001137
 30
0.0
 40
2.999999999999988
210
0.0
220
-0.0000000000000002
230
-1.0
  0
CIRCLE
  5
30C4
  8
0
  6
CONTINUOUS
 62
     3
 10
205.0
 20
-205.0
 30
0.0
 40
3.0000000000000062
210
0.0
220
-0.0000000000000002
230
-1.0
  0
CIRCLE
  5
30C5
  8
0
  6
CONTINUOUS
 62
     3
 10
205.0
 20
205.0000000000001137
 30
0.0
 40
2.9999999999999969
210
0.0
220
-0.0000000000000002
230
-1.0
  0
ARC
  5
30C6
  8
0
  6
CONTINUOUS
 62
     3
 10
-205.0
 20
-205.0
 30
0.0000000000000455
 40
20.0
 50
180.0
 51
270.0
  0
LINE
  5
30C7
  8
0
  6
CONTINUOUS
 62
     3
 10
-205.0
 20
-225.0
 30
0.00000000000005
 11
205.0
 21
-225.0000000000001137
 31
0.00000000000005
210
0.0000000000000001
220
1.0
230
-0.0000000000000002
  0
ARC
  5
30C8
  8
0
  6
CONTINUOUS
 62
     3
 10
205.0
 20
-205.0000000000001137
 30
0.0000000000000455
 40
20.0
 50
270.0
 51
0.0
  0
LINE
  5
30C9
  8
0
  6
CONTINUOUS
 62
     3
 10
225.0
 20
-205.0000000000001137
 30
0.0000000000000455
 11
225.0
 21
205.0
 31
-0.0000000000000455
210
0.0000000000000001
220
1.0
230
-0.0000000000000002
  0
ARC
  5
30CA
  8
0
  6
CONTINUOUS
 62
     3
 10
205.0
 20
205.0
 30
-0.0000000000000455
 40
20.0
 50
0.0
 51
89.9999999999999858
  0
LINE
  5
30CB
  8
0
  6
CONTINUOUS
 62
     3
 10
205.0
 20
225.0
 30
-0.00000000000005
 11
-205.0
 21
225.0000000000001137
 31
-0.00000000000005
210
0.0000000000000001
220
1.0
230
-0.0000000000000002
  0
ARC
  5
30CC
  8
0
  6
CONTINUOUS
 62
     3
 10
-205.0
 20
205.0000000000001137
 30
-0.0000000000000455
 40
20.0
 50
89.9999999999999858
 51
180.0
  0
LINE
  5
30CD
  8
0
  6
CONTINUOUS
 62
     3
 10
-225.0
 20
205.0000000000001137
 30
-0.0000000000000455
 11
-225.0
 21
-205.0
 31
0.0000000000000455
210
0.0000000000000001
220
1.0
230
-0.0000000000000002
  0
CIRCLE
  5
30CE
  8
0
  6
VERDECKT
 62
     1
 10
-0.0000000000000711
 20
-0.0000000000000519
 30
0.0
 40
84.5000000000000142
  0
CIRCLE
  5
30CF
  8
0
  6
VERDECKT
 62
     1
 10
-0.0000000000000711
 20
-0.000000000000052
 30
0.0
 40
85.6073547818157294
  0
CIRCLE
  5
30D0
  8
0
  6
VERDECKT
 62
     1
 10
-0.0000000000000853
 20
-0.0000000000000542
 30
0.0
 40
87.5
  0
CIRCLE
  5
30D1
  8
0
  6
VERDECKT
 62
     1
 10
-0.0000000000000853
 20
-0.0000000000000548
 30
0.0
 40
90.5
  0
CIRCLE
  5
30D2
  8
0
  6
VERDECKT
 62
     1
 10
-0.0000000000000853
 20
-0.0000000000000548
 30
0.0
 40
88.4999999999999858
  0
CIRCLE
  5
30D3
  8
0
  6
VERDECKT
 62
     1
 10
-0.0000000000000853
 20
-0.0000000000000544
 30
0.0
 40
85.5
  0
CIRCLE
  5
30D4
  8
0
  6
VERDECKT
 62
     1
 10
-0.0000000000000853
 20
-0.0000000000000544
 30
0.0
 40
83.4282032302756704
  0
CIRCLE
  5
30D5
  8
0
  6
VERDECKT
 62
     1
 10
-0.0000000000000853
 20
-0.0000000000000537
 30
0.0
 40
80.5
  0
CIRCLE
  5
30D6
  8
0
  6
VERDECKT
 62
     1
 10
0.0
 20
0.0000000000000018
 30
0.0
 40
83.8881769789468734
210
0.0
220
-0.0000000000000002
230
-1.0
  0
ENDBLK
  5
30D8
  8
0
  0
ENDSEC
  0
SECTION
  2
ENTITIES
  0
INSERT
  5
D70
  8
ADSK_ASSOC_ENTITY_BACKUPS
  2
*S0
 10
0.0
 20
0.0
 30
0.0
  0
INSERT
  5
30BD
  8
STEMPEL
  2
A$C6C02BBA9
 10
0.0
 20
-103.9363536153518055
 30
214.9859212852271071
  0
INSERT
  5
30D9
  8
STEMPEL
  2
A$C3AC41933
 10
-518.5611618995892513
 20
-103.9363479614258949
 30
214.9859212852271071
  0
VIEWPORT
  5
D51
 67
     1
  8
0
 10
296.7399388208791038
 20
209.7458572388204914
 30
0.0
 40
802.3246303869141229
 41
422.1799307958477812
 68
     1
 69
     1
1001
ACAD
1000
MVIEW
1002
{
1070
    16
1010
0.0
1020
0.0
1030
0.0
1010
0.0
1020
0.0
1030
1.0
1040
0.0
1040
422.1799307958477812
1040
296.7399388208791038
1040
209.7458572388204914
1040
50.0
1040
0.0
1040
0.0
1070
     0
1070
  1500
1070
     1
1070
     1
1070
     0
1070
     0
1070
     0
1070
     0
1040
0.0
1040
0.0
1040
0.0
1040
10.0
1040
10.0
1040
10.0
1040
10.0
1070
     0
1002
{
1002
}
1002
}
  0
ENDSEC
  0
EOF
