  0
SECTION
  2
HEADER
  9
$ACADVER
  1
AC1009
  9
$INSBASE
 10
0.0
 20
0.0
 30
0.0
  9
$EXTMIN
 10
-1461.6781005859370453
 20
-442.7448425292968182
 30
256.224884033203125
  9
$EXTMAX
 10
-741.67816162109375
 20
-22.7448272705078089
 30
256.224884033203125
  9
$LIMMIN
 10
0.0
 20
0.0
  9
$LIMMAX
 10
420.0
 20
297.0
  9
$ORTHOMODE
 70
     1
  9
$REGENMODE
 70
     1
  9
$FILLMODE
 70
     1
  9
$QTEXTMODE
 70
     0
  9
$MIRRTEXT
 70
     1
  9
$DRAGMODE
 70
     2
  9
$LTSCALE
 40
10.0
  9
$OSMODE
 70
  3583
  9
$ATTMODE
 70
     1
  9
$TEXTSIZE
 40
3.5
  9
$TRACEWID
 40
1.0
  9
$TEXTSTYLE
  7
STANDARD
  9
$CLAYER
  8
STEMPEL
  9
$CELTYPE
  6
BYLAYER
  9
$CECOLOR
 62
   256
  9
$DIMSCALE
 40
1.0
  9
$DIMASZ
 40
3.5
  9
$DIMEXO
 40
1.0
  9
$DIMDLI
 40
0.38
  9
$DIMRND
 40
0.0
  9
$DIMDLE
 40
0.0
  9
$DIMEXE
 40
1.0
  9
$DIMTP
 40
0.0
  9
$DIMTM
 40
0.000000001
  9
$DIMTXT
 40
3.5
  9
$DIMCEN
 40
0.09
  9
$DIMTSZ
 40
0.0
  9
$DIMTOL
 70
     0
  9
$DIMLIM
 70
     0
  9
$DIMTIH
 70
     0
  9
$DIMTOH
 70
     0
  9
$DIMSE1
 70
     0
  9
$DIMSE2
 70
     0
  9
$DIMTAD
 70
     1
  9
$DIMZIN
 70
     8
  9
$DIMBLK
  1

  9
$DIMASO
 70
     1
  9
$DIMSHO
 70
     0
  9
$DIMPOST
  1

  9
$DIMAPOST
  1

  9
$DIMALT
 70
     0
  9
$DIMALTD
 70
     2
  9
$DIMALTF
 40
25.3999999999999986
  9
$DIMLFAC
 40
2.0
  9
$DIMTOFL
 70
     1
  9
$DIMTVP
 40
0.0
  9
$DIMTIX
 70
     0
  9
$DIMSOXD
 70
     0
  9
$DIMSAH
 70
     0
  9
$DIMBLK1
  1

  9
$DIMBLK2
  1

  9
$DIMSTYLE
  2
LORO
  9
$DIMCLRD
 70
     0
  9
$DIMCLRE
 70
     0
  9
$DIMCLRT
 70
     1
  9
$DIMTFAC
 40
0.5
  9
$DIMGAP
 40
1.5
  9
$LUNITS
 70
     2
  9
$LUPREC
 70
     2
  9
$SKETCHINC
 40
1.0
  9
$FILLETRAD
 40
0.0
  9
$AUNITS
 70
     0
  9
$AUPREC
 70
     0
  9
$MENU
  1
ACAD
  9
$ELEVATION
 40
0.0
  9
$PELEVATION
 40
0.0
  9
$THICKNESS
 40
0.0
  9
$LIMCHECK
 70
     0
  9
$BLIPMODE
 70
     0
  9
$CHAMFERA
 40
0.0
  9
$CHAMFERB
 40
0.0
  9
$SKPOLY
 70
     0
  9
$TDCREATE
 40
2455397.867048610933125
  9
$TDUPDATE
 40
2460928.4018055549822748
  9
$TDINDWG
 40
0.5249131134
  9
$TDUSRTIMER
 40
0.5249131134
  9
$USRTIMER
 70
     1
  9
$ANGBASE
 50
0.0
  9
$ANGDIR
 70
     0
  9
$PDMODE
 70
     0
  9
$PDSIZE
 40
0.0
  9
$PLINEWID
 40
0.0
  9
$COORDS
 70
     1
  9
$SPLFRAME
 70
     0
  9
$SPLINETYPE
 70
     6
  9
$SPLINESEGS
 70
     8
  9
$ATTDIA
 70
     1
  9
$ATTREQ
 70
     1
  9
$HANDLING
 70
     1
  9
$HANDSEED
  5
34AB
  9
$SURFTAB1
 70
     6
  9
$SURFTAB2
 70
     6
  9
$SURFTYPE
 70
     6
  9
$SURFU
 70
     6
  9
$SURFV
 70
     6
  9
$UCSNAME
  2

  9
$UCSORG
 10
0.0
 20
0.0
 30
0.0
  9
$UCSXDIR
 10
1.0
 20
0.0
 30
0.0
  9
$UCSYDIR
 10
0.0
 20
1.0
 30
0.0
  9
$PUCSNAME
  2

  9
$PUCSORG
 10
0.0
 20
0.0
 30
0.0
  9
$PUCSXDIR
 10
1.0
 20
0.0
 30
0.0
  9
$PUCSYDIR
 10
0.0
 20
1.0
 30
0.0
  9
$USERI1
 70
     0
  9
$USERI2
 70
     0
  9
$USERI3
 70
     0
  9
$USERI4
 70
     0
  9
$USERI5
 70
     0
  9
$USERR1
 40
0.0
  9
$USERR2
 40
0.0
  9
$USERR3
 40
0.0
  9
$USERR4
 40
0.0
  9
$USERR5
 40
0.0
  9
$WORLDVIEW
 70
     1
  9
$SHADEDGE
 70
     3
  9
$SHADEDIF
 70
    70
  9
$TILEMODE
 70
     1
  9
$MAXACTVP
 70
    16
  9
$PLIMCHECK
 70
     0
  9
$PEXTMIN
 10
1.0000000000000000E+20
 20
1.0000000000000000E+20
 30
1.0000000000000000E+20
  9
$PEXTMAX
 10
-1.0000000000000000E+20
 20
-1.0000000000000000E+20
 30
-1.0000000000000000E+20
  9
$PLIMMIN
 10
-0.2600611791208394
 20
-0.2541427611794802
  9
$PLIMMAX
 10
593.7399388208790469
 20
419.7458572388205198
  9
$UNITMODE
 70
     0
  9
$VISRETAIN
 70
     0
  9
$PLINEGEN
 70
     0
  9
$PSLTSCALE
 70
     0
  0
ENDSEC
  0
SECTION
  2
TABLES
  0
TABLE
  2
VPORT
 70
     1
  0
VPORT
  2
*ACTIVE
 70
     0
 10
0.0
 20
0.0
 11
1.0
 21
1.0
 12
0.0
 22
0.0
 13
0.0
 23
0.0
 14
1.0
 24
1.0
 15
10.0
 25
10.0
 16
0.0
 26
0.0
 36
1726.8962274491250355
 17
-1023.7035736092849447
 27
-234.2129689191565092
 37
211.5294113159179972
 40
675.4879138141354815
 41
1.9004329004328999
 42
50.0
 43
0.0
 44
0.0
 50
0.0
 51
0.0
 71
     0
 72
  1500
 73
     1
 74
     0
 75
     0
 76
     0
 77
     0
 78
     0
  0
ENDTAB
  0
TABLE
  2
LTYPE
 70
     4
  0
LTYPE
  2
CONTINUOUS
 70
     0
  3
Solid line
 72
    65
 73
     0
 40
0.0
  0
LTYPE
  2
STRICHPUNKT
 70
     0
  3
__ . __ . __ . __ . __ . __ . __ . __ . __ . __
 72
    65
 73
     4
 40
1.0
 49
0.5
 49
-0.25
 49
0.0
 49
-0.25
  0
LTYPE
  2
AUSGEZOGEN
 70
     0
  3
Ausgezogene Linie
 72
    65
 73
     0
 40
0.0
  0
LTYPE
  2
VERDECKT
 70
     0
  3
Verdeckt __ __ __ __ __ __ __ __ __ __ __ __ __
 72
    65
 73
     2
 40
0.375
 49
0.25
 49
-0.125
  0
ENDTAB
  0
TABLE
  2
LAYER
 70
     6
  0
LAYER
  2
0
 70
     0
 62
     7
  6
CONTINUOUS
  0
LAYER
  2
STEMPEL
 70
     0
 62
     3
  6
CONTINUOUS
  0
LAYER
  2
DEFPOINTS
 70
     0
 62
     7
  6
AUSGEZOGEN
  0
LAYER
  2
ADSK_ASSOC_ENTITY_BACKUPS
 70
     1
 62
    -7
  6
CONTINUOUS
  0
LAYER
  2
MATERIAL__EDELSTAHL_
 70
     0
 62
   254
  6
CONTINUOUS
  0
LAYER
  2
DICHTELEMENT
 70
     0
 62
   250
  6
CONTINUOUS
  0
ENDTAB
  0
TABLE
  2
STYLE
 70
     2
  0
STYLE
  2
STANDARD
 70
     0
 40
0.0
 41
0.8
 50
0.0
 71
     0
 42
3.5
  3
simplex.shx
  4

  0
STYLE
  2

 70
     1
 40
0.0
 41
1.0
 50
0.0
 71
     0
 42
2.5
  3
ltypeshp.shx
  4

  0
ENDTAB
  0
TABLE
  2
VIEW
 70
     0
  0
ENDTAB
  0
TABLE
  2
UCS
 70
     0
  0
ENDTAB
  0
TABLE
  2
APPID
 70
    28
  0
APPID
  2
ACAD
 70
     0
  0
APPID
  2
ACAD_NAV_VCDISPLAY
 70
     0
  0
APPID
  2
GRADIENTCOLOR1ACI
 70
     0
  0
APPID
  2
GRADIENTCOLOR2ACI
 70
     0
  0
APPID
  2
ACAD_DSTYLE_DIMRADIAL_EXTENSION
 70
     0
  0
APPID
  2
ACADANNOMONITORALERTICONDI
 70
     0
  0
APPID
  2
ACAD_EXEMPT_FROM_CAD_STANDARDS
 70
     0
  0
APPID
  2
ACAD_MLEADERVER
 70
     0
  0
APPID
  2
ACAD_PSEXT
 70
     0
  0
APPID
  2
ACAECLAYERSTANDARD
 70
     0
  0
APPID
  2
ACAUTHENVIRON
 70
     0
  0
APPID
  2
ACCMTRANSPARENCY
 70
     0
  0
APPID
  2
ACAD_STEPID
 70
     0
  0
APPID
  2
ACSYNERGY
 70
     0
  0
APPID
  2
SYNERGY_BODY_TBR_ID
 70
     0
  0
APPID
  2
ACAD_VIEW_EDGE_ID
 70
     0
  0
APPID
  2
ACAD_MODELDOC_XFORM
 70
     0
  0
APPID
  2
ACAD_DIMASSOC_CALC_DIMLFAC
 70
     0
  0
APPID
  2
ACAD_DIMASSOC_DIMLFAC
 70
     0
  0
APPID
  2
ACAD_DIMASSOC_OVERRIDDEN_D
 70
     0
  0
APPID
  2
ACSYNERGYSKETCH
 70
     0
  0
APPID
  2
ACAD_DSTYLE_DIMJAG
 70
     0
  0
APPID
  2
ACAD_DSTYLE_DIMTALN
 70
     0
  0
APPID
  2
ACDBDYNAMICBLOCKGUID
 70
     0
  0
APPID
  2
ACAD_DSTYLE_DIMBREAK
 70
     0
  0
APPID
  2
PLOTTRANSPARENCY
 70
     0
  0
APPID
  2
ACADANNOPO
 70
     0
  0
APPID
  2
ACADANNOTATIVE
 70
     0
  0
ENDTAB
  0
TABLE
  2
DIMSTYLE
 70
     2
  0
DIMSTYLE
  2
STANDARD
 70
     0
  3

  4

  5

  6

  7

 40
1.0
 41
0.18
 42
0.0625
 43
0.38
 44
0.18
 45
0.0
 46
0.0
 47
0.0
 48
0.0
140
0.18
141
0.09
142
0.0
143
25.3999999999999986
144
1.0
145
0.0
146
1.0
147
0.09
 71
     0
 72
     0
 73
     1
 74
     1
 75
     0
 76
     0
 77
     0
 78
     0
170
     0
171
     2
172
     0
173
     0
174
     0
175
     0
176
     0
177
     0
178
     0
  0
DIMSTYLE
  2
LORO
 70
     0
  3

  4

  5

  6

  7

 40
1.0
 41
3.5
 42
1.0
 43
0.38
 44
1.0
 45
0.0
 46
0.0
 47
0.0
 48
0.000000001
140
3.5
141
0.09
142
0.0
143
25.3999999999999986
144
2.0
145
0.0
146
0.5
147
1.5
 71
     0
 72
     0
 73
     0
 74
     0
 75
     0
 76
     0
 77
     1
 78
     8
170
     0
171
     2
172
     1
173
     0
174
     0
175
     0
176
     0
177
     0
178
     1
  0
ENDTAB
  0
ENDSEC
  0
SECTION
  2
BLOCKS
  0
BLOCK
  8
0
  2
$MODEL_SPACE
 70
     0
 10
0.0
 20
0.0
 30
0.0
  3
$MODEL_SPACE
  1

  0
ENDBLK
  5
38
  8
0
  0
BLOCK
 67
     1
  8
0
  2
$PAPER_SPACE
 70
     0
 10
0.0
 20
0.0
 30
0.0
  3
$PAPER_SPACE
  1

  0
ENDBLK
  5
36
 67
     1
  8
0
  0
BLOCK
  8
0
  2
*S0
 70
     1
 10
0.0
 20
0.0
 30
0.0
  3
*S0
  1

  0
ENDBLK
  5
D6E
  8
0
  0
BLOCK
  8
0
  2
A$C59104871
 70
     0
 10
0.0
 20
0.0
 30
0.0
  3
A$C59104871
  1

  0
LINE
  5
33E8
  8
0
  6
CONTINUOUS
 62
     3
 10
-160.5611618995893082
 20
-75.5000000000000142
 30
0.0000000000000168
 11
-160.5611618995891945
 21
75.5000000000000142
 31
-0.0000000000000168
210
0.0000000000000002
220
1.0
230
-0.0000000000000002
  0
LINE
  5
33E9
  8
0
  6
CONTINUOUS
 62
     3
 10
-157.5611618995893082
 20
-71.4801488286690869
 30
0.0000000000000159
 11
-157.5611618995891945
 21
71.4801488286690301
 31
-0.0000000000000159
210
0.0000000000000002
220
1.0
230
-0.0000000000000002
  0
LINE
  5
33EA
  8
0
  6
CONTINUOUS
 62
     3
 10
-152.5611618995893082
 20
-73.3000000000000682
 30
0.0000000000000163
 11
-152.5611618995891945
 21
73.3000000000000114
 31
-0.0000000000000163
210
0.0000000000000002
220
1.0
230
-0.0000000000000002
  0
LINE
  5
33EB
  8
0
  6
CONTINUOUS
 62
     3
 10
-149.4611618995893139
 20
-73.3000000000000682
 30
0.0000000000000163
 11
-149.4611618995892002
 21
73.3000000000000114
 31
-0.0000000000000163
210
0.0000000000000002
220
1.0
230
-0.0000000000000002
  0
LINE
  5
33EC
  8
0
  6
CONTINUOUS
 62
     3
 10
-147.0611618995893082
 20
-75.7000000000000739
 30
0.0000000000000168
 11
-147.0611618995891945
 21
75.7000000000000455
 31
-0.0000000000000168
210
0.0000000000000002
220
1.0
230
-0.0000000000000002
  0
LINE
  5
33ED
  8
0
  6
CONTINUOUS
 62
     3
 10
-146.0611618995893082
 20
-75.7000000000000739
 30
0.0000000000000168
 11
-146.0611618995891945
 21
75.7000000000000455
 31
-0.0000000000000168
210
0.0000000000000002
220
1.0
230
-0.0000000000000002
  0
LINE
  5
33EE
  8
0
  6
CONTINUOUS
 62
     3
 10
-143.8611618995892059
 20
-73.5000000000000568
 30
0.0000000000000163
 11
-143.8611618995892059
 21
73.5
 31
-0.0000000000000163
210
0.0000000000000002
220
1.0
230
-0.0000000000000002
  0
LINE
  5
33EF
  8
0
  6
CONTINUOUS
 62
     3
 10
-141.3716736762407891
 20
-73.5000000000000568
 30
0.0000000000000163
 11
-141.3716736762407891
 21
73.5
 31
-0.0000000000000163
210
0.0000000000000002
220
1.0
230
-0.0000000000000002
  0
LINE
  5
33F0
  8
0
  6
CONTINUOUS
 62
     3
 10
-137.5611618995893082
 20
-75.7000000000000881
 30
0.0000000000000168
 11
-137.5611618995891945
 21
75.7000000000000313
 31
-0.0000000000000168
210
0.0000000000000002
220
1.0
230
-0.0000000000000002
  0
LINE
  5
33F1
  8
0
  6
CONTINUOUS
 62
     3
 10
-136.5611618995893082
 20
-64.4999999999999432
 30
0.0000000000000143
 11
-136.5611618995891945
 21
64.4999999999998721
 31
-0.0000000000000143
210
0.0000000000000002
220
1.0
230
-0.0000000000000002
  0
LINE
  5
33F2
  8
0
  6
CONTINUOUS
 62
     3
 10
-167.5610576652539123
 20
-71.5000000000000711
 30
0.0000000000000159
 11
-167.5610576652537986
 21
71.5000000000000711
 31
-0.0000000000000159
210
0.0000000000000002
220
1.0
230
-0.0000000000000002
  0
ARC
  5
33F3
  8
0
  6
CONTINUOUS
 62
     3
 10
159.5611618995893082
 20
-71.0000000000000142
 30
0.0
 40
1.0
210
0.0
220
-0.0000000000000002
230
-1.0
 50
359.9999999999992042
 51
90.0000000000000284
  0
ARC
  5
33F4
  8
0
  6
CONTINUOUS
 62
     3
 10
159.5611618995891945
 20
70.9999999999999858
 30
0.0
 40
1.0
210
0.0
220
-0.0000000000000002
230
-1.0
 50
270.0
 51
0.0000000000008269
  0
LINE
  5
33F5
  8
0
  6
CONTINUOUS
 62
     3
 10
-159.5611618995891945
 20
70.0
 30
-0.0000000000000155
 11
-158.5611618995891945
 21
70.0
 31
-0.0000000000000155
210
0.0000000000000002
220
1.0
230
-0.0000000000000002
  0
LINE
  5
33F6
  8
0
  6
CONTINUOUS
 62
     3
 10
-159.5611618995893082
 20
-70.0000000000000284
 30
0.0000000000000155
 11
-158.5611618995893082
 21
-70.0000000000000284
 31
0.0000000000000155
210
0.0000000000000002
220
1.0
230
-0.0000000000000002
  0
ARC
  5
33F7
  8
0
  6
CONTINUOUS
 62
     3
 10
158.5611618995893082
 20
-71.0000000000000142
 30
0.0
 40
1.0
210
0.0
220
-0.0000000000000002
230
-1.0
 50
90.0000000000000284
 51
180.0000000000007958
  0
ARC
  5
33F8
  8
0
  6
CONTINUOUS
 62
     3
 10
158.5611618995891945
 20
70.9999999999999858
 30
0.0
 40
1.0
210
0.0
220
-0.0000000000000002
230
-1.0
 50
179.9999999999992042
 51
270.0
  0
LINE
  5
33F9
  8
0
  6
CONTINUOUS
 62
     3
 10
-157.5611618995891945
 20
71.4801488286690301
 30
-0.0000000000000159
 11
-152.5611618995891945
 21
73.3000000000000114
 31
-0.0000000000000163
210
0.0000000000000002
220
1.0
230
-0.0000000000000002
  0
LINE
  5
33FA
  8
0
  6
CONTINUOUS
 62
     3
 10
-157.5611618995893082
 20
-71.4801488286690585
 30
0.0000000000000159
 11
-152.5611618995893082
 21
-73.3000000000000398
 31
0.0000000000000163
210
0.0000000000000002
220
1.0
230
-0.0000000000000002
  0
LINE
  5
33FB
  8
0
  6
CONTINUOUS
 62
     3
 10
-152.5611618995891945
 20
73.3000000000000114
 30
-0.0000000000000163
 11
-149.4611618995892002
 21
73.3000000000000114
 31
-0.0000000000000163
210
0.0000000000000002
220
1.0
230
-0.0000000000000002
  0
LINE
  5
33FC
  8
0
  6
CONTINUOUS
 62
     3
 10
-152.5611618995893082
 20
-73.3000000000000398
 30
0.0000000000000163
 11
-149.4611618995893139
 21
-73.3000000000000398
 31
0.0000000000000163
210
0.0000000000000002
220
1.0
230
-0.0000000000000002
  0
LINE
  5
33FD
  8
0
  6
CONTINUOUS
 62
     3
 10
-149.4611618995892002
 20
73.3000000000000114
 30
-0.0000000000000163
 11
-147.0611618995891945
 21
75.7000000000000455
 31
-0.0000000000000168
210
0.0000000000000002
220
1.0
230
-0.0000000000000002
  0
LINE
  5
33FE
  8
0
  6
CONTINUOUS
 62
     3
 10
-149.4611618995893139
 20
-73.3000000000000398
 30
0.0000000000000163
 11
-147.0611618995893082
 21
-75.7000000000000739
 31
0.0000000000000168
210
0.0000000000000002
220
1.0
230
-0.0000000000000002
  0
LINE
  5
33FF
  8
0
  6
CONTINUOUS
 62
     3
 10
-147.0611618995891945
 20
75.7000000000000455
 30
-0.0000000000000168
 11
-146.0611618995891945
 21
75.7000000000000455
 31
-0.0000000000000168
210
0.0000000000000002
220
1.0
230
-0.0000000000000002
  0
LINE
  5
3400
  8
0
  6
CONTINUOUS
 62
     3
 10
-147.0611618995893082
 20
-75.7000000000000739
 30
0.0000000000000168
 11
-146.0611618995893082
 21
-75.7000000000000739
 31
0.0000000000000168
210
0.0000000000000002
220
1.0
230
-0.0000000000000002
  0
LINE
  5
3401
  8
0
  6
CONTINUOUS
 62
     3
 10
-143.8611618995892059
 20
-73.5000000000000284
 30
0.0000000000000163
 11
-146.0611618995893082
 21
-75.7000000000000739
 31
0.0000000000000168
210
0.0000000000000002
220
1.0
230
-0.0000000000000002
  0
LINE
  5
3402
  8
0
  6
CONTINUOUS
 62
     3
 10
-143.8611618995892059
 20
73.5
 30
-0.0000000000000163
 11
-146.0611618995891945
 21
75.7000000000000455
 31
-0.0000000000000168
210
0.0000000000000002
220
1.0
230
-0.0000000000000002
  0
LINE
  5
3403
  8
0
  6
CONTINUOUS
 62
     3
 10
-143.8611618995892059
 20
73.5
 30
-0.0000000000000163
 11
-141.3716736762407891
 21
73.5
 31
-0.0000000000000163
210
0.0000000000000002
220
1.0
230
-0.0000000000000002
  0
LINE
  5
3404
  8
0
  6
CONTINUOUS
 62
     3
 10
-143.8611618995892059
 20
-73.5000000000000284
 30
0.0000000000000163
 11
-141.3716736762407891
 21
-73.5000000000000284
 31
0.0000000000000163
210
0.0000000000000002
220
1.0
230
-0.0000000000000002
  0
LINE
  5
3405
  8
0
  6
CONTINUOUS
 62
     3
 10
-141.3716736762407891
 20
73.5
 30
-0.0000000000000163
 11
-137.5611618995891945
 21
75.7000000000000455
 31
-0.0000000000000168
210
0.0000000000000002
220
1.0
230
-0.0000000000000002
  0
LINE
  5
3406
  8
0
  6
CONTINUOUS
 62
     3
 10
-141.3716736762407891
 20
-73.5000000000000284
 30
0.0000000000000163
 11
-137.5611618995893082
 21
-75.7000000000000739
 31
0.0000000000000168
210
0.0000000000000002
220
1.0
230
-0.0000000000000002
  0
ARC
  5
3407
  8
0
  6
CONTINUOUS
 62
     3
 10
142.5611618995891945
 20
-64.4999999999999005
 30
0.0
 40
5.9999999999999716
210
0.0
220
-0.0000000000000002
230
-1.0
 50
180.000000000000199
 51
213.5573097619212888
  0
ARC
  5
3408
  8
0
  6
CONTINUOUS
 62
     3
 10
142.5611618995889103
 20
64.4999999999999432
 30
0.0
 40
5.9999999999997122
210
0.0
220
-0.0000000000000002
230
-1.0
 50
146.4426902380785123
 51
180.0000000000007958
  0
ARC
  5
3409
  8
0
  6
CONTINUOUS
 62
     3
 10
164.7611618995892968
 20
-71.4758400866410994
 30
0.0
 40
2.7999999999999692
210
0.0
220
-0.0000000000000002
230
-1.0
 50
284.9999999999994884
 51
359.5056149120662212
  0
ARC
  5
340A
  8
0
  6
CONTINUOUS
 62
     3
 10
164.7611618995892115
 20
71.4758400866410994
 30
0.0
 40
2.7999999999999718
210
0.0
220
-0.0000000000000002
230
-1.0
 50
0.4943850879338083
 51
75.0000000000005542
  0
LINE
  5
340B
  8
0
  6
CONTINUOUS
 62
     3
 10
-165.4858552258762927
 20
74.1804324002504387
 30
-0.0000000000000165
 11
-160.5611618995891945
 21
75.5000000000000142
 31
-0.0000000000000168
210
0.0000000000000002
220
1.0
230
-0.0000000000000002
  0
LINE
  5
340C
  8
0
  6
CONTINUOUS
 62
     3
 10
-165.4858552258762927
 20
-74.1804324002504387
 30
0.0000000000000165
 11
-160.5611618995893082
 21
-75.5000000000000142
 31
0.0000000000000168
210
0.0000000000000002
220
1.0
230
-0.0000000000000002
  0
LINE
  5
340D
  8
0
  6
CONTINUOUS
 62
     3
 10
-26.9999999999999893
 20
69.5099897769356261
 30
-0.0000000000000154
 11
-27.0
 21
0.000000000000006
 31
0.0
210
0.0000000000000002
220
1.0
230
-0.0000000000000002
  0
LINE
  5
340E
  8
0
  6
CONTINUOUS
 62
     3
 10
-27.0
 20
-0.0000000000000025
 30
0.0
 11
-27.0000000000000284
 21
-69.5099897769356261
 31
0.0000000000000154
210
0.0000000000000002
220
1.0
230
-0.0000000000000002
  0
LINE
  5
340F
  8
0
  6
CONTINUOUS
 62
     3
 10
-1.0000000000000591
 20
-210.0000000000001137
 30
0.0000000000000466
 11
-1.0000000000000531
 21
-190.0
 31
0.0000000000000422
210
0.0000000000000002
220
1.0
230
-0.0000000000000002
  0
LINE
  5
3410
  8
0
  6
CONTINUOUS
 62
     3
 10
-0.0000000000000595
 20
-210.0
 30
0.0000000000000466
 11
-1.0000000000000591
 21
-210.0
 31
0.0000000000000466
210
0.0000000000000002
220
1.0
230
-0.0000000000000002
  0
LINE
  5
3411
  8
0
  6
CONTINUOUS
 62
     3
 10
-0.0000000000000595
 20
-210.0000000000001137
 30
0.0000000000000466
 11
-0.0000000000000538
 21
-190.0
 31
0.0000000000000422
210
0.0000000000000002
220
1.0
230
-0.0000000000000002
  0
LINE
  5
3412
  8
0
  6
CONTINUOUS
 62
     3
 10
0.0000000000000595
 20
210.0
 30
-0.0000000000000466
 11
-0.9999999999999404
 21
210.0
 31
-0.0000000000000466
210
0.0000000000000002
220
1.0
230
-0.0000000000000002
  0
LINE
  5
3413
  8
0
  6
CONTINUOUS
 62
     3
 10
-0.9999999999999462
 20
190.0
 30
-0.0000000000000422
 11
-0.9999999999999404
 21
210.0
 31
-0.0000000000000466
210
0.0000000000000002
220
1.0
230
-0.0000000000000002
  0
LINE
  5
3414
  8
0
  6
CONTINUOUS
 62
     3
 10
0.0000000000000538
 20
190.0
 30
-0.0000000000000422
 11
0.0000000000000595
 21
210.0
 31
-0.0000000000000466
210
0.0000000000000002
220
1.0
230
-0.0000000000000002
  0
LINE
  5
3415
  8
0
  6
CONTINUOUS
 62
     3
 10
-0.9999999999999462
 20
190.0
 30
-0.0000000000000422
 11
-1.0000000000000531
 21
-190.0000000000001137
 31
0.0000000000000422
210
0.0000000000000002
220
1.0
230
-0.0000000000000002
  0
LINE
  5
3416
  8
0
  6
CONTINUOUS
 62
     3
 10
0.0000000000000538
 20
190.0
 30
-0.0000000000000422
 11
-0.0000000000000538
 21
-190.0000000000001137
 31
0.0000000000000422
210
0.0000000000000002
220
1.0
230
-0.0000000000000002
  0
ARC
  5
3417
  8
0
  6
CONTINUOUS
 62
     3
 10
2.000000000000032
 20
82.0000000000000426
 30
0.0
 40
1.000000000000034
210
0.0
220
-0.0000000000000002
230
-1.0
 50
180.0000000000007958
 51
245.5039091425227866
  0
ARC
  5
3418
  8
0
  6
CONTINUOUS
 62
     3
 10
2.0000000000000768
 20
-82.0000000000000426
 30
0.0
 40
1.0000000000000271
210
0.0
220
-0.0000000000000002
230
-1.0
 50
114.4960908574770997
 51
179.9999999999992042
  0
LINE
  5
3419
  8
0
  6
CONTINUOUS
 62
     3
 10
-26.9999999999999893
 20
69.5099897769356261
 30
-0.0000000000000154
 11
-1.5853688426077741
 21
81.09001043779638
 31
-0.000000000000018
210
0.0000000000000002
220
1.0
230
-0.0000000000000002
  0
LINE
  5
341A
  8
0
  6
CONTINUOUS
 62
     3
 10
-27.0000000000000284
 20
-69.5099897769356261
 30
0.0000000000000154
 11
-1.585368842607817
 21
-81.09001043779638
 31
0.000000000000018
210
0.0000000000000002
220
1.0
230
-0.0000000000000002
  0
LINE
  5
341B
  8
0
  6
VERDECKT
 62
     1
 10
-140.5611618995893082
 20
-70.7000000000000881
 30
0.0000000000000157
 11
-140.5611618995891945
 21
70.7000000000000313
 31
-0.0000000000000157
210
0.0000000000000002
220
1.0
230
-0.0000000000000002
  0
LINE
  5
341C
  8
0
  6
VERDECKT
 62
     1
 10
-138.5611618995893082
 20
-61.5000000000000426
 30
0.0000000000000137
 11
-138.5611618995893082
 21
61.4999999999999787
 31
-0.0000000000000137
210
0.0000000000000002
220
1.0
230
-0.0000000000000002
  0
LINE
  5
341D
  8
0
  6
VERDECKT
 62
     1
 10
-140.5611618995891945
 20
70.7000000000000455
 30
-0.0000000000000157
 11
-137.5611618995891945
 21
73.7000000000000455
 31
-0.0000000000000164
210
0.0000000000000002
220
1.0
230
-0.0000000000000002
  0
LINE
  5
341E
  8
0
  6
VERDECKT
 62
     1
 10
-140.5611618995893082
 20
-70.7000000000000739
 30
0.0000000000000157
 11
-137.5611618995893082
 21
-73.7000000000000739
 31
0.0000000000000164
210
0.0000000000000002
220
1.0
230
-0.0000000000000002
  0
ARC
  5
341F
  8
0
  6
VERDECKT
 62
     1
 10
142.5611618995893082
 20
-64.4999999999997868
 30
0.0
 40
6.0000000000000826
210
0.0
220
-0.0000000000000002
230
-1.0
 50
213.5573097619219141
 51
250.5287793655095925
  0
ARC
  5
3420
  8
0
  6
VERDECKT
 62
     1
 10
142.5611618995891945
 20
64.4999999999998437
 30
0.0
 40
5.9999999999999609
210
0.0
220
-0.0000000000000002
230
-1.0
 50
109.4712206344898959
 51
146.4426902380787965
  0
LINE
  5
3421
  8
0
  6
VERDECKT
 62
     1
 10
-138.5611618995893082
 20
61.4999999999999929
 30
-0.0000000000000137
 11
-136.5611618995893082
 21
61.4999999999999929
 31
-0.0000000000000137
210
0.0000000000000002
220
1.0
230
-0.0000000000000002
  0
LINE
  5
3422
  8
0
  6
VERDECKT
 62
     1
 10
-138.5611618995893082
 20
-61.5000000000000284
 30
0.0000000000000137
 11
-136.5611618995893082
 21
-61.5000000000000284
 31
0.0000000000000137
210
0.0000000000000002
220
1.0
230
-0.0000000000000002
  0
ARC
  5
3423
  8
0
  6
VERDECKT
 62
     1
 10
144.5611618995893082
 20
-61.5000000000000284
 30
0.0
 40
6.0000000000000302
210
0.0
220
-0.0000000000000002
230
-1.0
 50
180.0
 51
269.9999999999997726
  0
ARC
  5
3424
  8
0
  6
VERDECKT
 62
     1
 10
144.5611618995893082
 20
61.5000000000000071
 30
0.0
 40
5.9999999999999858
210
0.0
220
-0.0000000000000002
230
-1.0
 50
90.0000000000000284
 51
180.0
  0
LINE
  5
3425
  8
0
  6
VERDECKT
 62
     1
 10
-160.5611618995891945
 20
67.5000000000000142
 30
-0.000000000000015
 11
-144.5611618995891945
 21
67.5
 31
-0.000000000000015
210
0.0000000000000002
220
1.0
230
-0.0000000000000002
  0
LINE
  5
3426
  8
0
  6
VERDECKT
 62
     1
 10
-160.5611618995893082
 20
-67.5000000000000142
 30
0.000000000000015
 11
-144.5611618995893082
 21
-67.5000000000000284
 31
0.000000000000015
210
0.0000000000000002
220
1.0
230
-0.0000000000000002
  0
LINE
  5
3427
  8
0
  6
VERDECKT
 62
     1
 10
-160.5611618995893082
 20
-67.5000000000000142
 30
0.000000000000015
 11
-165.4858552258762927
 21
-68.8195675997495329
 31
0.0000000000000153
210
0.0000000000000002
220
1.0
230
-0.0000000000000002
  0
LINE
  5
3428
  8
0
  6
VERDECKT
 62
     1
 10
-160.5611618995891945
 20
67.5000000000000142
 30
-0.000000000000015
 11
-165.4858552258762927
 21
68.8195675997495329
 31
-0.0000000000000153
210
0.0000000000000002
220
1.0
230
-0.0000000000000002
  0
ARC
  5
3429
  8
0
  6
VERDECKT
 62
     1
 10
164.7611618995892968
 20
-71.5241599133588863
 30
0.0
 40
2.799999999999998
210
0.0
220
-0.0000000000000002
230
-1.0
 50
0.4943850879300276
 51
75.0
  0
ARC
  5
342A
  8
0
  6
VERDECKT
 62
     1
 10
164.7611618995892115
 20
71.5241599133588863
 30
0.0
 40
2.7999999999999758
210
0.0
220
-0.0000000000000002
230
-1.0
 50
285.0000000000001137
 51
359.5056149120699729
  0
LINE
  5
342B
  8
0
  6
VERDECKT
 62
     1
 10
-26.5853693138792515
 20
68.6000000000000227
 30
-0.0000000000000152
 11
-26.5853693138792586
 21
0.0000000000000059
 31
0.0
210
0.0000000000000002
220
1.0
230
-0.0000000000000002
  0
LINE
  5
342C
  8
0
  6
VERDECKT
 62
     1
 10
-26.5853693138792515
 20
-0.0000000000000018
 30
0.0
 11
-26.5853693138792799
 21
-68.6000000000000227
 31
0.0000000000000152
210
0.0000000000000002
220
1.0
230
-0.0000000000000002
  0
ARC
  5
342D
  8
0
  6
VERDECKT
 62
     1
 10
1.9999999999999809
 20
82.0000000000000142
 30
0.0
 40
1.999999999999992
210
0.0
220
-0.0000000000000002
230
-1.0
 50
180.0
 51
245.5039091425244919
  0
ARC
  5
342E
  8
0
  6
VERDECKT
 62
     1
 10
2.0000000000000271
 20
-82.0000000000000142
 30
0.0
 40
1.999999999999996
210
0.0
220
-0.0000000000000002
230
-1.0
 50
114.4960908574753944
 51
180.0
  0
LINE
  5
342F
  8
0
  6
VERDECKT
 62
     1
 10
-26.5853693138792906
 20
-68.6000000000000227
 30
0.0000000000000152
 11
-27.0000000000000284
 21
-69.5099897769356261
 31
0.0000000000000154
210
0.0000000000000002
220
1.0
230
-0.0000000000000002
  0
LINE
  5
3430
  8
0
  6
VERDECKT
 62
     1
 10
-26.5853693138792515
 20
68.6000000000000227
 30
-0.0000000000000152
 11
-27.0
 21
69.5099897769356261
 31
-0.0000000000000154
210
0.0000000000000002
220
1.0
230
-0.0000000000000002
  0
LINE
  5
3431
  8
0
  6
VERDECKT
 62
     1
 10
-26.5853693138792515
 20
68.6000000000000227
 30
-0.0000000000000152
 11
-1.170737685215566
 21
80.1800208755927599
 31
-0.0000000000000178
210
0.0000000000000002
220
1.0
230
-0.0000000000000002
  0
LINE
  5
3432
  8
0
  6
VERDECKT
 62
     1
 10
-26.5853693138792799
 20
-68.6000000000000227
 30
0.0000000000000152
 11
-1.1707376852156091
 21
-80.1800208755927599
 31
0.0000000000000178
210
0.0000000000000002
220
1.0
230
-0.0000000000000002
  0
LINE
  5
3433
  8
0
  6
VERDECKT
 62
     1
 10
-0.0000000000000547
 20
-193.0000000000001137
 30
0.0000000000000429
 11
-1.000000000000054
 21
-193.0000000000001137
 31
0.0000000000000429
210
0.0000000000000002
220
1.0
230
-0.0000000000000002
  0
LINE
  5
3434
  8
0
  6
VERDECKT
 62
     1
 10
-0.000000000000053
 20
-187.0
 30
0.0000000000000415
 11
-1.000000000000052
 21
-187.0
 31
0.0000000000000415
210
0.0000000000000002
220
1.0
230
-0.0000000000000002
  0
LINE
  5
3435
  8
0
  6
VERDECKT
 62
     1
 10
0.000000000000053
 20
187.0
 30
-0.0000000000000415
 11
-0.999999999999947
 21
187.0
 31
-0.0000000000000415
210
0.0000000000000002
220
1.0
230
-0.0000000000000002
  0
LINE
  5
3436
  8
0
  6
VERDECKT
 62
     1
 10
0.0000000000000547
 20
193.0
 30
-0.0000000000000429
 11
-0.9999999999999452
 21
193.0
 31
-0.0000000000000429
210
0.0000000000000002
220
1.0
230
-0.0000000000000002
  0
ENDBLK
  5
3438
  8
0
  0
BLOCK
  8
0
  2
A$C4077DC8B
 70
     0
 10
0.0
 20
0.0
 30
0.0
  3
A$C4077DC8B
  1

  0
CIRCLE
  5
343C
  8
0
  6
CONTINUOUS
 62
     3
 10
-0.0000000000000426
 20
-0.00000000000005
 30
0.0
 40
61.5
  0
CIRCLE
  5
343D
  8
0
  6
CONTINUOUS
 62
     3
 10
0.0000000000000044
 20
0.0000000000000016
 30
0.0
 40
68.6000000000000085
210
0.0
220
-0.0000000000000002
230
-1.0
  0
CIRCLE
  5
343E
  8
0
  6
CONTINUOUS
 62
     3
 10
-189.9999999999998863
 20
-190.0
 30
0.0
 40
2.999999999999992
210
0.0
220
-0.0000000000000002
230
-1.0
  0
CIRCLE
  5
343F
  8
0
  6
CONTINUOUS
 62
     3
 10
190.0
 20
-190.0
 30
0.0
 40
3.000000000000008
210
0.0
220
-0.0000000000000002
230
-1.0
  0
CIRCLE
  5
3440
  8
0
  6
CONTINUOUS
 62
     3
 10
-190.0
 20
190.0
 30
0.0
 40
2.9999999999999929
210
0.0
220
-0.0000000000000002
230
-1.0
  0
CIRCLE
  5
3441
  8
0
  6
CONTINUOUS
 62
     3
 10
190.0
 20
190.0
 30
0.0
 40
3.0000000000000062
210
0.0
220
-0.0000000000000002
230
-1.0
  0
ARC
  5
3442
  8
0
  6
CONTINUOUS
 62
     3
 10
-190.0
 20
-190.0
 30
0.0000000000000422
 40
20.0
 50
180.0
 51
270.0
  0
LINE
  5
3443
  8
0
  6
CONTINUOUS
 62
     3
 10
-190.0
 20
-210.0
 30
0.0000000000000466
 11
189.9999999999998863
 21
-210.0000000000001137
 31
0.0000000000000466
210
0.0000000000000001
220
1.0
230
-0.0000000000000002
  0
ARC
  5
3444
  8
0
  6
CONTINUOUS
 62
     3
 10
189.9999999999998863
 20
-190.0
 30
0.0000000000000422
 40
20.0
 50
270.0
 51
0.0
  0
LINE
  5
3445
  8
0
  6
CONTINUOUS
 62
     3
 10
210.0
 20
-190.0
 30
0.0000000000000422
 11
210.0
 21
190.0
 31
-0.0000000000000422
210
0.0000000000000001
220
1.0
230
-0.0000000000000002
  0
ARC
  5
3446
  8
0
  6
CONTINUOUS
 62
     3
 10
190.0
 20
190.0
 30
-0.0000000000000422
 40
20.0
 50
0.0
 51
89.9999999999999858
  0
LINE
  5
3447
  8
0
  6
CONTINUOUS
 62
     3
 10
190.0
 20
210.0
 30
-0.0000000000000466
 11
-190.0
 21
210.0
 31
-0.0000000000000466
210
0.0000000000000001
220
1.0
230
-0.0000000000000002
  0
ARC
  5
3448
  8
0
  6
CONTINUOUS
 62
     3
 10
-190.0
 20
190.0
 30
-0.0000000000000422
 40
20.0
 50
90.0000000000000568
 51
180.0
  0
LINE
  5
3449
  8
0
  6
CONTINUOUS
 62
     3
 10
-210.0
 20
190.0
 30
-0.0000000000000422
 11
-210.0
 21
-190.0
 31
0.0000000000000422
210
0.0000000000000001
220
1.0
230
-0.0000000000000002
  0
CIRCLE
  5
344A
  8
0
  6
VERDECKT
 62
     1
 10
-0.0000000000000426
 20
-0.0000000000000471
 30
0.0
 40
75.5
  0
CIRCLE
  5
344B
  8
0
  6
VERDECKT
 62
     1
 10
-0.0000000000000426
 20
-0.0000000000000473
 30
0.0
 40
70.0
  0
CIRCLE
  5
344C
  8
0
  6
VERDECKT
 62
     1
 10
-0.0000000000000426
 20
-0.0000000000000474
 30
0.0
 40
71.4801488286690301
  0
CIRCLE
  5
344D
  8
0
  6
VERDECKT
 62
     1
 10
-0.0000000000000426
 20
-0.0000000000000484
 30
0.0
 40
73.3000000000000114
  0
CIRCLE
  5
344E
  8
0
  6
VERDECKT
 62
     1
 10
-0.0000000000000426
 20
-0.0000000000000494
 30
0.0
 40
73.5
  0
CIRCLE
  5
344F
  8
0
  6
VERDECKT
 62
     1
 10
-0.0000000000000426
 20
-0.0000000000000499
 30
0.0
 40
75.7000000000000455
  0
CIRCLE
  5
3450
  8
0
  6
VERDECKT
 62
     1
 10
-0.0000000000000426
 20
-0.0000000000000499
 30
0.0
 40
73.7000000000000455
  0
CIRCLE
  5
3451
  8
0
  6
VERDECKT
 62
     1
 10
-0.0000000000000426
 20
-0.0000000000000495
 30
0.0
 40
70.7000000000000455
  0
CIRCLE
  5
3452
  8
0
  6
VERDECKT
 62
     1
 10
-0.0000000000000426
 20
-0.0000000000000495
 30
0.0
 40
70.1568542494921985
  0
CIRCLE
  5
3453
  8
0
  6
VERDECKT
 62
     1
 10
-0.0000000000000426
 20
-0.000000000000049
 30
0.0
 40
67.5
  0
CIRCLE
  5
3454
  8
0
  6
VERDECKT
 62
     1
 10
0.0000000000000044
 20
0.0000000000000017
 30
0.0
 40
69.5099897769356119
210
0.0
220
-0.0000000000000002
230
-1.0
  0
ENDBLK
  5
3456
  8
0
  0
ENDSEC
  0
SECTION
  2
ENTITIES
  0
INSERT
  5
D70
  8
ADSK_ASSOC_ENTITY_BACKUPS
  2
*S0
 10
0.0
 20
0.0
 30
0.0
  0
INSERT
  5
3439
  8
STEMPEL
  2
A$C59104871
 10
-741.6781493243915975
 20
-232.7448272705076988
 30
256.2248824722021254
  0
INSERT
  5
3457
  8
STEMPEL
  2
A$C4077DC8B
 10
-1251.6781493243920522
 20
-232.7448272705078125
 30
256.2248824722021254
  0
VIEWPORT
  5
D51
 67
     1
  8
0
 10
296.7399388208791038
 20
209.7458572388204914
 30
0.0
 40
802.3246303869141229
 41
422.1799307958477812
 68
     1
 69
     1
1001
ACAD
1000
MVIEW
1002
{
1070
    16
1010
0.0
1020
0.0
1030
0.0
1010
0.0
1020
0.0
1030
1.0
1040
0.0
1040
422.1799307958477812
1040
296.7399388208791038
1040
209.7458572388204914
1040
50.0
1040
0.0
1040
0.0
1070
     0
1070
  1500
1070
     1
1070
     1
1070
     0
1070
     0
1070
     0
1070
     0
1040
0.0
1040
0.0
1040
0.0
1040
10.0
1040
10.0
1040
10.0
1040
10.0
1070
     0
1002
{
1002
}
1002
}
  0
ENDSEC
  0
EOF
