  0
SECTION
  2
HEADER
  9
$ACADVER
  1
AC1009
  9
$INSBASE
 10
0.0
 20
0.0
 30
0.0
  9
$EXTMIN
 10
-200.0189194549099909
 20
-200.0151660791773907
 30
-0.0305164140073657
  9
$EXTMAX
 10
200.0161755038612057
 20
377.022340117513977
 30
0.0000006984918173
  9
$LIMMIN
 10
0.0
 20
0.0
  9
$LIMMAX
 10
420.0
 20
297.0
  9
$ORTHOMODE
 70
     1
  9
$REGENMODE
 70
     1
  9
$FILLMODE
 70
     1
  9
$QTEXTMODE
 70
     0
  9
$MIRRTEXT
 70
     1
  9
$DRAGMODE
 70
     2
  9
$LTSCALE
 40
10.0
  9
$OSMODE
 70
   511
  9
$ATTMODE
 70
     1
  9
$TEXTSIZE
 40
3.5
  9
$TRACEWID
 40
1.0
  9
$TEXTSTYLE
  7
STANDARD
  9
$CLAYER
  8
STEMPEL
  9
$CELTYPE
  6
BYLAYER
  9
$CECOLOR
 62
   256
  9
$DIMSCALE
 40
1.0
  9
$DIMASZ
 40
3.5
  9
$DIMEXO
 40
1.0
  9
$DIMDLI
 40
0.38
  9
$DIMRND
 40
0.0
  9
$DIMDLE
 40
0.0
  9
$DIMEXE
 40
1.0
  9
$DIMTP
 40
0.0
  9
$DIMTM
 40
0.000000001
  9
$DIMTXT
 40
3.5
  9
$DIMCEN
 40
0.09
  9
$DIMTSZ
 40
0.0
  9
$DIMTOL
 70
     0
  9
$DIMLIM
 70
     0
  9
$DIMTIH
 70
     0
  9
$DIMTOH
 70
     0
  9
$DIMSE1
 70
     0
  9
$DIMSE2
 70
     0
  9
$DIMTAD
 70
     1
  9
$DIMZIN
 70
     8
  9
$DIMBLK
  1

  9
$DIMASO
 70
     1
  9
$DIMSHO
 70
     0
  9
$DIMPOST
  1

  9
$DIMAPOST
  1

  9
$DIMALT
 70
     0
  9
$DIMALTD
 70
     2
  9
$DIMALTF
 40
25.3999999999999986
  9
$DIMLFAC
 40
2.0
  9
$DIMTOFL
 70
     1
  9
$DIMTVP
 40
0.0
  9
$DIMTIX
 70
     0
  9
$DIMSOXD
 70
     0
  9
$DIMSAH
 70
     0
  9
$DIMBLK1
  1

  9
$DIMBLK2
  1

  9
$DIMSTYLE
  2
LORO
  9
$DIMCLRD
 70
     0
  9
$DIMCLRE
 70
     0
  9
$DIMCLRT
 70
     1
  9
$DIMTFAC
 40
0.5
  9
$DIMGAP
 40
1.5
  9
$LUNITS
 70
     2
  9
$LUPREC
 70
     2
  9
$SKETCHINC
 40
1.0
  9
$FILLETRAD
 40
0.0
  9
$AUNITS
 70
     0
  9
$AUPREC
 70
     0
  9
$MENU
  1
ACAD
  9
$ELEVATION
 40
0.0
  9
$PELEVATION
 40
0.0
  9
$THICKNESS
 40
0.0
  9
$LIMCHECK
 70
     0
  9
$BLIPMODE
 70
     0
  9
$CHAMFERA
 40
0.0
  9
$CHAMFERB
 40
0.0
  9
$SKPOLY
 70
     0
  9
$TDCREATE
 40
2455397.867048610933125
  9
$TDUPDATE
 40
2459627.3475347231142223
  9
$TDINDWG
 40
0.3269964468
  9
$TDUSRTIMER
 40
0.3269964468
  9
$USRTIMER
 70
     1
  9
$ANGBASE
 50
0.0
  9
$ANGDIR
 70
     0
  9
$PDMODE
 70
     0
  9
$PDSIZE
 40
0.0
  9
$PLINEWID
 40
0.0
  9
$COORDS
 70
     1
  9
$SPLFRAME
 70
     0
  9
$SPLINETYPE
 70
     6
  9
$SPLINESEGS
 70
     8
  9
$ATTDIA
 70
     1
  9
$ATTREQ
 70
     1
  9
$HANDLING
 70
     1
  9
$HANDSEED
  5
2385
  9
$SURFTAB1
 70
     6
  9
$SURFTAB2
 70
     6
  9
$SURFTYPE
 70
     6
  9
$SURFU
 70
     6
  9
$SURFV
 70
     6
  9
$UCSNAME
  2

  9
$UCSORG
 10
0.0
 20
0.0
 30
0.0
  9
$UCSXDIR
 10
1.0
 20
0.0
 30
0.0
  9
$UCSYDIR
 10
0.0
 20
1.0
 30
0.0
  9
$PUCSNAME
  2

  9
$PUCSORG
 10
0.0
 20
0.0
 30
0.0
  9
$PUCSXDIR
 10
1.0
 20
0.0
 30
0.0
  9
$PUCSYDIR
 10
0.0
 20
1.0
 30
0.0
  9
$USERI1
 70
     0
  9
$USERI2
 70
     0
  9
$USERI3
 70
     0
  9
$USERI4
 70
     0
  9
$USERI5
 70
     0
  9
$USERR1
 40
0.0
  9
$USERR2
 40
0.0
  9
$USERR3
 40
0.0
  9
$USERR4
 40
0.0
  9
$USERR5
 40
0.0
  9
$WORLDVIEW
 70
     1
  9
$SHADEDGE
 70
     3
  9
$SHADEDIF
 70
    70
  9
$TILEMODE
 70
     1
  9
$MAXACTVP
 70
    16
  9
$PLIMCHECK
 70
     0
  9
$PEXTMIN
 10
1.0000000000000000E+20
 20
1.0000000000000000E+20
 30
1.0000000000000000E+20
  9
$PEXTMAX
 10
-1.0000000000000000E+20
 20
-1.0000000000000000E+20
 30
-1.0000000000000000E+20
  9
$PLIMMIN
 10
-4.275550587437805
 20
-3.0192475110080741
  9
$PLIMMAX
 10
415.7244494125620804
 20
293.980752488991925
  9
$UNITMODE
 70
     0
  9
$VISRETAIN
 70
     0
  9
$PLINEGEN
 70
     0
  9
$PSLTSCALE
 70
     0
  0
ENDSEC
  0
SECTION
  2
TABLES
  0
TABLE
  2
VPORT
 70
     1
  0
VPORT
  2
*ACTIVE
 70
     0
 10
0.0
 20
0.0
 11
1.0
 21
1.0
 12
-0.0013719755243642
 22
88.5035870191682932
 13
0.0
 23
0.0
 14
1.0
 24
1.0
 15
10.0
 25
10.0
 16
-0.0000000000003235
 26
0.0
 36
1456.992695781988914
 17
0.0
 27
0.0
 37
0.0
 40
579.9915261030323563
 41
1.8720136518771331
 42
50.0
 43
0.0
 44
0.0
 50
0.0
 51
0.0
 71
     0
 72
  1500
 73
     1
 74
     0
 75
     0
 76
     0
 77
     0
 78
     0
  0
ENDTAB
  0
TABLE
  2
LTYPE
 70
     4
  0
LTYPE
  2
CONTINUOUS
 70
     0
  3
Solid line
 72
    65
 73
     0
 40
0.0
  0
LTYPE
  2
STRICHPUNKT
 70
     0
  3
__ . __ . __ . __ . __ . __ . __ . __ . __ . __
 72
    65
 73
     4
 40
1.0
 49
0.5
 49
-0.25
 49
0.0
 49
-0.25
  0
LTYPE
  2
AUSGEZOGEN
 70
     0
  3
Ausgezogene Linie
 72
    65
 73
     0
 40
0.0
  0
LTYPE
  2
VERDECKT
 70
     0
  3
Verdeckt __ __ __ __ __ __ __ __ __ __ __ __ __
 72
    65
 73
     2
 40
0.375
 49
0.25
 49
-0.125
  0
ENDTAB
  0
TABLE
  2
LAYER
 70
     6
  0
LAYER
  2
0
 70
     0
 62
     7
  6
CONTINUOUS
  0
LAYER
  2
STEMPEL
 70
     0
 62
     3
  6
CONTINUOUS
  0
LAYER
  2
DEFPOINTS
 70
     0
 62
     7
  6
AUSGEZOGEN
  0
LAYER
  2
ADSK_ASSOC_ENTITY_BACKUPS
 70
     1
 62
    -7
  6
CONTINUOUS
  0
ENDTAB
  0
TABLE
  2
STYLE
 70
     2
  0
STYLE
  2
STANDARD
 70
     0
 40
0.0
 41
0.8
 50
0.0
 71
     0
 42
3.5
  3
simplex.shx
  4

  0
ENDTAB
  0
TABLE
  2
VIEW
 70
     0
  0
ENDTAB
  0
TABLE
  2
UCS
 70
     0
  0
ENDTAB
  0
TABLE
  2
APPID
 70
    27
  0
APPID
  2
ACAD
 70
     0
  0
APPID
  2
ACAD_NAV_VCDISPLAY
 70
     0
  0
APPID
  2
GRADIENTCOLOR1ACI
 70
     0
  0
APPID
  2
GRADIENTCOLOR2ACI
 70
     0
  0
APPID
  2
ACAD_DSTYLE_DIMRADIAL_EXTENSION
 70
     0
  0
APPID
  2
ACADANNOMONITORALERTICONDI
 70
     0
  0
APPID
  2
ACAD_EXEMPT_FROM_CAD_STANDARDS
 70
     0
  0
APPID
  2
ACAD_MLEADERVER
 70
     0
  0
APPID
  2
ACAD_PSEXT
 70
     0
  0
APPID
  2
ACAECLAYERSTANDARD
 70
     0
  0
APPID
  2
ACAUTHENVIRON
 70
     0
  0
APPID
  2
ACCMTRANSPARENCY
 70
     0
  0
APPID
  2
ACAD_STEPID
 70
     0
  0
APPID
  2
ACSYNERGY
 70
     0
  0
APPID
  2
SYNERGY_BODY_TBR_ID
 70
     0
  0
APPID
  2
ACAD_VIEW_EDGE_ID
 70
     0
  0
APPID
  2
ACAD_MODELDOC_XFORM
 70
     0
  0
APPID
  2
ACAD_DIMASSOC_CALC_DIMLFAC
 70
     0
  0
APPID
  2
ACAD_DIMASSOC_DIMLFAC
 70
     0
  0
APPID
  2
ACAD_DIMASSOC_OVERRIDDEN_D
 70
     0
  0
APPID
  2
ACSYNERGYSKETCH
 70
     0
  0
APPID
  2
ACAD_DSTYLE_DIMJAG
 70
     0
  0
APPID
  2
ACAD_DSTYLE_DIMTALN
 70
     0
  0
APPID
  2
ACDBDYNAMICBLOCKGUID
 70
     0
  0
APPID
  2
ACAD_DSTYLE_DIMBREAK
 70
     0
  0
APPID
  2
ACADANNOPO
 70
     0
  0
APPID
  2
ACAD_TC
 70
     0
  0
ENDTAB
  0
TABLE
  2
DIMSTYLE
 70
     2
  0
DIMSTYLE
  2
STANDARD
 70
     0
  3

  4

  5

  6

  7

 40
1.0
 41
0.18
 42
0.0625
 43
0.38
 44
0.18
 45
0.0
 46
0.0
 47
0.0
 48
0.0
140
0.18
141
0.09
142
0.0
143
25.3999999999999986
144
1.0
145
0.0
146
1.0
147
0.09
 71
     0
 72
     0
 73
     1
 74
     1
 75
     0
 76
     0
 77
     0
 78
     0
170
     0
171
     2
172
     0
173
     0
174
     0
175
     0
176
     0
177
     0
178
     0
  0
DIMSTYLE
  2
LORO
 70
     0
  3

  4

  5

  6

  7

 40
1.0
 41
3.5
 42
1.0
 43
0.38
 44
1.0
 45
0.0
 46
0.0
 47
0.0
 48
0.000000001
140
3.5
141
0.09
142
0.0
143
25.3999999999999986
144
2.0
145
0.0
146
0.5
147
1.5
 71
     0
 72
     0
 73
     0
 74
     0
 75
     0
 76
     0
 77
     1
 78
     8
170
     0
171
     2
172
     1
173
     0
174
     0
175
     0
176
     0
177
     0
178
     1
  0
ENDTAB
  0
ENDSEC
  0
SECTION
  2
BLOCKS
  0
BLOCK
  8
0
  2
$MODEL_SPACE
 70
     0
 10
0.0
 20
0.0
 30
0.0
  3
$MODEL_SPACE
  1

  0
ENDBLK
  5
38
  8
0
  0
BLOCK
 67
     1
  8
0
  2
$PAPER_SPACE
 70
     0
 10
0.0
 20
0.0
 30
0.0
  3
$PAPER_SPACE
  1

  0
ENDBLK
  5
36
 67
     1
  8
0
  0
BLOCK
  8
0
  2
*S0
 70
     1
 10
0.0
 20
0.0
 30
0.0
  3
*S0
  1

  0
ENDBLK
  5
D6E
  8
0
  0
BLOCK
  8
0
  2
A$C623B9CF8
 70
     0
 10
0.0
 20
0.0
 30
0.0
  3
A$C623B9CF8
  1

  0
CIRCLE
  5
22C5
  8
0
  6
CONTINUOUS
 62
     3
 10
0.0000000000000568
 20
0.0000000000000022
 30
0.0
 40
47.5
210
0.0
220
-0.0000000000000002
230
-1.0
  0
CIRCLE
  5
22C6
  8
0
  6
CONTINUOUS
 62
     3
 10
0.0
 20
-0.0000000000000286
 30
0.0
 40
56.25
210
0.0
220
-0.0000000000000002
230
-1.0
  0
CIRCLE
  5
22C7
  8
0
  6
CONTINUOUS
 62
     3
 10
0.0
 20
-0.0000000000000292
 30
0.0
 40
53.5000000000000071
210
0.0
220
-0.0000000000000002
230
-1.0
  0
CIRCLE
  5
22C8
  8
0
  6
CONTINUOUS
 62
     3
 10
180.0
 20
-180.0
 30
0.0
 40
2.9999999999999978
210
0.0
220
-0.0000000000000002
230
-1.0
  0
CIRCLE
  5
22C9
  8
0
  6
CONTINUOUS
 62
     3
 10
-180.0
 20
-180.0
 30
0.0
 40
3.0000000000000031
210
0.0
220
-0.0000000000000002
230
-1.0
  0
CIRCLE
  5
22CA
  8
0
  6
CONTINUOUS
 62
     3
 10
-180.0
 20
180.0
 30
0.0
 40
3.0
210
0.0
220
-0.0000000000000002
230
-1.0
  0
CIRCLE
  5
22CB
  8
0
  6
CONTINUOUS
 62
     3
 10
180.0
 20
180.0
 30
0.0
 40
3.000000000000008
210
0.0
220
-0.0000000000000002
230
-1.0
  0
ARC
  5
22CC
  8
0
  6
CONTINUOUS
 62
     3
 10
180.0
 20
-180.0
 30
0.00000000000004
 40
19.9999999999999716
 50
270.0
 51
0.0
  0
LINE
  5
22CD
  8
0
  6
CONTINUOUS
 62
     3
 10
200.0
 20
-180.0
 30
0.00000000000004
 11
200.0
 21
180.0
 31
-0.00000000000004
210
0.0
220
1.0
230
-0.0000000000000002
  0
ARC
  5
22CE
  8
0
  6
CONTINUOUS
 62
     3
 10
180.0
 20
180.0
 30
-0.00000000000004
 40
20.0000000000000284
 50
0.0
 51
89.9999999999996874
  0
LINE
  5
22CF
  8
0
  6
CONTINUOUS
 62
     3
 10
180.0
 20
200.0
 30
-0.0000000000000444
 11
-180.0000000000001137
 21
200.0
 31
-0.0000000000000444
210
0.0
220
1.0
230
-0.0000000000000002
  0
ARC
  5
22D0
  8
0
  6
CONTINUOUS
 62
     3
 10
-180.0
 20
180.0
 30
-0.00000000000004
 40
20.0
 50
90.0000000000000711
 51
179.9999999999998863
  0
LINE
  5
22D1
  8
0
  6
CONTINUOUS
 62
     3
 10
-200.0
 20
180.0
 30
-0.00000000000004
 11
-199.9999999999998863
 21
-180.0
 31
0.00000000000004
210
0.0
220
1.0
230
-0.0000000000000002
  0
ARC
  5
22D2
  8
0
  6
CONTINUOUS
 62
     3
 10
-180.0
 20
-180.0
 30
0.00000000000004
 40
19.9999999999999716
 50
180.0
 51
270.0
  0
LINE
  5
22D3
  8
0
  6
CONTINUOUS
 62
     3
 10
-180.0
 20
-200.0
 30
0.0000000000000444
 11
180.0
 21
-200.0
 31
0.0000000000000444
210
0.0
220
1.0
230
-0.0000000000000002
  0
CIRCLE
  5
22D4
  8
0
  6
VERDECKT
 62
     1
 10
-0.0000000000000568
 20
0.0000000000000022
 30
0.0
 40
51.8000000000000114
  0
CIRCLE
  5
22D5
  8
0
  6
VERDECKT
 62
     1
 10
-0.0000000000001137
 20
0.0016575748095136
 30
0.0
 40
57.75
  0
CIRCLE
  5
22D6
  8
0
  6
VERDECKT
 62
     1
 10
-0.0000000000001137
 20
0.0016575748095136
 30
0.0
 40
59.5
  0
CIRCLE
  5
22D7
  8
0
  6
VERDECKT
 62
     1
 10
-0.0000000000001137
 20
0.0016575748095136
 30
0.0
 40
57.1171444324796695
  0
CIRCLE
  5
22D8
  8
0
  6
VERDECKT
 62
     1
 10
-0.0000000000001137
 20
0.0016575748095136
 30
0.0
 40
60.0
  0
CIRCLE
  5
22D9
  8
0
  6
VERDECKT
 62
     1
 10
-0.0000000000001137
 20
0.0016575748095136
 30
0.0
 40
58.0
  0
CIRCLE
  5
22DA
  8
0
  6
VERDECKT
 62
     1
 10
-0.0000000000001137
 20
0.0016575748095136
 30
0.0
 40
56.5995849235806077
  0
CIRCLE
  5
22DB
  8
0
  6
VERDECKT
 62
     1
 10
-0.0000000000001137
 20
0.0016575748095136
 30
0.0
 40
54.3989794855663717
  0
CIRCLE
  5
22DC
  8
0
  6
VERDECKT
 62
     1
 10
-0.0000000000001137
 20
0.0016575748095136
 30
0.0
 40
54.8394515204001891
  0
CIRCLE
  5
22DD
  8
0
  6
VERDECKT
 62
     1
 10
0.0
 20
-0.0000000000000286
 30
0.0
 40
57.2500000000000071
210
0.0
220
-0.0000000000000002
230
-1.0
  0
CIRCLE
  5
22DE
  8
0
  6
VERDECKT
 62
     1
 10
0.0
 20
-0.0000000000000292
 30
0.0
 40
54.1520113121950786
210
0.0
220
-0.0000000000000002
230
-1.0
  0
ENDBLK
  5
22E0
  8
0
  0
BLOCK
  8
0
  2
A$C71264DF5
 70
     0
 10
0.0
 20
0.0
 30
0.0
  3
A$C71264DF5
  1

  0
LINE
  5
22E4
  8
0
  6
CONTINUOUS
 62
     3
 10
-55.6090464708853389
 20
127.000000000000199
 30
-0.0000000000000123
 11
55.6090464708851187
 21
127.000000000000199
 31
0.0000000000000123
  0
LINE
  5
22E5
  8
0
  6
CONTINUOUS
 62
     3
 10
-57.7500000000001066
 20
111.000000000000199
 30
-0.0000000000000128
 11
57.7499999999998792
 21
111.0000000000000995
 31
0.0000000000000128
  0
LINE
  5
22E6
  8
0
  6
CONTINUOUS
 62
     3
 10
-59.5000000000001066
 20
109.5000000000000995
 30
-0.0000000000000132
 11
59.4999999999998792
 21
109.5000000000000995
 31
0.0000000000000132
  0
LINE
  5
22E7
  8
0
  6
CONTINUOUS
 62
     3
 10
-59.5000000000001066
 20
108.5000000000000995
 30
-0.0000000000000132
 11
59.4999999999998792
 21
108.5000000000000995
 31
0.0000000000000132
  0
LINE
  5
22E8
  8
0
  6
CONTINUOUS
 62
     3
 10
-57.1171444324797832
 20
106.1171444324798045
 30
-0.0000000000000127
 11
57.117144432479563
 21
106.1171444324797051
 31
0.0000000000000127
  0
LINE
  5
22E9
  8
0
  6
CONTINUOUS
 62
     3
 10
-60.0000000000001066
 20
102.000000000000199
 30
-0.0000000000000133
 11
59.9999999999998934
 21
102.000000000000199
 31
0.0000000000000133
  0
LINE
  5
22EA
  8
0
  6
CONTINUOUS
 62
     3
 10
-49.5000000000001066
 20
100.0000000000000995
 30
-0.000000000000011
 11
49.4999999999998792
 21
100.0000000000000995
 31
0.000000000000011
  0
LINE
  5
22EB
  8
0
  6
CONTINUOUS
 62
     3
 10
-59.5000000000001066
 20
120.0000000000000995
 30
-0.0000000000000132
 11
59.4999999999998792
 21
120.0000000000000995
 31
0.0000000000000132
  0
ARC
  5
22EC
  8
0
  6
CONTINUOUS
 62
     3
 10
-55.6394515204003
 20
119.2000000000001023
 30
-0.0000000000000124
 40
0.8000000000000113
 50
340.1447856306758126
 51
90.0000000000050875
  0
ARC
  5
22ED
  8
0
  6
CONTINUOUS
 62
     3
 10
55.6394515204000868
 20
119.2000000000001023
 30
0.0000000000000124
 40
0.8000000000000127
 50
89.9999999999964189
 51
199.8552143693214873
  0
LINE
  5
22EE
  8
0
  6
CONTINUOUS
 62
     3
 10
54.8870084006467494
 20
118.928284428978003
 30
0.0000000000000122
 11
57.7499999999999076
 21
111.0000000000000995
 31
0.0000000000000128
  0
LINE
  5
22EF
  8
0
  6
CONTINUOUS
 62
     3
 10
-54.8870084006469767
 20
118.928284428978003
 30
-0.0000000000000122
 11
-57.7500000000001421
 21
111.000000000000199
 31
-0.0000000000000128
  0
LINE
  5
22F0
  8
0
  6
CONTINUOUS
 62
     3
 10
57.7499999999998792
 20
111.0000000000000995
 30
0.0000000000000128
 11
59.4999999999998792
 21
109.5000000000000995
 31
0.0000000000000132
  0
LINE
  5
22F1
  8
0
  6
CONTINUOUS
 62
     3
 10
-57.7500000000001208
 20
111.000000000000199
 30
-0.0000000000000128
 11
-59.5000000000001208
 21
109.5000000000000995
 31
-0.0000000000000132
  0
LINE
  5
22F2
  8
0
  6
CONTINUOUS
 62
     3
 10
59.4999999999998792
 20
109.5000000000000995
 30
0.0000000000000132
 11
59.4999999999998792
 21
108.5000000000000995
 31
0.0000000000000132
  0
LINE
  5
22F3
  8
0
  6
CONTINUOUS
 62
     3
 10
-59.5000000000001066
 20
109.5000000000000995
 30
-0.0000000000000132
 11
-59.5000000000001066
 21
108.5000000000000995
 31
-0.0000000000000132
  0
LINE
  5
22F4
  8
0
  6
CONTINUOUS
 62
     3
 10
-57.117144432479769
 20
106.1171444324798045
 30
-0.0000000000000127
 11
-59.5000000000000924
 21
108.5000000000000995
 31
-0.0000000000000132
  0
LINE
  5
22F5
  8
0
  6
CONTINUOUS
 62
     3
 10
57.117144432479563
 20
106.1171444324798045
 30
0.0000000000000127
 11
59.4999999999998792
 21
108.5000000000000995
 31
0.0000000000000132
  0
LINE
  5
22F6
  8
0
  6
CONTINUOUS
 62
     3
 10
57.117144432479563
 20
106.1171444324797051
 30
0.0000000000000127
 11
59.9999999999998792
 21
102.000000000000199
 31
0.0000000000000133
  0
LINE
  5
22F7
  8
0
  6
CONTINUOUS
 62
     3
 10
-57.1171444324797903
 20
106.1171444324798045
 30
-0.0000000000000127
 11
-60.0000000000001066
 21
102.000000000000199
 31
-0.0000000000000133
  0
ARC
  5
22F8
  8
0
  6
CONTINUOUS
 62
     3
 10
-49.5000000000000782
 20
105.000000000000199
 30
-0.000000000000011
 40
5.0000000000000853
 50
216.8698976458443042
 51
270.0
  0
ARC
  5
22F9
  8
0
  6
CONTINUOUS
 62
     3
 10
49.4999999999998508
 20
105.000000000000199
 30
0.000000000000011
 40
5.0000000000000817
 50
270.0000000000003979
 51
323.1301023541561221
  0
ARC
  5
22FA
  8
0
  6
CONTINUOUS
 62
     3
 10
-55.6090464708853602
 20
125.5000000000002984
 30
-0.0000000000000123
 40
1.499999999999915
 50
89.9999999999994458
 51
154.1058866215306864
  0
ARC
  5
22FB
  8
0
  6
CONTINUOUS
 62
     3
 10
55.6090464708851329
 20
125.5000000000002984
 30
0.0000000000000123
 40
1.4999999999999141
 50
25.8941133784692283
 51
90.0000000000005542
  0
LINE
  5
22FC
  8
0
  6
CONTINUOUS
 62
     3
 10
56.9584504483274188
 20
126.1550640469931039
 30
0.0000000000000126
 11
59.0984106065127435
 21
121.7468374586480024
 31
0.0000000000000131
  0
LINE
  5
22FD
  8
0
  6
CONTINUOUS
 62
     3
 10
-56.9584504483276532
 20
126.1550640469931039
 30
-0.0000000000000126
 11
-59.0984106065129708
 21
121.7468374586480024
 31
-0.0000000000000131
  0
ARC
  5
22FE
  8
0
  6
CONTINUOUS
 62
     3
 10
-55.4999999999992184
 20
119.9999999999999005
 30
-0.0000000000000123
 40
4.0000000000008953
 50
154.1058866215284979
 51
179.9999999999961062
  0
ARC
  5
22FF
  8
0
  6
CONTINUOUS
 62
     3
 10
55.4999999999988489
 20
119.999999999999801
 30
0.0000000000000123
 40
4.0000000000010374
 50
0.0000000000044782
 51
25.8941133784711717
  0
LINE
  5
2300
  8
0
  6
CONTINUOUS
 62
     3
 10
54.1520113121950786
 20
13.0
 30
0.000000000000012
 11
0.0000000000000142
 21
13.0
 31
0.0
  0
LINE
  5
2301
  8
0
  6
CONTINUOUS
 62
     3
 10
-0.0000000000000001
 20
13.0
 30
0.0
 11
-54.1520113121950786
 21
13.0
 31
-0.000000000000012
  0
LINE
  5
2302
  8
0
  6
CONTINUOUS
 62
     3
 10
200.0
 20
0.000000000000011
 30
0.0000000000000568
 11
200.0
 21
1.0000000000000111
 31
0.0000000000000568
  0
LINE
  5
2303
  8
0
  6
CONTINUOUS
 62
     3
 10
180.0000000000001137
 20
0.0000000000000122
 30
0.0000000000000284
 11
200.0
 21
0.000000000000011
 31
0.0000000000000568
  0
LINE
  5
2304
  8
0
  6
CONTINUOUS
 62
     3
 10
200.0
 20
1.0000000000000111
 30
0.0000000000000568
 11
180.0000000000001137
 21
1.000000000000012
 31
0.0000000000000284
  0
LINE
  5
2305
  8
0
  6
CONTINUOUS
 62
     3
 10
180.0000000000001137
 20
0.0000000000000122
 30
0.0000000000000284
 11
-180.0
 21
0.0000000000000122
 31
-0.0000000000000515
  0
LINE
  5
2306
  8
0
  6
CONTINUOUS
 62
     3
 10
-180.0
 20
1.000000000000012
 30
-0.0000000000000284
 11
180.0000000000001137
 21
1.000000000000012
 31
0.0000000000000515
  0
LINE
  5
2307
  8
0
  6
CONTINUOUS
 62
     3
 10
-200.0
 20
0.000000000000011
 30
-0.0000000000000568
 11
-180.0
 21
0.0000000000000122
 31
-0.0000000000000284
  0
LINE
  5
2308
  8
0
  6
CONTINUOUS
 62
     3
 10
-180.0
 20
1.000000000000012
 30
-0.0000000000000284
 11
-200.0
 21
1.0000000000000111
 31
-0.0000000000000568
  0
LINE
  5
2309
  8
0
  6
CONTINUOUS
 62
     3
 10
-200.0
 20
0.000000000000011
 30
-0.0000000000000568
 11
-200.0
 21
1.0000000000000111
 31
-0.0000000000000568
  0
ARC
  5
230A
  8
0
  6
CONTINUOUS
 62
     3
 10
59.5
 20
3.2500000000000009
 30
0.0000000000000132
 40
2.25
 50
180.0
 51
270.0
  0
ARC
  5
230B
  8
0
  6
CONTINUOUS
 62
     3
 10
-59.5
 20
3.2500000000000022
 30
-0.0000000000000132
 40
2.25
 50
270.0
 51
359.9999999999998863
  0
LINE
  5
230C
  8
0
  6
CONTINUOUS
 62
     3
 10
-57.2500000000000071
 20
3.25
 30
-0.0000000000000127
 11
-57.2500000000000071
 21
6.25
 31
-0.0000000000000127
  0
LINE
  5
230D
  8
0
  6
CONTINUOUS
 62
     3
 10
57.2500000000000071
 20
3.25
 30
0.0000000000000127
 11
57.2500000000000071
 21
6.25
 31
0.0000000000000127
  0
ARC
  5
230E
  8
0
  6
CONTINUOUS
 62
     3
 10
48.3474442665167885
 20
6.2499999999999867
 30
0.0000000000000107
 40
8.9025557334832097
 50
0.0000000000000763
 51
49.3065815995962566
  0
ARC
  5
230F
  8
0
  6
CONTINUOUS
 62
     3
 10
-48.3474442665167885
 20
6.2499999999999893
 30
-0.0000000000000107
 40
8.9025557334832097
 50
130.6934184004036865
 51
179.9999999999998863
  0
LINE
  5
2310
  8
0
  6
VERDECKT
 62
     1
 10
-51.8000000000000611
 20
117.0867734926429051
 30
-0.0000000000000115
 11
51.7999999999999616
 21
117.0867734926429051
 31
0.0000000000000115
  0
LINE
  5
2311
  8
0
  6
VERDECKT
 62
     1
 10
47.4999999999999432
 20
101.5560159748482931
 30
0.0000000000000105
 11
-47.5000000000000568
 21
101.5560159748482931
 31
-0.0000000000000105
  0
LINE
  5
2312
  8
0
  6
VERDECKT
 62
     1
 10
-56.5995849235807214
 20
104.000000000000199
 30
-0.0000000000000126
 11
56.5995849235804869
 21
104.000000000000199
 31
0.0000000000000126
  0
ARC
  5
2313
  8
0
  6
VERDECKT
 62
     1
 10
-55.6090464708852821
 20
125.5067734926430063
 30
-0.0000000000000123
 40
1.4999999999999529
 50
14.9999999999971791
 51
84.5529433107687822
  0
ARC
  5
2314
  8
0
  6
VERDECKT
 62
     1
 10
55.6090464708851684
 20
125.5067734926430063
 30
0.0000000000000123
 40
1.499999999999968
 50
95.4470566892314451
 51
165.0000000000017906
  0
LINE
  5
2315
  8
0
  6
VERDECKT
 62
     1
 10
-51.8000000000000611
 20
117.0867734926429051
 30
-0.0000000000000115
 11
-54.1601577314516902
 21
125.8950020602967044
 31
-0.000000000000012
  0
LINE
  5
2316
  8
0
  6
VERDECKT
 62
     1
 10
51.7999999999999474
 20
117.0867734926429051
 30
0.0000000000000115
 11
54.1601577314515907
 21
125.8950020602967044
 31
0.000000000000012
  0
LINE
  5
2317
  8
0
  6
VERDECKT
 62
     1
 10
51.7999999999999616
 20
117.0867734926429051
 30
0.0000000000000115
 11
51.7999999999999616
 21
106.5067734926429068
 31
0.0000000000000115
  0
LINE
  5
2318
  8
0
  6
VERDECKT
 62
     1
 10
-51.8000000000000611
 20
117.0867734926429051
 30
-0.0000000000000115
 11
-51.8000000000000611
 21
106.5067734926429068
 31
-0.0000000000000115
  0
ARC
  5
2319
  8
0
  6
VERDECKT
 62
     1
 10
-46.7999999999999901
 20
106.5067734926430063
 30
-0.0000000000000104
 40
5.0000000000000666
 50
180.0000000000009095
 51
261.9521537526878774
  0
ARC
  5
231A
  8
0
  6
VERDECKT
 62
     1
 10
46.7999999999999119
 20
106.5067734926430063
 30
0.0000000000000104
 40
5.0000000000000417
 50
278.0478462473117816
 51
359.9999999999993179
  0
LINE
  5
231B
  8
0
  6
VERDECKT
 62
     1
 10
-47.5000000000000568
 20
100.0000000000000995
 30
-0.0000000000000105
 11
-47.5000000000000568
 21
101.5560159748482931
 31
-0.0000000000000105
  0
LINE
  5
231C
  8
0
  6
VERDECKT
 62
     1
 10
47.4999999999999432
 20
100.0000000000000995
 30
0.0000000000000105
 11
47.4999999999999432
 21
101.5560159748482931
 31
0.0000000000000105
  0
LINE
  5
231D
  8
0
  6
VERDECKT
 62
     1
 10
56.5995849235804727
 20
104.000000000000199
 30
0.0000000000000126
 11
57.9999999999998579
 21
102.000000000000199
 31
0.0000000000000129
  0
LINE
  5
231E
  8
0
  6
VERDECKT
 62
     1
 10
-56.5995849235807
 20
104.000000000000199
 30
-0.0000000000000126
 11
-58.0000000000000924
 21
102.000000000000199
 31
-0.0000000000000129
  0
ARC
  5
231F
  8
0
  6
VERDECKT
 62
     1
 10
-49.4999999999998792
 20
105.0000000000002984
 30
-0.000000000000011
 40
5.0000000000002611
 50
191.5369590328159859
 51
216.8698976458429968
  0
ARC
  5
2320
  8
0
  6
VERDECKT
 62
     1
 10
49.4999999999999787
 20
105.0000000000000995
 30
0.000000000000011
 40
4.9999999999999103
 50
323.130102354156179
 51
348.4630409671851226
  0
LINE
  5
2321
  8
0
  6
VERDECKT
 62
     1
 10
53.5
 20
12.2417907618805692
 30
0.0000000000000119
 11
0.0000000000000142
 21
12.2417907618805799
 31
0.0
  0
LINE
  5
2322
  8
0
  6
VERDECKT
 62
     1
 10
-0.0000000000000003
 20
12.2417907618805799
 30
0.0
 11
-53.5
 21
12.2417907618805692
 31
-0.0000000000000119
  0
LINE
  5
2323
  8
0
  6
VERDECKT
 62
     1
 10
-56.25
 20
3.2499999999999938
 30
-0.0000000000000125
 11
-56.25
 21
6.2500000000000009
 31
-0.0000000000000125
  0
LINE
  5
2324
  8
0
  6
VERDECKT
 62
     1
 10
56.25
 20
3.2499999999999938
 30
0.0000000000000125
 11
56.25
 21
6.2500000000000009
 31
0.0000000000000125
  0
ARC
  5
2325
  8
0
  6
VERDECKT
 62
     1
 10
59.5000000000000497
 20
3.2500000000000031
 30
0.0000000000000132
 40
3.2500000000000071
 50
180.0000000000009948
 51
270.0
  0
ARC
  5
2326
  8
0
  6
VERDECKT
 62
     1
 10
-59.5000000000000284
 20
3.249999999999992
 30
-0.0000000000000132
 40
3.249999999999992
 50
270.0000000000006253
 51
0.0000000000001018
  0
LINE
  5
2327
  8
0
  6
VERDECKT
 62
     1
 10
-53.5000000000000071
 20
12.2417907618805692
 30
-0.0000000000000119
 11
-54.1520113121950786
 21
13.0
 31
-0.000000000000012
  0
LINE
  5
2328
  8
0
  6
VERDECKT
 62
     1
 10
53.5000000000000071
 20
12.2417907618805692
 30
0.0000000000000119
 11
54.1520113121950786
 21
13.0
 31
0.000000000000012
  0
ARC
  5
2329
  8
0
  6
VERDECKT
 62
     1
 10
48.3474442665167814
 20
6.2499999999999813
 30
0.0000000000000107
 40
7.9025557334832239
 50
0.0000000000001527
 51
49.3065815995961927
  0
ARC
  5
232A
  8
0
  6
VERDECKT
 62
     1
 10
-48.3474442665167672
 20
6.249999999999976
 30
-0.0000000000000107
 40
7.9025557334832319
 50
130.6934184004038002
 51
179.999999999999801
  0
LINE
  5
232B
  8
0
  6
VERDECKT
 62
     1
 10
177.0
 20
0.000000000000011
 30
0.0000000000000284
 11
177.0
 21
1.0000000000000111
 31
0.0000000000000284
  0
LINE
  5
232C
  8
0
  6
VERDECKT
 62
     1
 10
183.0
 20
0.000000000000011
 30
0.0000000000000284
 11
183.0
 21
1.0000000000000111
 31
0.0000000000000284
  0
LINE
  5
232D
  8
0
  6
VERDECKT
 62
     1
 10
-183.0
 20
0.000000000000011
 30
-0.0000000000000284
 11
-183.0
 21
1.0000000000000111
 31
-0.0000000000000284
  0
LINE
  5
232E
  8
0
  6
VERDECKT
 62
     1
 10
-177.0
 20
0.000000000000011
 30
-0.0000000000000284
 11
-177.0
 21
1.0000000000000111
 31
-0.0000000000000284
  0
ENDBLK
  5
2330
  8
0
  0
ENDSEC
  0
SECTION
  2
ENTITIES
  0
INSERT
  5
D70
  8
ADSK_ASSOC_ENTITY_BACKUPS
  2
*S0
 10
0.0
 20
0.0
 30
0.0
  0
INSERT
  5
22E1
  8
STEMPEL
  2
A$C623B9CF8
 10
0.0
 20
0.0
 30
0.0
  0
INSERT
  5
2331
  8
STEMPEL
  2
A$C71264DF5
 10
0.0000000000000158
 20
250.0
 30
-0.0000000000000329
  0
VIEWPORT
  5
D51
 67
     1
  8
0
 10
205.7244494125621941
 20
145.4807524889918966
 30
0.0
 40
558.8319832755776133
 41
298.5191815856778135
 68
     1
 69
     1
1001
ACAD
1000
MVIEW
1002
{
1070
    16
1010
0.0
1020
0.0
1030
0.0
1010
0.0
1020
0.0
1030
1.0
1040
0.0
1040
298.5191815856778135
1040
205.7244494125621941
1040
145.4807524889918966
1040
50.0
1040
0.0
1040
0.0
1070
     0
1070
  1500
1070
     1
1070
     1
1070
     0
1070
     0
1070
     0
1070
     0
1040
0.0
1040
0.0
1040
0.0
1040
10.0
1040
10.0
1040
10.0
1040
10.0
1070
     0
1002
{
1002
}
1002
}
  0
ENDSEC
  0
EOF
