  0
SECTION
  2
HEADER
  9
$ACADVER
  1
AC1009
  9
$INSBASE
 10
0.0
 20
0.0
 30
0.0
  9
$EXTMIN
 10
-100.5
 20
0.0
 30
-61.5543746948242116
  9
$EXTMAX
 10
380.0
 20
263.6253051757813068
 30
238.4456176757811932
  9
$LIMMIN
 10
0.0
 20
0.0
  9
$LIMMAX
 10
419.9999999999998863
 20
594.0
  9
$ORTHOMODE
 70
     1
  9
$REGENMODE
 70
     1
  9
$FILLMODE
 70
     1
  9
$QTEXTMODE
 70
     0
  9
$MIRRTEXT
 70
     1
  9
$DRAGMODE
 70
     2
  9
$LTSCALE
 40
10.0
  9
$OSMODE
 70
  1535
  9
$ATTMODE
 70
     1
  9
$TEXTSIZE
 40
3.5
  9
$TRACEWID
 40
1.0
  9
$TEXTSTYLE
  7
STANDARD
  9
$CLAYER
  8
STEMPEL
  9
$CELTYPE
  6
BYLAYER
  9
$CECOLOR
 62
   256
  9
$DIMSCALE
 40
1.0
  9
$DIMASZ
 40
3.5
  9
$DIMEXO
 40
1.0
  9
$DIMDLI
 40
7.0
  9
$DIMRND
 40
0.0
  9
$DIMDLE
 40
0.0
  9
$DIMEXE
 40
1.0
  9
$DIMTP
 40
0.5
  9
$DIMTM
 40
0.0
  9
$DIMTXT
 40
3.5
  9
$DIMCEN
 40
1.5
  9
$DIMTSZ
 40
0.0
  9
$DIMTOL
 70
     0
  9
$DIMLIM
 70
     0
  9
$DIMTIH
 70
     0
  9
$DIMTOH
 70
     0
  9
$DIMSE1
 70
     0
  9
$DIMSE2
 70
     0
  9
$DIMTAD
 70
     1
  9
$DIMZIN
 70
     8
  9
$DIMBLK
  1

  9
$DIMASO
 70
     1
  9
$DIMSHO
 70
     0
  9
$DIMPOST
  1

  9
$DIMAPOST
  1

  9
$DIMALT
 70
     0
  9
$DIMALTD
 70
     2
  9
$DIMALTF
 40
25.3999999999999986
  9
$DIMLFAC
 40
2.0
  9
$DIMTOFL
 70
     1
  9
$DIMTVP
 40
0.0
  9
$DIMTIX
 70
     0
  9
$DIMSOXD
 70
     0
  9
$DIMSAH
 70
     0
  9
$DIMBLK1
  1

  9
$DIMBLK2
  1

  9
$DIMSTYLE
  2
STANDARD
  9
$DIMCLRD
 70
     0
  9
$DIMCLRE
 70
     0
  9
$DIMCLRT
 70
     1
  9
$DIMTFAC
 40
0.5
  9
$DIMGAP
 40
1.5
  9
$LUNITS
 70
     2
  9
$LUPREC
 70
     2
  9
$SKETCHINC
 40
1.0
  9
$FILLETRAD
 40
1.5
  9
$AUNITS
 70
     0
  9
$AUPREC
 70
     0
  9
$MENU
  1
ACAD
  9
$ELEVATION
 40
0.0
  9
$PELEVATION
 40
0.0
  9
$THICKNESS
 40
0.0
  9
$LIMCHECK
 70
     0
  9
$BLIPMODE
 70
     0
  9
$CHAMFERA
 40
0.0
  9
$CHAMFERB
 40
0.0
  9
$SKPOLY
 70
     0
  9
$TDCREATE
 40
2455397.867048610933125
  9
$TDUPDATE
 40
2460690.5463194451294839
  9
$TDINDWG
 40
1.0635008449000001
  9
$TDUSRTIMER
 40
1.0635008449000001
  9
$USRTIMER
 70
     1
  9
$ANGBASE
 50
0.0
  9
$ANGDIR
 70
     0
  9
$PDMODE
 70
     0
  9
$PDSIZE
 40
0.0
  9
$PLINEWID
 40
0.0
  9
$COORDS
 70
     1
  9
$SPLFRAME
 70
     0
  9
$SPLINETYPE
 70
     6
  9
$SPLINESEGS
 70
     8
  9
$ATTDIA
 70
     1
  9
$ATTREQ
 70
     1
  9
$HANDLING
 70
     1
  9
$HANDSEED
  5
75B3
  9
$SURFTAB1
 70
     6
  9
$SURFTAB2
 70
     6
  9
$SURFTYPE
 70
     6
  9
$SURFU
 70
     6
  9
$SURFV
 70
     6
  9
$UCSNAME
  2

  9
$UCSORG
 10
0.0
 20
0.0
 30
0.0
  9
$UCSXDIR
 10
1.0
 20
0.0
 30
0.0
  9
$UCSYDIR
 10
0.0
 20
1.0
 30
0.0
  9
$PUCSNAME
  2

  9
$PUCSORG
 10
0.0
 20
0.0
 30
0.0
  9
$PUCSXDIR
 10
1.0
 20
0.0
 30
0.0
  9
$PUCSYDIR
 10
0.0
 20
1.0
 30
0.0
  9
$USERI1
 70
     0
  9
$USERI2
 70
     0
  9
$USERI3
 70
     0
  9
$USERI4
 70
     0
  9
$USERI5
 70
     0
  9
$USERR1
 40
0.0
  9
$USERR2
 40
0.0
  9
$USERR3
 40
0.0
  9
$USERR4
 40
0.0
  9
$USERR5
 40
0.0
  9
$WORLDVIEW
 70
     1
  9
$SHADEDGE
 70
     3
  9
$SHADEDIF
 70
    70
  9
$TILEMODE
 70
     1
  9
$MAXACTVP
 70
    16
  9
$PLIMCHECK
 70
     0
  9
$PEXTMIN
 10
1.0000000000000000E+20
 20
1.0000000000000000E+20
 30
1.0000000000000000E+20
  9
$PEXTMAX
 10
-1.0000000000000000E+20
 20
-1.0000000000000000E+20
 30
-1.0000000000000000E+20
  9
$PLIMMIN
 10
-0.2490024948893961
 20
-0.2444900165189097
  9
$PLIMMAX
 10
419.7509975051104902
 20
296.7555099834810903
  9
$UNITMODE
 70
     0
  9
$VISRETAIN
 70
     0
  9
$PLINEGEN
 70
     0
  9
$PSLTSCALE
 70
     0
  0
ENDSEC
  0
SECTION
  2
TABLES
  0
TABLE
  2
VPORT
 70
     1
  0
VPORT
  2
*ACTIVE
 70
     0
 10
0.0
 20
0.0
 11
1.0
 21
1.0
 12
-102.5956913292003065
 22
66.6081910178852752
 13
0.0
 23
0.0
 14
1.0
 24
1.0
 15
10.0
 25
10.0
 16
0.0
 26
-2001.0382795362470461
 36
0.0
 17
242.3456913292002923
 27
131.8126525878905113
 37
21.8374304725932404
 40
301.5570857566120822
 41
1.9004329004328999
 42
50.0
 43
0.0
 44
0.0
 50
0.0
 51
0.0
 71
     0
 72
  1500
 73
     1
 74
     1
 75
     0
 76
     0
 77
     0
 78
     0
  0
ENDTAB
  0
TABLE
  2
LTYPE
 70
     3
  0
LTYPE
  2
CONTINUOUS
 70
     0
  3
Solid line
 72
    65
 73
     0
 40
0.0
  0
LTYPE
  2
STRICHPUNKT
 70
     0
  3
__ . __ . __ . __ . __ . __ . __ . __ . __ . __
 72
    65
 73
     4
 40
1.0
 49
0.5
 49
-0.25
 49
0.0
 49
-0.25
  0
LTYPE
  2
VERDECKT
 70
     0
  3
Verdeckt __ __ __ __ __ __ __ __ __ __ __ __ __
 72
    65
 73
     2
 40
0.375
 49
0.25
 49
-0.125
  0
ENDTAB
  0
TABLE
  2
LAYER
 70
     8
  0
LAYER
  2
0
 70
     0
 62
     7
  6
CONTINUOUS
  0
LAYER
  2
VOLL
 70
     0
 62
     1
  6
CONTINUOUS
  0
LAYER
  2
BEM
 70
     0
 62
     7
  6
CONTINUOUS
  0
LAYER
  2
STEMPEL
 70
     0
 62
     3
  6
CONTINUOUS
  0
LAYER
  2
DEFPOINTS
 70
     0
 62
     7
  6
CONTINUOUS
  0
LAYER
  2
ADSK_ASSOC_ENTITY_BACKUPS
 70
     1
 62
    -7
  6
CONTINUOUS
  0
ENDTAB
  0
TABLE
  2
STYLE
 70
     3
  0
STYLE
  2
STANDARD
 70
     0
 40
0.0
 41
0.8
 50
0.0
 71
     0
 42
3.5
  3
simplex.shx
  4

  0
STYLE
  2
GREEKS
 70
     0
 40
0.0
 41
0.8
 50
0.0
 71
     0
 42
2.5
  3
SIMPLEX.shx
  4

  0
ENDTAB
  0
TABLE
  2
VIEW
 70
     0
  0
ENDTAB
  0
TABLE
  2
UCS
 70
     0
  0
ENDTAB
  0
TABLE
  2
APPID
 70
    26
  0
APPID
  2
ACAD
 70
     0
  0
APPID
  2
ACAECLAYERSTANDARD
 70
     0
  0
APPID
  2
ACCMTRANSPARENCY
 70
     0
  0
APPID
  2
ACAD_NAV_VCDISPLAY
 70
     0
  0
APPID
  2
ACAD_PSEXT
 70
     0
  0
APPID
  2
ACAD_EXEMPT_FROM_CAD_STANDARDS
 70
     0
  0
APPID
  2
ACSYNERGY
 70
     0
  0
APPID
  2
SYNERGY_BODY_TBR_ID
 70
     0
  0
APPID
  2
ACAD_VIEW_EDGE_ID
 70
     0
  0
APPID
  2
ACSYNERGYSKETCH
 70
     0
  0
APPID
  2
ACAD_MODELDOC_XFORM
 70
     0
  0
APPID
  2
ACAD_MLEADERVER
 70
     0
  0
APPID
  2
ACADANNOMONITORALERTICONDI
 70
     0
  0
APPID
  2
ACAD_DSTYLE_DIMJAG
 70
     0
  0
APPID
  2
ACAD_DSTYLE_DIMTALN
 70
     0
  0
APPID
  2
ACDBDYNAMICBLOCKGUID
 70
     0
  0
APPID
  2
ACAD_STEPID
 70
     0
  0
APPID
  2
PLOTTRANSPARENCY
 70
     0
  0
APPID
  2
ACADANNOPO
 70
     0
  0
APPID
  2
ACAD_DIMASSOC_CALC_DIMLFAC
 70
     0
  0
APPID
  2
ACAD_DIMASSOC_DIMLFAC
 70
     0
  0
APPID
  2
ACAD_DIMASSOC_OVERRIDDEN_D
 70
     0
  0
APPID
  2
ACAD_DSTYLE_DIMRADIAL_EXTENSION
 70
     0
  0
APPID
  2
ACAD_DSTYLE_DIMBREAK
 70
     0
  0
APPID
  2
ACADANNOTATIVE
 70
     0
  0
APPID
  2
ACAD_ASSOCPERSSUBENTMANAGER
 70
     0
  0
ENDTAB
  0
TABLE
  2
DIMSTYLE
 70
     1
  0
DIMSTYLE
  2
STANDARD
 70
     0
  3

  4

  5

  6

  7

 40
1.0
 41
0.18
 42
0.0625
 43
0.38
 44
0.18
 45
0.0
 46
0.0
 47
0.0
 48
0.0
140
0.18
141
0.09
142
0.0
143
25.3999999999999986
144
1.0
145
0.0
146
1.0
147
0.09
 71
     0
 72
     0
 73
     1
 74
     1
 75
     0
 76
     0
 77
     0
 78
     0
170
     0
171
     2
172
     0
173
     0
174
     0
175
     0
176
     0
177
     0
178
     0
  0
ENDTAB
  0
ENDSEC
  0
SECTION
  2
BLOCKS
  0
BLOCK
  8
0
  2
$MODEL_SPACE
 70
     0
 10
0.0
 20
0.0
 30
0.0
  3
$MODEL_SPACE
  1

  0
ENDBLK
  5
38
  8
0
  0
BLOCK
 67
     1
  8
0
  2
$PAPER_SPACE
 70
     0
 10
0.0
 20
0.0
 30
0.0
  3
$PAPER_SPACE
  1

  0
ENDBLK
  5
36
 67
     1
  8
0
  0
BLOCK
  8
0
  2
*S0
 70
     1
 10
0.0
 20
0.0
 30
0.0
  3
*S0
  1

  0
ENDBLK
  5
ACE
  8
0
  0
BLOCK
  8
0
  2
_NONE
 70
     0
 10
0.0
 20
0.0
 30
0.0
  3
_NONE
  1

  0
ENDBLK
  5
39BC
  8
0
  0
BLOCK
  8
0
  2
A$C5C546F58
 70
     0
 10
0.0
 20
0.0
 30
0.0
  3
A$C5C546F58
  1

  0
LINE
  5
747E
  8
0
  6
CONTINUOUS
 62
     3
 10
-6.9999999999998881
 20
-28.9354308033794609
 30
0.0000000000000064
 11
-6.9999999999999183
 21
28.9354308033794716
 31
-0.0000000000000064
210
-0.0000000000000002
220
1.0
230
-0.0000000000000002
  0
LINE
  5
747F
  8
0
  6
CONTINUOUS
 62
     3
 10
-0.9999999999998214
 20
-150.0
 30
0.0000000000000333
 11
0.0000000000001787
 21
-150.0
 31
0.0000000000000333
210
-0.0000000000000002
220
1.0
230
-0.0000000000000002
  0
LINE
  5
7480
  8
0
  6
CONTINUOUS
 62
     3
 10
0.0000000000001681
 20
-130.0
 30
0.0000000000000289
 11
0.0000000000001787
 21
-150.0
 31
0.0000000000000333
210
-0.0000000000000002
220
1.0
230
-0.0000000000000002
  0
LINE
  5
7481
  8
0
  6
CONTINUOUS
 62
     3
 10
-0.9999999999998216
 20
-150.0
 30
0.0000000000000333
 11
-0.9999999999998321
 21
-130.0
 31
0.0000000000000289
210
-0.0000000000000002
220
1.0
230
-0.0000000000000002
  0
LINE
  5
7482
  8
0
  6
CONTINUOUS
 62
     3
 10
0.0000000000001681
 20
-130.0
 30
0.0000000000000289
 11
0.0000000000000308
 21
130.0
 31
-0.0000000000000289
210
-0.0000000000000002
220
1.0
230
-0.0000000000000002
  0
LINE
  5
7483
  8
0
  6
CONTINUOUS
 62
     3
 10
-0.9999999999999694
 20
130.0
 30
-0.0000000000000289
 11
-0.9999999999998319
 21
-130.0
 31
0.0000000000000289
210
-0.0000000000000002
220
1.0
230
-0.0000000000000002
  0
LINE
  5
7484
  8
0
  6
CONTINUOUS
 62
     3
 10
0.0000000000000203
 20
150.0
 30
-0.0000000000000333
 11
0.0000000000000309
 21
130.0
 31
-0.0000000000000289
210
-0.0000000000000002
220
1.0
230
-0.0000000000000002
  0
LINE
  5
7485
  8
0
  6
CONTINUOUS
 62
     3
 10
-0.9999999999999801
 20
150.0
 30
-0.0000000000000333
 11
0.0000000000000202
 21
150.0
 31
-0.0000000000000333
210
-0.0000000000000002
220
1.0
230
-0.0000000000000002
  0
LINE
  5
7486
  8
0
  6
CONTINUOUS
 62
     3
 10
-0.9999999999999694
 20
130.0
 30
-0.0000000000000289
 11
-0.9999999999999799
 21
150.0
 31
-0.0000000000000333
210
-0.0000000000000002
220
1.0
230
-0.0000000000000002
  0
ARC
  5
7487
  8
0
  6
CONTINUOUS
 62
     3
 10
14.0701969446080692
 20
-47.64404687096836
 30
0.0
 40
20.0000000000002593
210
0.0
220
-0.0000000000000002
230
-1.0
 50
110.7021439702781009
 51
122.5484861291671024
  0
ARC
  5
7488
  8
0
  6
CONTINUOUS
 62
     3
 10
14.0701969446081101
 20
47.6440468709683387
 30
0.0
 40
20.0000000000002416
210
0.0
220
-0.0000000000000002
230
-1.0
 50
237.4515138708327129
 51
249.2978560297216859
  0
ARC
  5
7489
  8
0
  6
CONTINUOUS
 62
     3
 10
5.9999999999998792
 20
-35.0000000000000213
 30
0.0
 40
4.9999999999999973
210
0.0
220
-0.0000000000000002
230
-1.0
 50
122.5484861291672019
 51
180.0
  0
ARC
  5
748A
  8
0
  6
CONTINUOUS
 62
     3
 10
5.9999999999999183
 20
35.0000000000000213
 30
0.0
 40
4.9999999999999973
210
0.0
220
-0.0000000000000002
230
-1.0
 50
180.0
 51
237.4515138708327129
  0
LINE
  5
748B
  8
0
  6
CONTINUOUS
 62
     3
 10
-90.9666622578999551
 20
-30.2500000000000213
 30
0.0000000000000067
 11
-90.9666622578999551
 21
-0.0000000000000238
 31
0.0
210
-0.0000000000000002
220
1.0
230
-0.0000000000000002
  0
LINE
  5
748C
  8
0
  6
CONTINUOUS
 62
     3
 10
-90.9666622578999551
 20
-0.0000000000000146
 30
0.0
 11
-90.9666622578999551
 21
30.2499999999999716
 31
-0.0000000000000067
210
-0.0000000000000002
220
1.0
230
-0.0000000000000002
  0
LINE
  5
748D
  8
0
  6
CONTINUOUS
 62
     3
 10
-90.1000000000000938
 20
-30.2500000000000213
 30
0.0000000000000067
 11
-90.1000000000000938
 21
-0.0000000000000236
 31
0.0
210
-0.0000000000000002
220
1.0
230
-0.0000000000000002
  0
LINE
  5
748E
  8
0
  6
CONTINUOUS
 62
     3
 10
-90.1000000000000938
 20
-0.0000000000000144
 30
0.0
 11
-90.1000000000000938
 21
30.2499999999999716
 31
-0.0000000000000067
210
-0.0000000000000002
220
1.0
230
-0.0000000000000002
  0
LINE
  5
748F
  8
0
  6
CONTINUOUS
 62
     3
 10
-89.5000000000000853
 20
-30.8499999999999908
 30
0.0000000000000069
 11
-89.5000000000000853
 21
-0.0000000000000234
 31
0.0
210
-0.0000000000000002
220
1.0
230
-0.0000000000000002
  0
LINE
  5
7490
  8
0
  6
CONTINUOUS
 62
     3
 10
-89.5000000000000853
 20
-0.000000000000019
 30
0.0
 11
-89.5000000000000853
 21
30.8499999999999517
 31
-0.0000000000000069
210
-0.0000000000000002
220
1.0
230
-0.0000000000000002
  0
LINE
  5
7491
  8
0
  6
CONTINUOUS
 62
     3
 10
-88.5000000000000995
 20
-30.8499999999999908
 30
0.0000000000000069
 11
-88.5000000000000995
 21
-0.0000000000000232
 31
0.0
210
-0.0000000000000002
220
1.0
230
-0.0000000000000002
  0
LINE
  5
7492
  8
0
  6
CONTINUOUS
 62
     3
 10
-88.5000000000000995
 20
-0.0000000000000188
 30
0.0
 11
-88.5000000000000995
 21
30.8499999999999517
 31
-0.0000000000000069
210
-0.0000000000000002
220
1.0
230
-0.0000000000000002
  0
LINE
  5
7493
  8
0
  6
CONTINUOUS
 62
     3
 10
-87.9000000000001052
 20
-30.2500000000000213
 30
0.0000000000000067
 11
-87.9000000000001052
 21
-0.0000000000000231
 31
0.0
210
-0.0000000000000002
220
1.0
230
-0.0000000000000002
  0
LINE
  5
7494
  8
0
  6
CONTINUOUS
 62
     3
 10
-87.9000000000001052
 20
-0.0000000000000139
 30
0.0
 11
-87.9000000000001052
 21
30.2499999999999716
 31
-0.0000000000000067
210
-0.0000000000000002
220
1.0
230
-0.0000000000000002
  0
LINE
  5
7495
  8
0
  6
CONTINUOUS
 62
     3
 10
-87.2528871108918338
 20
-30.2500000000000213
 30
0.0000000000000067
 11
-87.2528871108918338
 21
-0.0000000000000229
 31
0.0
210
-0.0000000000000002
220
1.0
230
-0.0000000000000002
  0
LINE
  5
7496
  8
0
  6
CONTINUOUS
 62
     3
 10
-87.2528871108918338
 20
-0.0000000000000137
 30
0.0
 11
-87.2528871108918338
 21
30.2499999999999716
 31
-0.0000000000000067
210
-0.0000000000000002
220
1.0
230
-0.0000000000000002
  0
LINE
  5
7497
  8
0
  6
CONTINUOUS
 62
     3
 10
-83.5000000000001279
 20
-32.0000000000000071
 30
0.0000000000000071
 11
-83.5000000000001279
 21
-0.0000000000000221
 31
0.0
210
-0.0000000000000002
220
1.0
230
-0.0000000000000002
  0
LINE
  5
7498
  8
0
  6
CONTINUOUS
 62
     3
 10
-83.5000000000001279
 20
-0.000000000000013
 30
0.0
 11
-83.5000000000001279
 21
31.9999999999999716
 31
-0.0000000000000071
210
-0.0000000000000002
220
1.0
230
-0.0000000000000002
  0
LINE
  5
7499
  8
0
  6
CONTINUOUS
 62
     3
 10
-82.5000000000001137
 20
-25.5000000000000391
 30
0.0000000000000057
 11
-82.5000000000001137
 21
-0.0000000000000219
 31
0.0
210
-0.0000000000000002
220
1.0
230
-0.0000000000000002
  0
LINE
  5
749A
  8
0
  6
CONTINUOUS
 62
     3
 10
-82.5000000000001137
 20
-0.0000000000000124
 30
0.0
 11
-82.5000000000001137
 21
25.4999999999999893
 31
-0.0000000000000057
210
-0.0000000000000002
220
1.0
230
-0.0000000000000002
  0
LINE
  5
749B
  8
0
  6
CONTINUOUS
 62
     3
 10
-100.5000000000000995
 20
-28.2472232502674103
 30
0.0000000000000063
 11
-100.5000000000000995
 21
-0.0000000000000259
 31
0.0
210
-0.0000000000000002
220
1.0
230
-0.0000000000000002
  0
LINE
  5
749C
  8
0
  6
CONTINUOUS
 62
     3
 10
-100.5000000000000995
 20
-0.0000000000000181
 30
0.0
 11
-100.5000000000000995
 21
28.2472232502673712
 31
-0.0000000000000063
210
-0.0000000000000002
220
1.0
230
-0.0000000000000002
  0
LINE
  5
749D
  8
0
  6
CONTINUOUS
 62
     3
 10
-95.5000000000000853
 20
-32.0000000000000071
 30
0.0000000000000071
 11
-95.5000000000000853
 21
-0.0000000000000248
 31
0.0
210
-0.0000000000000002
220
1.0
230
-0.0000000000000002
  0
LINE
  5
749E
  8
0
  6
CONTINUOUS
 62
     3
 10
-95.5000000000000853
 20
-0.0000000000000157
 30
0.0
 11
-95.5000000000000853
 21
31.9999999999999716
 31
-0.0000000000000071
210
-0.0000000000000002
220
1.0
230
-0.0000000000000002
  0
ARC
  5
749F
  8
0
  6
CONTINUOUS
 62
     3
 10
95.0000000000000995
 20
-29.3140740033710614
 30
0.0
 40
0.5000000000000001
210
0.0
220
-0.0000000000000002
230
-1.0
 50
0.0
 51
110.0
  0
ARC
  5
74A0
  8
0
  6
CONTINUOUS
 62
     3
 10
95.0000000000000995
 20
29.3140740033710117
 30
0.0
 40
0.4999999999999988
210
0.0
220
-0.0000000000000002
230
-1.0
 50
249.9999999999998863
 51
0.0
  0
LINE
  5
74A1
  8
0
  6
CONTINUOUS
 62
     3
 10
-94.8289899283372648
 20
28.8442276929780483
 30
-0.0000000000000064
 11
-90.9666622578999551
 21
30.2499999999999609
 31
-0.0000000000000067
210
-0.0000000000000002
220
1.0
230
-0.0000000000000002
  0
LINE
  5
74A2
  8
0
  6
CONTINUOUS
 62
     3
 10
-94.8289899283372648
 20
-28.8442276929781016
 30
0.0000000000000064
 11
-90.9666622578999551
 21
-30.25
 31
0.0000000000000067
210
-0.0000000000000002
220
1.0
230
-0.0000000000000002
  0
LINE
  5
74A3
  8
0
  6
CONTINUOUS
 62
     3
 10
-90.9666622578999551
 20
30.2499999999999716
 30
-0.0000000000000067
 11
-90.1000000000000938
 21
30.2499999999999716
 31
-0.0000000000000067
210
-0.0000000000000002
220
1.0
230
-0.0000000000000002
  0
LINE
  5
74A4
  8
0
  6
CONTINUOUS
 62
     3
 10
-90.9666622578999551
 20
-30.2500000000000107
 30
0.0000000000000067
 11
-90.1000000000000938
 21
-30.2500000000000107
 31
0.0000000000000067
210
-0.0000000000000002
220
1.0
230
-0.0000000000000002
  0
LINE
  5
74A5
  8
0
  6
CONTINUOUS
 62
     3
 10
-90.1000000000000938
 20
30.2499999999999716
 30
-0.0000000000000067
 11
-89.5000000000000853
 21
30.8499999999999588
 31
-0.0000000000000069
210
-0.0000000000000002
220
1.0
230
-0.0000000000000002
  0
LINE
  5
74A6
  8
0
  6
CONTINUOUS
 62
     3
 10
-90.1000000000000938
 20
-30.2500000000000107
 30
0.0000000000000067
 11
-89.5000000000000853
 21
-30.8500000000000014
 31
0.0000000000000069
210
-0.0000000000000002
220
1.0
230
-0.0000000000000002
  0
LINE
  5
74A7
  8
0
  6
CONTINUOUS
 62
     3
 10
-89.5000000000000853
 20
30.8499999999999588
 30
-0.0000000000000069
 11
-88.5000000000000995
 21
30.8499999999999588
 31
-0.0000000000000069
210
-0.0000000000000002
220
1.0
230
-0.0000000000000002
  0
LINE
  5
74A8
  8
0
  6
CONTINUOUS
 62
     3
 10
-89.5000000000000853
 20
-30.8500000000000014
 30
0.0000000000000069
 11
-88.5000000000000995
 21
-30.8500000000000014
 31
0.0000000000000069
210
-0.0000000000000002
220
1.0
230
-0.0000000000000002
  0
LINE
  5
74A9
  8
0
  6
CONTINUOUS
 62
     3
 10
-87.9000000000001052
 20
-30.25
 30
0.0000000000000067
 11
-88.5000000000000995
 21
-30.8500000000000014
 31
0.0000000000000069
210
-0.0000000000000002
220
1.0
230
-0.0000000000000002
  0
LINE
  5
74AA
  8
0
  6
CONTINUOUS
 62
     3
 10
-87.9000000000001052
 20
30.2499999999999716
 30
-0.0000000000000067
 11
-88.5000000000000995
 21
30.8499999999999588
 31
-0.0000000000000069
210
-0.0000000000000002
220
1.0
230
-0.0000000000000002
  0
LINE
  5
74AB
  8
0
  6
CONTINUOUS
 62
     3
 10
-87.9000000000001052
 20
30.2499999999999716
 30
-0.0000000000000067
 11
-87.2528871108918338
 21
30.2499999999999716
 31
-0.0000000000000067
210
-0.0000000000000002
220
1.0
230
-0.0000000000000002
  0
LINE
  5
74AC
  8
0
  6
CONTINUOUS
 62
     3
 10
-87.9000000000001052
 20
-30.25
 30
0.0000000000000067
 11
-87.2528871108918338
 21
-30.25
 31
0.0000000000000067
210
-0.0000000000000002
220
1.0
230
-0.0000000000000002
  0
LINE
  5
74AD
  8
0
  6
CONTINUOUS
 62
     3
 10
-87.2528871108918338
 20
30.2499999999999716
 30
-0.0000000000000067
 11
-83.5000000000001279
 21
31.9999999999999716
 31
-0.0000000000000071
210
-0.0000000000000002
220
1.0
230
-0.0000000000000002
  0
LINE
  5
74AE
  8
0
  6
CONTINUOUS
 62
     3
 10
-87.2528871108918338
 20
-30.25
 30
0.0000000000000067
 11
-83.5000000000001279
 21
-32.0000000000000071
 31
0.0000000000000071
210
-0.0000000000000002
220
1.0
230
-0.0000000000000002
  0
ARC
  5
74AF
  8
0
  6
CONTINUOUS
 62
     3
 10
85.5000000000002984
 20
-25.5000000000002096
 30
0.0
 40
3.000000000000171
210
0.0
220
-0.0000000000000002
230
-1.0
 50
179.9999999999965041
 51
228.1896851042199046
  0
ARC
  5
74B0
  8
0
  6
CONTINUOUS
 62
     3
 10
85.5000000000002984
 20
25.5000000000001812
 30
0.0
 40
3.000000000000175
210
0.0
220
-0.0000000000000002
230
-1.0
 50
131.8103148957798965
 51
180.0000000000034106
  0
ARC
  5
74B1
  8
0
  6
CONTINUOUS
 62
     3
 10
99.0000000000001137
 20
-28.2472232502673997
 30
0.0
 40
1.50000000000004
210
0.0
220
-0.0000000000000002
230
-1.0
 50
299.9999999999989768
 51
359.9999999999992042
  0
ARC
  5
74B2
  8
0
  6
CONTINUOUS
 62
     3
 10
99.0000000000000568
 20
28.2472232502673108
 30
0.0
 40
1.500000000000099
210
0.0
220
-0.0000000000000002
230
-1.0
 50
0.0000000000024299
 51
59.9999999999998082
  0
LINE
  5
74B3
  8
0
  6
CONTINUOUS
 62
     3
 10
-99.7500000000001137
 20
29.5462613559440612
 30
-0.0000000000000066
 11
-95.5000000000000853
 21
31.9999999999999716
 31
-0.0000000000000071
210
-0.0000000000000002
220
1.0
230
-0.0000000000000002
  0
LINE
  5
74B4
  8
0
  6
CONTINUOUS
 62
     3
 10
-99.7500000000001137
 20
-29.546261355944111
 30
0.0000000000000066
 11
-95.5000000000000853
 21
-32.0000000000000071
 31
0.0000000000000071
210
-0.0000000000000002
220
1.0
230
-0.0000000000000002
  0
LINE
  5
74B5
  8
0
  6
VERDECKT
 62
     1
 10
-6.6464901527694762
 20
-28.0000000000000213
 30
0.0000000000000062
 11
-6.6464901527695064
 21
28.0000000000000213
 31
-0.0000000000000062
210
-0.0000000000000002
220
1.0
230
-0.0000000000000002
  0
ARC
  5
74B6
  8
0
  6
VERDECKT
 62
     1
 10
5.999999999999889
 20
-35.0000000000000213
 30
0.0
 40
6.0000000000000133
210
0.0
220
-0.0000000000000002
230
-1.0
 50
122.5484861291673013
 51
179.9999999999998863
  0
ARC
  5
74B7
  8
0
  6
VERDECKT
 62
     1
 10
5.9999999999999156
 20
35.0000000000000213
 30
0.0
 40
5.9999999999999982
210
0.0
220
-0.0000000000000002
230
-1.0
 50
180.0
 51
237.4515138708325992
  0
ARC
  5
74B8
  8
0
  6
VERDECKT
 62
     1
 10
14.0701969445954695
 20
-47.6440468709481308
 30
0.0
 40
20.9999999999785594
210
0.0
220
-0.0000000000000002
230
-1.0
 50
110.7021439702653964
 51
122.5484861291677987
  0
ARC
  5
74B9
  8
0
  6
VERDECKT
 62
     1
 10
14.0701969445955903
 20
47.6440468709482801
 30
0.0
 40
20.9999999999787192
210
0.0
220
-0.0000000000000002
230
-1.0
 50
237.4515138708320876
 51
249.2978560297343051
  0
LINE
  5
74BA
  8
0
  6
VERDECKT
 62
     1
 10
-6.6464901527694771
 20
-28.0000000000000213
 30
0.0000000000000062
 11
-6.9999999999998881
 21
-28.9354308033794787
 31
0.0000000000000064
210
-0.0000000000000002
220
1.0
230
-0.0000000000000002
  0
LINE
  5
74BB
  8
0
  6
VERDECKT
 62
     1
 10
-6.6464901527695073
 20
28.0000000000000213
 30
-0.0000000000000062
 11
-6.9999999999999183
 21
28.9354308033794716
 31
-0.0000000000000064
210
-0.0000000000000002
220
1.0
230
-0.0000000000000002
  0
LINE
  5
74BC
  8
0
  6
VERDECKT
 62
     1
 10
-0.9999999999998337
 20
-127.0000000000000995
 30
0.0000000000000282
 11
0.0000000000001665
 21
-127.0000000000000995
 31
0.0000000000000282
210
-0.0000000000000002
220
1.0
230
-0.0000000000000002
  0
LINE
  5
74BD
  8
0
  6
VERDECKT
 62
     1
 10
-0.9999999999998305
 20
-133.0000000000001137
 30
0.0000000000000295
 11
0.0000000000001696
 21
-133.0000000000001137
 31
0.0000000000000295
210
-0.0000000000000002
220
1.0
230
-0.0000000000000002
  0
LINE
  5
74BE
  8
0
  6
VERDECKT
 62
     1
 10
-0.9999999999999708
 20
133.0000000000001137
 30
-0.0000000000000295
 11
0.0000000000000293
 21
133.0000000000001137
 31
-0.0000000000000295
210
-0.0000000000000002
220
1.0
230
-0.0000000000000002
  0
LINE
  5
74BF
  8
0
  6
VERDECKT
 62
     1
 10
-0.9999999999999678
 20
127.0000000000000995
 30
-0.0000000000000282
 11
0.0000000000000324
 21
127.0000000000000995
 31
-0.0000000000000282
210
-0.0000000000000002
220
1.0
230
-0.0000000000000002
  0
LINE
  5
74C0
  8
0
  6
VERDECKT
 62
     1
 10
-85.5000000000001279
 20
-29.2500000000000107
 30
0.0000000000000065
 11
-85.5000000000001279
 21
-0.0000000000000225
 31
0.0
210
-0.0000000000000002
220
1.0
230
-0.0000000000000002
  0
LINE
  5
74C1
  8
0
  6
VERDECKT
 62
     1
 10
-85.5000000000001279
 20
-0.000000000000013
 30
0.0
 11
-85.5000000000001279
 21
29.2499999999999716
 31
-0.0000000000000065
210
-0.0000000000000002
220
1.0
230
-0.0000000000000002
  0
LINE
  5
74C2
  8
0
  6
VERDECKT
 62
     1
 10
-94.5000000000000853
 20
-27.0000000000000213
 30
0.000000000000006
 11
-94.5000000000000853
 21
-0.0000000000000245
 31
0.0
210
-0.0000000000000002
220
1.0
230
-0.0000000000000002
  0
LINE
  5
74C3
  8
0
  6
VERDECKT
 62
     1
 10
-94.5000000000000853
 20
-0.0000000000000189
 30
0.0
 11
-94.5000000000000853
 21
26.9999999999999893
 31
-0.000000000000006
210
-0.0000000000000002
220
1.0
230
-0.0000000000000002
  0
LINE
  5
74C4
  8
0
  6
VERDECKT
 62
     1
 10
-84.7500000000001279
 20
29.9999999999999716
 30
-0.0000000000000067
 11
-83.5000000000000995
 21
29.9999999999999716
 31
-0.0000000000000067
210
-0.0000000000000002
220
1.0
230
-0.0000000000000002
  0
LINE
  5
74C5
  8
0
  6
VERDECKT
 62
     1
 10
-84.7500000000001279
 20
-30.0
 30
0.0000000000000067
 11
-83.5000000000000995
 21
-30.0
 31
0.0000000000000067
210
-0.0000000000000002
220
1.0
230
-0.0000000000000002
  0
ARC
  5
74C6
  8
0
  6
VERDECKT
 62
     1
 10
84.7500000000001279
 20
-29.2500000000000213
 30
0.0
 40
0.7499999999999895
210
0.0
220
-0.0000000000000002
230
-1.0
 50
270.0
 51
0.0000000000018956
  0
ARC
  5
74C7
  8
0
  6
VERDECKT
 62
     1
 10
84.7500000000001279
 20
29.2499999999999787
 30
0.0
 40
0.7499999999999859
210
0.0
220
-0.0000000000000002
230
-1.0
 50
359.9999999999992042
 51
90.00000000000108
  0
ARC
  5
74C8
  8
0
  6
VERDECKT
 62
     1
 10
84.7500000000000568
 20
-29.1742346141751483
 30
0.0
 40
0.7500000000000571
210
0.0
220
-0.0000000000000002
230
-1.0
 50
0.0000000000027098
 51
78.4630409671836873
  0
ARC
  5
74C9
  8
0
  6
VERDECKT
 62
     1
 10
84.7500000000000568
 20
29.1742346141751092
 30
0.0
 40
0.7500000000000469
210
0.0
220
-0.0000000000000002
230
-1.0
 50
281.5369590328162985
 51
359.9999999999973284
  0
ARC
  5
74CA
  8
0
  6
VERDECKT
 62
     1
 10
85.5000000000002984
 20
-25.5000000000001812
 30
0.0
 40
3.000000000000199
210
0.0
220
-0.0000000000000002
230
-1.0
 50
228.1896851042203878
 51
258.4630409671809161
  0
ARC
  5
74CB
  8
0
  6
VERDECKT
 62
     1
 10
85.5000000000002984
 20
25.5000000000001386
 30
0.0
 40
3.0000000000001981
210
0.0
220
-0.0000000000000002
230
-1.0
 50
101.5369590328189986
 51
131.8103148957794986
  0
LINE
  5
74CC
  8
0
  6
VERDECKT
 62
     1
 10
-83.5000000000000568
 20
23.9999999999999893
 30
-0.0000000000000053
 11
-82.5000000000001137
 21
23.9999999999999893
 31
-0.0000000000000053
210
-0.0000000000000002
220
1.0
230
-0.0000000000000002
  0
LINE
  5
74CD
  8
0
  6
VERDECKT
 62
     1
 10
-83.5000000000000568
 20
-24.0000000000000284
 30
0.0000000000000053
 11
-82.5000000000001137
 21
-24.0000000000000284
 31
0.0000000000000053
210
-0.0000000000000002
220
1.0
230
-0.0000000000000002
  0
ARC
  5
74CE
  8
0
  6
VERDECKT
 62
     1
 10
86.5000000000000853
 20
-24.0000000000000213
 30
0.0
 40
3.0000000000000151
210
0.0
220
-0.0000000000000002
230
-1.0
 50
180.0000000000001137
 51
270.0000000000002842
  0
ARC
  5
74CF
  8
0
  6
VERDECKT
 62
     1
 10
86.5000000000000853
 20
23.9999999999999787
 30
0.0
 40
3.0000000000000111
210
0.0
220
-0.0000000000000002
230
-1.0
 50
89.99999999999973
 51
179.999999999999801
  0
LINE
  5
74D0
  8
0
  6
VERDECKT
 62
     1
 10
-94.5000000000000853
 20
26.9999999999999893
 30
-0.000000000000006
 11
-86.5000000000001137
 21
26.9999999999999893
 31
-0.000000000000006
210
-0.0000000000000002
220
1.0
230
-0.0000000000000002
  0
LINE
  5
74D1
  8
0
  6
VERDECKT
 62
     1
 10
-94.5000000000000853
 20
-27.0000000000000284
 30
0.000000000000006
 11
-86.5000000000001137
 21
-27.0000000000000284
 31
0.000000000000006
210
-0.0000000000000002
220
1.0
230
-0.0000000000000002
  0
LINE
  5
74D2
  8
0
  6
VERDECKT
 62
     1
 10
-94.5000000000000853
 20
-27.0000000000000284
 30
0.000000000000006
 11
-100.5000000000000995
 21
-28.0579618842508083
 31
0.0000000000000062
210
-0.0000000000000002
220
1.0
230
-0.0000000000000002
  0
LINE
  5
74D3
  8
0
  6
VERDECKT
 62
     1
 10
-94.5000000000000853
 20
26.9999999999999893
 30
-0.000000000000006
 11
-100.5000000000000995
 21
28.0579618842507692
 31
-0.0000000000000062
210
-0.0000000000000002
220
1.0
230
-0.0000000000000002
  0
ENDBLK
  5
74D5
  8
0
  0
BLOCK
  8
0
  2
A$CF0D499B1
 70
     0
 10
0.0
 20
0.0
 30
0.0
  3
A$CF0D499B1
  1

  0
CIRCLE
  5
7542
  8
0
  6
CONTINUOUS
 62
     3
 10
0.0
 20
-0.0000000000000008
 30
0.0
 40
28.0000000000000107
  0
CIRCLE
  5
7543
  8
0
  6
CONTINUOUS
 62
     3
 10
130.0
 20
-130.0
 30
0.0
 40
2.9999999999999978
210
0.0
220
-0.0000000000000002
230
-1.0
  0
CIRCLE
  5
7544
  8
0
  6
CONTINUOUS
 62
     3
 10
130.0
 20
130.0
 30
0.0
 40
3.0000000000000022
210
0.0
220
-0.0000000000000002
230
-1.0
  0
CIRCLE
  5
7545
  8
0
  6
CONTINUOUS
 62
     3
 10
-130.0
 20
130.0
 30
0.0
 40
3.0000000000000022
210
0.0
220
-0.0000000000000002
230
-1.0
  0
CIRCLE
  5
7546
  8
0
  6
CONTINUOUS
 62
     3
 10
-130.0
 20
-130.0
 30
0.0
 40
3.0
210
0.0
220
-0.0000000000000002
230
-1.0
  0
ARC
  5
7547
  8
0
  6
CONTINUOUS
 62
     3
 10
-130.0
 20
-130.0
 30
0.0
 40
20.0
210
0.0
220
-0.0000000000000002
230
-1.0
 50
180.0
 51
270.0
  0
LINE
  5
7548
  8
0
  6
CONTINUOUS
 62
     3
 10
130.0
 20
-150.0
 30
0.0000000000000333
 11
-130.0
 21
-150.0
 31
0.0000000000000333
210
0.0
220
1.0
230
-0.0000000000000002
  0
ARC
  5
7549
  8
0
  6
CONTINUOUS
 62
     3
 10
130.0
 20
-130.0
 30
0.0
 40
20.0
210
0.0
220
-0.0000000000000002
230
-1.0
 50
270.0
 51
0.0
  0
LINE
  5
754A
  8
0
  6
CONTINUOUS
 62
     3
 10
-150.0
 20
-130.0
 30
0.0000000000000289
 11
-150.0
 21
130.0
 31
-0.0000000000000289
210
0.0
220
1.0
230
-0.0000000000000002
  0
ARC
  5
754B
  8
0
  6
CONTINUOUS
 62
     3
 10
130.0
 20
130.0
 30
0.0
 40
20.0
210
0.0
220
-0.0000000000000002
230
-1.0
 50
0.0
 51
90.0
  0
LINE
  5
754C
  8
0
  6
CONTINUOUS
 62
     3
 10
-130.0
 20
150.0
 30
-0.0000000000000333
 11
130.0
 21
150.0
 31
-0.0000000000000333
210
0.0
220
1.0
230
-0.0000000000000002
  0
ARC
  5
754D
  8
0
  6
CONTINUOUS
 62
     3
 10
-130.0
 20
130.0
 30
0.0
 40
20.0
210
0.0
220
-0.0000000000000002
230
-1.0
 50
90.0
 51
180.0
  0
LINE
  5
754E
  8
0
  6
CONTINUOUS
 62
     3
 10
150.0
 20
130.0
 30
-0.0000000000000289
 11
150.0
 21
-130.0
 31
0.0000000000000289
210
0.0
220
1.0
230
-0.0000000000000002
  0
CIRCLE
  5
754F
  8
0
  6
CONTINUOUS
 62
     3
 10
-0.0000000000000711
 20
0.0
 30
0.0
 40
24.0
  0
CIRCLE
  5
7550
  8
0
  6
VERDECKT
 62
     1
 10
0.0
 20
-0.0000000000000009
 30
0.0
 40
28.9354308033794609
  0
CIRCLE
  5
7551
  8
0
  6
VERDECKT
 62
     1
 10
-0.0000000000000711
 20
0.0
 30
0.0
 40
30.8499999999999694
  0
CIRCLE
  5
7552
  8
0
  6
VERDECKT
 62
     1
 10
-0.0000000000000711
 20
0.0
 30
0.0
 40
30.2499999999999716
  0
CIRCLE
  5
7553
  8
0
  6
VERDECKT
 62
     1
 10
-0.0000000000000711
 20
0.0
 30
0.0
 40
31.9999999999999716
  0
CIRCLE
  5
7554
  8
0
  6
VERDECKT
 62
     1
 10
-0.0000000000000711
 20
0.0
 30
0.0
 40
29.9999999999999716
  0
CIRCLE
  5
7555
  8
0
  6
VERDECKT
 62
     1
 10
-0.0000000000000711
 20
0.0
 30
0.0
 40
27.0
  0
CIRCLE
  5
7556
  8
0
  6
VERDECKT
 62
     1
 10
-0.0000000000000711
 20
0.0
 30
0.0
 40
28.0579618842507692
  0
CIRCLE
  5
7557
  8
0
  6
VERDECKT
 62
     1
 10
-0.0000000000000711
 20
0.0
 30
0.0
 40
28.8140740033710188
  0
ENDBLK
  5
7559
  8
0
  0
ENDSEC
  0
SECTION
  2
ENTITIES
  0
TEXT
  5
3D7
  8
VOLL
 10
78.076754716981128
 20
31.025947764705851
 30
0.0
 40
1.8
  1

  7
GREEKS
  0
INSERT
  5
AD0
  8
ADSK_ASSOC_ENTITY_BACKUPS
  2
*S0
 10
0.0
 20
0.0
 30
0.0
  0
LINE
  5
635F
  8
DEFPOINTS
  6
STRICHPUNKT
 62
     6
 10
0.0
 20
10.4999999999999396
 30
-0.0000000000000006
 11
0.0
 21
0.0
 31
0.0
  0
INSERT
  5
74D6
  8
STEMPEL
  2
A$C5C546F58
 10
0.0
 20
88.4456250339301846
 30
-263.6253069973681136
210
0.0
220
-1.0
230
0.0
  0
INSERT
  5
755A
  8
STEMPEL
  2
A$CF0D499B1
 10
230.0
 20
88.4456250339302272
 30
-263.6253069973681136
210
0.0
220
-1.0
230
0.0000000000000001
  0
VIEWPORT
  5
AAD
 67
     1
  8
0
 10
209.7509975051106039
 20
148.2555099834810903
 30
0.0
 40
567.3581314878892954
 41
298.5415224913494967
 68
     1
 69
     1
1001
ACAD
1000
MVIEW
1002
{
1070
    16
1010
0.0
1020
0.0
1030
0.0
1010
0.0
1020
0.0
1030
1.0
1040
0.0
1040
298.5415224913494967
1040
209.7509975051106039
1040
148.2555099834810903
1040
50.0
1040
0.0
1040
0.0
1070
     0
1070
  1500
1070
     1
1070
     1
1070
     0
1070
     0
1070
     0
1070
     0
1040
0.0
1040
0.0
1040
0.0
1040
10.0
1040
10.0
1040
10.0
1040
10.0
1070
     0
1002
{
1002
}
1002
}
  0
TEXT
  5
CB0
 67
     1
  8
VOLL
 10
625.5592565604117681
 20
227.4217200880700887
 30
0.0
 40
3.6000000000000001
  1

  7
GREEKS
  0
INSERT
  5
548D
 67
     1
  8
BEM
 62
     2
  2
_NONE
 10
23.4398745320330413
 20
119.8769473413416051
 30
0.0
 41
3.0
 42
3.0
 43
3.0
 50
45.0
  0
ENDSEC
  0
EOF
