  0
SECTION
  2
HEADER
  9
$ACADVER
  1
AC1009
  9
$INSBASE
 10
0.0
 20
0.0
 30
0.0
  9
$EXTMIN
 10
-298.2664478200795202
 20
-150.0227033458913866
 30
-0.022887310505439
  9
$EXTMAX
 10
150.0032053585202902
 20
298.0052504111145026
 30
0.0000005238689482
  9
$LIMMIN
 10
0.0
 20
0.0
  9
$LIMMAX
 10
419.9999999999998863
 20
594.0
  9
$ORTHOMODE
 70
     1
  9
$REGENMODE
 70
     1
  9
$FILLMODE
 70
     1
  9
$QTEXTMODE
 70
     0
  9
$MIRRTEXT
 70
     1
  9
$DRAGMODE
 70
     2
  9
$LTSCALE
 40
10.0
  9
$OSMODE
 70
   511
  9
$ATTMODE
 70
     1
  9
$TEXTSIZE
 40
3.5
  9
$TRACEWID
 40
1.0
  9
$TEXTSTYLE
  7
STANDARD
  9
$CLAYER
  8
STEMPEL
  9
$CELTYPE
  6
BYLAYER
  9
$CECOLOR
 62
   256
  9
$DIMSCALE
 40
1.0
  9
$DIMASZ
 40
3.5
  9
$DIMEXO
 40
1.0
  9
$DIMDLI
 40
0.38
  9
$DIMRND
 40
0.0
  9
$DIMDLE
 40
0.0
  9
$DIMEXE
 40
1.0
  9
$DIMTP
 40
0.0
  9
$DIMTM
 40
0.000000001
  9
$DIMTXT
 40
3.5
  9
$DIMCEN
 40
0.09
  9
$DIMTSZ
 40
0.0
  9
$DIMTOL
 70
     0
  9
$DIMLIM
 70
     0
  9
$DIMTIH
 70
     0
  9
$DIMTOH
 70
     0
  9
$DIMSE1
 70
     0
  9
$DIMSE2
 70
     0
  9
$DIMTAD
 70
     1
  9
$DIMZIN
 70
     8
  9
$DIMBLK
  1

  9
$DIMASO
 70
     1
  9
$DIMSHO
 70
     0
  9
$DIMPOST
  1

  9
$DIMAPOST
  1

  9
$DIMALT
 70
     0
  9
$DIMALTD
 70
     2
  9
$DIMALTF
 40
25.3999999999999986
  9
$DIMLFAC
 40
2.0
  9
$DIMTOFL
 70
     1
  9
$DIMTVP
 40
0.0
  9
$DIMTIX
 70
     0
  9
$DIMSOXD
 70
     0
  9
$DIMSAH
 70
     0
  9
$DIMBLK1
  1

  9
$DIMBLK2
  1

  9
$DIMSTYLE
  2
LORO
  9
$DIMCLRD
 70
     0
  9
$DIMCLRE
 70
     0
  9
$DIMCLRT
 70
     1
  9
$DIMTFAC
 40
0.5
  9
$DIMGAP
 40
1.5
  9
$LUNITS
 70
     2
  9
$LUPREC
 70
     2
  9
$SKETCHINC
 40
1.0
  9
$FILLETRAD
 40
1.5
  9
$AUNITS
 70
     0
  9
$AUPREC
 70
     0
  9
$MENU
  1
ACAD
  9
$ELEVATION
 40
0.0
  9
$PELEVATION
 40
0.0
  9
$THICKNESS
 40
0.0
  9
$LIMCHECK
 70
     0
  9
$BLIPMODE
 70
     0
  9
$CHAMFERA
 40
0.0
  9
$CHAMFERB
 40
0.0
  9
$SKPOLY
 70
     0
  9
$TDCREATE
 40
2455397.867048610933125
  9
$TDUPDATE
 40
2459627.3412500000558794
  9
$TDINDWG
 40
1.0823318634000001
  9
$TDUSRTIMER
 40
1.0823318634000001
  9
$USRTIMER
 70
     1
  9
$ANGBASE
 50
0.0
  9
$ANGDIR
 70
     0
  9
$PDMODE
 70
     0
  9
$PDSIZE
 40
0.0
  9
$PLINEWID
 40
0.0
  9
$COORDS
 70
     1
  9
$SPLFRAME
 70
     0
  9
$SPLINETYPE
 70
     6
  9
$SPLINESEGS
 70
     8
  9
$ATTDIA
 70
     1
  9
$ATTREQ
 70
     1
  9
$HANDLING
 70
     1
  9
$HANDSEED
  5
73CC
  9
$SURFTAB1
 70
     6
  9
$SURFTAB2
 70
     6
  9
$SURFTYPE
 70
     6
  9
$SURFU
 70
     6
  9
$SURFV
 70
     6
  9
$UCSNAME
  2

  9
$UCSORG
 10
0.0
 20
0.0
 30
0.0
  9
$UCSXDIR
 10
1.0
 20
0.0
 30
0.0
  9
$UCSYDIR
 10
0.0
 20
1.0
 30
0.0
  9
$PUCSNAME
  2

  9
$PUCSORG
 10
0.0
 20
0.0
 30
0.0
  9
$PUCSXDIR
 10
1.0
 20
0.0
 30
0.0
  9
$PUCSYDIR
 10
0.0
 20
1.0
 30
0.0
  9
$USERI1
 70
     0
  9
$USERI2
 70
     0
  9
$USERI3
 70
     0
  9
$USERI4
 70
     0
  9
$USERI5
 70
     0
  9
$USERR1
 40
0.0
  9
$USERR2
 40
0.0
  9
$USERR3
 40
0.0
  9
$USERR4
 40
0.0
  9
$USERR5
 40
0.0
  9
$WORLDVIEW
 70
     1
  9
$SHADEDGE
 70
     3
  9
$SHADEDIF
 70
    70
  9
$TILEMODE
 70
     1
  9
$MAXACTVP
 70
    16
  9
$PLIMCHECK
 70
     0
  9
$PEXTMIN
 10
1.0000000000000000E+20
 20
1.0000000000000000E+20
 30
1.0000000000000000E+20
  9
$PEXTMAX
 10
-1.0000000000000000E+20
 20
-1.0000000000000000E+20
 30
-1.0000000000000000E+20
  9
$PLIMMIN
 10
-4.2676823988261949
 20
-3.0114299125713719
  9
$PLIMMAX
 10
415.7323176011738042
 20
293.9885700874286272
  9
$UNITMODE
 70
     0
  9
$VISRETAIN
 70
     0
  9
$PLINEGEN
 70
     0
  9
$PSLTSCALE
 70
     0
  0
ENDSEC
  0
SECTION
  2
TABLES
  0
TABLE
  2
VPORT
 70
     1
  0
VPORT
  2
*ACTIVE
 70
     0
 10
0.0
 20
0.0
 11
1.0
 21
1.0
 12
-74.131621230779615
 22
73.991273532611558
 13
0.0
 23
0.0
 14
1.0
 24
1.0
 15
10.0
 25
10.0
 16
-0.0000000000002426
 26
0.0
 36
1092.7445218364910033
 17
0.0
 27
0.0
 37
0.0
 40
450.3196568452769952
 41
1.8720136518771331
 42
50.0
 43
0.0
 44
0.0
 50
0.0
 51
0.0
 71
     0
 72
  1500
 73
     1
 74
     1
 75
     0
 76
     0
 77
     0
 78
     0
  0
ENDTAB
  0
TABLE
  2
LTYPE
 70
     3
  0
LTYPE
  2
CONTINUOUS
 70
     0
  3
Solid line
 72
    65
 73
     0
 40
0.0
  0
LTYPE
  2
STRICHPUNKT
 70
     0
  3
__ . __ . __ . __ . __ . __ . __ . __ . __ . __
 72
    65
 73
     4
 40
1.0
 49
0.5
 49
-0.25
 49
0.0
 49
-0.25
  0
LTYPE
  2
VERDECKT
 70
     0
  3
Verdeckt __ __ __ __ __ __ __ __ __ __ __ __ __
 72
    65
 73
     2
 40
0.375
 49
0.25
 49
-0.125
  0
ENDTAB
  0
TABLE
  2
LAYER
 70
     8
  0
LAYER
  2
0
 70
     0
 62
     7
  6
CONTINUOUS
  0
LAYER
  2
VOLL
 70
     0
 62
     1
  6
CONTINUOUS
  0
LAYER
  2
BEM
 70
     0
 62
     7
  6
CONTINUOUS
  0
LAYER
  2
DEFPOINTS
 70
     0
 62
     7
  6
CONTINUOUS
  0
LAYER
  2
ADSK_ASSOC_ENTITY_BACKUPS
 70
     1
 62
    -7
  6
CONTINUOUS
  0
LAYER
  2
STEMPEL
 70
     0
 62
     3
  6
CONTINUOUS
  0
ENDTAB
  0
TABLE
  2
STYLE
 70
     3
  0
STYLE
  2
STANDARD
 70
     0
 40
0.0
 41
0.8
 50
0.0
 71
     0
 42
3.5
  3
simplex.shx
  4

  0
STYLE
  2
GREEKS
 70
     0
 40
0.0
 41
0.8
 50
0.0
 71
     0
 42
2.5
  3
SIMPLEX.shx
  4

  0
ENDTAB
  0
TABLE
  2
VIEW
 70
     0
  0
ENDTAB
  0
TABLE
  2
UCS
 70
     0
  0
ENDTAB
  0
TABLE
  2
APPID
 70
    26
  0
APPID
  2
ACAD
 70
     0
  0
APPID
  2
ACAECLAYERSTANDARD
 70
     0
  0
APPID
  2
ACCMTRANSPARENCY
 70
     0
  0
APPID
  2
ACAD_NAV_VCDISPLAY
 70
     0
  0
APPID
  2
ACAD_PSEXT
 70
     0
  0
APPID
  2
ACAD_EXEMPT_FROM_CAD_STANDARDS
 70
     0
  0
APPID
  2
ACSYNERGY
 70
     0
  0
APPID
  2
SYNERGY_BODY_TBR_ID
 70
     0
  0
APPID
  2
ACAD_VIEW_EDGE_ID
 70
     0
  0
APPID
  2
ACSYNERGYSKETCH
 70
     0
  0
APPID
  2
ACAD_MODELDOC_XFORM
 70
     0
  0
APPID
  2
ACAD_MLEADERVER
 70
     0
  0
APPID
  2
ACADANNOMONITORALERTICONDI
 70
     0
  0
APPID
  2
ACAD_DSTYLE_DIMJAG
 70
     0
  0
APPID
  2
ACAD_DSTYLE_DIMTALN
 70
     0
  0
APPID
  2
ACDBDYNAMICBLOCKGUID
 70
     0
  0
APPID
  2
ACAD_STEPID
 70
     0
  0
APPID
  2
PLOTTRANSPARENCY
 70
     0
  0
APPID
  2
ACADANNOPO
 70
     0
  0
APPID
  2
ACAD_DIMASSOC_CALC_DIMLFAC
 70
     0
  0
APPID
  2
ACAD_DIMASSOC_DIMLFAC
 70
     0
  0
APPID
  2
ACAD_DIMASSOC_OVERRIDDEN_D
 70
     0
  0
APPID
  2
ACAD_DSTYLE_DIMRADIAL_EXTENSION
 70
     0
  0
APPID
  2
ACAD_DSTYLE_DIMBREAK
 70
     0
  0
APPID
  2
ACAD_TC
 70
     0
  0
APPID
  2
ACAD_ASSOCPERSSUBENTMANAGER
 70
     0
  0
ENDTAB
  0
TABLE
  2
DIMSTYLE
 70
     2
  0
DIMSTYLE
  2
STANDARD
 70
     0
  3

  4

  5

  6

  7

 40
1.0
 41
0.18
 42
0.0625
 43
0.38
 44
0.18
 45
0.0
 46
0.0
 47
0.0
 48
0.0
140
0.18
141
0.09
142
0.0
143
25.3999999999999986
144
1.0
145
0.0
146
1.0
147
0.09
 71
     0
 72
     0
 73
     1
 74
     1
 75
     0
 76
     0
 77
     0
 78
     0
170
     0
171
     2
172
     0
173
     0
174
     0
175
     0
176
     0
177
     0
178
     0
  0
DIMSTYLE
  2
LORO
 70
     0
  3

  4

  5

  6

  7

 40
1.0
 41
3.5
 42
1.0
 43
0.38
 44
1.0
 45
0.0
 46
0.0
 47
0.0
 48
0.000000001
140
3.5
141
0.09
142
0.0
143
25.3999999999999986
144
2.0
145
0.0
146
0.5
147
1.5
 71
     0
 72
     0
 73
     0
 74
     0
 75
     0
 76
     0
 77
     1
 78
     8
170
     0
171
     2
172
     1
173
     0
174
     0
175
     0
176
     0
177
     0
178
     1
  0
ENDTAB
  0
ENDSEC
  0
SECTION
  2
BLOCKS
  0
BLOCK
  8
0
  2
$MODEL_SPACE
 70
     0
 10
0.0
 20
0.0
 30
0.0
  3
$MODEL_SPACE
  1

  0
ENDBLK
  5
38
  8
0
  0
BLOCK
 67
     1
  8
0
  2
$PAPER_SPACE
 70
     0
 10
0.0
 20
0.0
 30
0.0
  3
$PAPER_SPACE
  1

  0
ENDBLK
  5
36
 67
     1
  8
0
  0
BLOCK
  8
0
  2
*S0
 70
     1
 10
0.0
 20
0.0
 30
0.0
  3
*S0
  1

  0
ENDBLK
  5
ACE
  8
0
  0
BLOCK
  8
0
  2
_NONE
 70
     0
 10
0.0
 20
0.0
 30
0.0
  3
_NONE
  1

  0
ENDBLK
  5
39BC
  8
0
  0
BLOCK
  8
0
  2
A$C68CE56FE
 70
     0
 10
0.0
 20
0.0
 30
0.0
  3
A$C68CE56FE
  1

  0
CIRCLE
  5
72A8
  8
0
  6
CONTINUOUS
 62
     3
 10
0.0
 20
0.0000000000000078
 30
0.0
 40
22.3999999999999986
210
0.0
220
-0.0000000000000002
230
-1.0
  0
CIRCLE
  5
72A9
  8
0
  6
CONTINUOUS
 62
     3
 10
130.0
 20
-130.0
 30
0.0
 40
2.9999999999999978
210
0.0
220
-0.0000000000000002
230
-1.0
  0
CIRCLE
  5
72AA
  8
0
  6
CONTINUOUS
 62
     3
 10
-130.0
 20
-130.0
 30
0.0
 40
3.0000000000000031
210
0.0
220
-0.0000000000000002
230
-1.0
  0
CIRCLE
  5
72AB
  8
0
  6
CONTINUOUS
 62
     3
 10
-130.0
 20
130.0
 30
0.0
 40
3.0
210
0.0
220
-0.0000000000000002
230
-1.0
  0
CIRCLE
  5
72AC
  8
0
  6
CONTINUOUS
 62
     3
 10
130.0
 20
130.0
 30
0.0
 40
3.000000000000008
210
0.0
220
-0.0000000000000002
230
-1.0
  0
ARC
  5
72AD
  8
0
  6
CONTINUOUS
 62
     3
 10
130.0
 20
-130.0
 30
0.0000000000000289
 40
20.0
 50
270.0
 51
0.0
  0
LINE
  5
72AE
  8
0
  6
CONTINUOUS
 62
     3
 10
150.0
 20
-130.0
 30
0.0000000000000289
 11
150.0
 21
130.0
 31
-0.0000000000000289
210
0.0
220
1.0
230
-0.0000000000000002
  0
ARC
  5
72AF
  8
0
  6
CONTINUOUS
 62
     3
 10
130.0
 20
130.0
 30
-0.0000000000000289
 40
20.0
 50
0.0
 51
90.0
  0
LINE
  5
72B0
  8
0
  6
CONTINUOUS
 62
     3
 10
130.0
 20
150.0
 30
-0.0000000000000333
 11
-130.0
 21
150.0
 31
-0.0000000000000333
210
0.0
220
1.0
230
-0.0000000000000002
  0
ARC
  5
72B1
  8
0
  6
CONTINUOUS
 62
     3
 10
-130.0
 20
130.0
 30
-0.0000000000000289
 40
20.0
 50
90.0
 51
180.0
  0
LINE
  5
72B2
  8
0
  6
CONTINUOUS
 62
     3
 10
-150.0
 20
130.0
 30
-0.0000000000000289
 11
-150.0
 21
-130.0
 31
0.0000000000000289
210
0.0
220
1.0
230
-0.0000000000000002
  0
ARC
  5
72B3
  8
0
  6
CONTINUOUS
 62
     3
 10
-130.0
 20
-130.0
 30
0.0000000000000289
 40
20.0
 50
180.0
 51
270.0
  0
LINE
  5
72B4
  8
0
  6
CONTINUOUS
 62
     3
 10
-130.0
 20
-150.0
 30
0.0000000000000333
 11
130.0
 21
-150.0
 31
0.0000000000000333
210
0.0
220
1.0
230
-0.0000000000000002
  0
CIRCLE
  5
72B5
  8
0
  6
CONTINUOUS
 62
     3
 10
0.0000000000000426
 20
0.0
 30
0.0
 40
18.25
  0
CIRCLE
  5
72B6
  8
0
  6
VERDECKT
 62
     1
 10
0.0
 20
0.0000000000000078
 30
0.0
 40
23.0397283529091297
210
0.0
220
-0.0000000000000002
230
-1.0
  0
CIRCLE
  5
72B7
  8
0
  6
VERDECKT
 62
     1
 10
0.0000000000000426
 20
0.0
 30
0.0
 40
23.9000000000000092
  0
CIRCLE
  5
72B8
  8
0
  6
VERDECKT
 62
     1
 10
0.0000000000000426
 20
0.0
 30
0.0
 40
25.1999999999999993
  0
CIRCLE
  5
72B9
  8
0
  6
VERDECKT
 62
     1
 10
0.0000000000000426
 20
0.0
 30
0.0
 40
24.0
  0
CIRCLE
  5
72BA
  8
0
  6
VERDECKT
 62
     1
 10
0.0000000000000426
 20
0.0
 30
0.0
 40
23.4226497308103916
  0
CIRCLE
  5
72BB
  8
0
  6
VERDECKT
 62
     1
 10
0.0000000000000426
 20
0.0
 30
0.0
 40
22.999999999999801
  0
CIRCLE
  5
72BC
  8
0
  6
VERDECKT
 62
     1
 10
0.0000000000000426
 20
0.0
 30
0.0
 40
21.0000000000000107
  0
CIRCLE
  5
72BD
  8
0
  6
VERDECKT
 62
     1
 10
0.0000000000000426
 20
0.0
 30
0.0
 40
21.9697983938965393
  0
CIRCLE
  5
72BE
  8
0
  6
VERDECKT
 62
     1
 10
0.0000000000000426
 20
0.0
 30
0.0
 40
26.0
  0
CIRCLE
  5
72BF
  8
0
  6
VERDECKT
 62
     1
 10
0.0000000000000426
 20
0.0
 30
0.0
 40
24.8000000000000007
  0
CIRCLE
  5
72C0
  8
0
  6
VERDECKT
 62
     1
 10
0.0000000000000426
 20
0.0
 30
0.0
 40
22.8412804842563695
  0
ENDBLK
  5
72C2
  8
0
  0
BLOCK
  8
0
  2
A$C3B6FB195
 70
     0
 10
0.0
 20
0.0
 30
0.0
  3
A$C3B6FB195
  1

  0
LINE
  5
72C6
  8
0
  6
CONTINUOUS
 62
     3
 10
-8.0000000000000142
 20
23.039728352909151
 30
-0.0000000000000051
 11
-8.0000000000000036
 21
-23.0397283529091297
 31
0.0000000000000051
210
-0.0000000000000002
220
1.0
230
-0.0000000000000002
  0
LINE
  5
72C7
  8
0
  6
CONTINUOUS
 62
     3
 10
-0.0000000000000792
 20
150.0
 30
-0.0000000000000333
 11
-1.000000000000079
 21
150.0
 31
-0.0000000000000333
210
-0.0000000000000002
220
1.0
230
-0.0000000000000002
  0
LINE
  5
72C8
  8
0
  6
CONTINUOUS
 62
     3
 10
-0.0000000000000687
 20
130.0
 30
-0.0000000000000289
 11
-0.0000000000000792
 21
150.0
 31
-0.0000000000000333
210
-0.0000000000000002
220
1.0
230
-0.0000000000000002
  0
LINE
  5
72C9
  8
0
  6
CONTINUOUS
 62
     3
 10
-1.000000000000079
 20
150.0
 30
-0.0000000000000333
 11
-1.0000000000000679
 21
130.0
 31
-0.0000000000000289
210
-0.0000000000000002
220
1.0
230
-0.0000000000000002
  0
LINE
  5
72CA
  8
0
  6
CONTINUOUS
 62
     3
 10
-0.0000000000000687
 20
130.0
 30
-0.0000000000000289
 11
0.0000000000000687
 21
-130.0
 31
0.0000000000000289
210
-0.0000000000000002
220
1.0
230
-0.0000000000000002
  0
LINE
  5
72CB
  8
0
  6
CONTINUOUS
 62
     3
 10
-0.9999999999999316
 20
-130.0
 30
0.0000000000000289
 11
-1.0000000000000679
 21
130.0
 31
-0.0000000000000289
210
-0.0000000000000002
220
1.0
230
-0.0000000000000002
  0
LINE
  5
72CC
  8
0
  6
CONTINUOUS
 62
     3
 10
0.0000000000000792
 20
-150.0
 30
0.0000000000000333
 11
0.0000000000000687
 21
-130.0
 31
0.0000000000000289
210
-0.0000000000000002
220
1.0
230
-0.0000000000000002
  0
LINE
  5
72CD
  8
0
  6
CONTINUOUS
 62
     3
 10
-0.9999999999999316
 20
-130.0
 30
0.0000000000000289
 11
-0.9999999999999211
 21
-150.0
 31
0.0000000000000333
210
-0.0000000000000002
220
1.0
230
-0.0000000000000002
  0
LINE
  5
72CE
  8
0
  6
CONTINUOUS
 62
     3
 10
0.0000000000000792
 20
-150.0
 30
0.0000000000000333
 11
-0.999999999999921
 21
-150.0
 31
0.0000000000000333
210
-0.0000000000000002
220
1.0
230
-0.0000000000000002
  0
ARC
  5
72CF
  8
0
  6
CONTINUOUS
 62
     3
 10
4.0000000000000124
 20
28.0000000000000213
 30
0.0
 40
2.9999999999999969
210
0.0
220
-0.0000000000000002
230
-1.0
 50
179.9999999999998863
 51
258.0
  0
ARC
  5
72D0
  8
0
  6
CONTINUOUS
 62
     3
 10
4.0
 20
-28.0000000000000107
 30
0.0
 40
3.0
210
0.0
220
-0.0000000000000002
230
-1.0
 50
101.9999999999999005
 51
180.0
  0
LINE
  5
72D1
  8
0
  6
CONTINUOUS
 62
     3
 10
-5.332560129014345
 20
24.6497338161630815
 30
-0.0000000000000055
 11
-3.3762649275467349
 21
25.0655571977986007
 31
-0.0000000000000056
210
-0.0000000000000002
220
1.0
230
-0.0000000000000002
  0
LINE
  5
72D2
  8
0
  6
CONTINUOUS
 62
     3
 10
-5.3325601290143334
 20
-24.6497338161630708
 30
0.0000000000000055
 11
-3.3762649275467229
 21
-25.06555719779859
 31
0.0000000000000056
210
-0.0000000000000002
220
1.0
230
-0.0000000000000002
  0
ARC
  5
72D3
  8
0
  6
CONTINUOUS
 62
     3
 10
4.3434350711382894
 20
19.9962662868397416
 30
0.0
 40
4.7574287621135127
210
0.0
220
-0.0000000000000002
230
-1.0
 50
39.771566442015498
 51
78.0000000000000426
  0
ARC
  5
72D4
  8
0
  6
CONTINUOUS
 62
     3
 10
4.3434350711382779
 20
-19.996266286839731
 30
0.0
 40
4.7574287621135127
210
0.0
220
-0.0000000000000002
230
-1.0
 50
281.9999999999998863
 51
320.2284335579844878
  0
LINE
  5
72D5
  8
0
  6
CONTINUOUS
 62
     3
 10
-86.7516660498397556
 20
-23.9000000000000412
 30
0.0000000000000053
 11
-86.7516660498397556
 21
-0.0000000000000228
 31
0.0
210
-0.0000000000000002
220
1.0
230
-0.0000000000000002
  0
LINE
  5
72D6
  8
0
  6
CONTINUOUS
 62
     3
 10
-86.7516660498397556
 20
-0.0000000000000178
 30
0.0
 11
-86.7516660498397556
 21
23.8999999999999986
 31
-0.0000000000000053
210
-0.0000000000000002
220
1.0
230
-0.0000000000000002
  0
LINE
  5
72D7
  8
0
  6
CONTINUOUS
 62
     3
 10
-87.1000000000002927
 20
-23.9000000000000306
 30
0.0000000000000053
 11
-87.1000000000002927
 21
-0.0000000000000229
 31
0.0
210
-0.0000000000000002
220
1.0
230
-0.0000000000000002
  0
LINE
  5
72D8
  8
0
  6
CONTINUOUS
 62
     3
 10
-87.1000000000002927
 20
-0.0000000000000179
 30
0.0
 11
-87.1000000000002927
 21
23.8999999999999808
 31
-0.0000000000000053
210
-0.0000000000000002
220
1.0
230
-0.0000000000000002
  0
LINE
  5
72D9
  8
0
  6
CONTINUOUS
 62
     3
 10
-84.5000000000002132
 20
-25.2000000000000384
 30
0.0000000000000056
 11
-84.5000000000002132
 21
-0.0000000000000223
 31
0.0
210
-0.0000000000000002
220
1.0
230
-0.0000000000000002
  0
LINE
  5
72DA
  8
0
  6
CONTINUOUS
 62
     3
 10
-84.5000000000002132
 20
-0.000000000000015
 30
0.0
 11
-84.5000000000002132
 21
25.1999999999999993
 31
-0.0000000000000056
210
-0.0000000000000002
220
1.0
230
-0.0000000000000002
  0
LINE
  5
72DB
  8
0
  6
CONTINUOUS
 62
     3
 10
-82.5000000000002132
 20
-20.0000000000000107
 30
0.0000000000000044
 11
-82.5000000000002132
 21
-0.0000000000000219
 31
0.0
210
-0.0000000000000002
220
1.0
230
-0.0000000000000002
  0
LINE
  5
72DC
  8
0
  6
CONTINUOUS
 62
     3
 10
-82.5000000000002132
 20
-0.000000000000018
 30
0.0
 11
-82.5000000000002132
 21
19.9999999999999716
 31
-0.0000000000000044
210
-0.0000000000000002
220
1.0
230
-0.0000000000000002
  0
LINE
  5
72DD
  8
0
  6
CONTINUOUS
 62
     3
 10
-98.000000000000199
 20
-22.8245735194571004
 30
0.0000000000000051
 11
-98.000000000000199
 21
-0.0000000000000253
 31
0.0
210
-0.0000000000000002
220
1.0
230
-0.0000000000000002
  0
LINE
  5
72DE
  8
0
  6
CONTINUOUS
 62
     3
 10
-98.000000000000199
 20
-0.0000000000000193
 30
0.0
 11
-98.000000000000199
 21
22.8245735194570685
 31
-0.0000000000000051
210
-0.0000000000000002
220
1.0
230
-0.0000000000000002
  0
LINE
  5
72DF
  8
0
  6
CONTINUOUS
 62
     3
 10
-93.500000000000199
 20
-26.0000000000000391
 30
0.0000000000000058
 11
-93.500000000000199
 21
-0.0000000000000243
 31
0.0
210
-0.0000000000000002
220
1.0
230
-0.0000000000000002
  0
LINE
  5
72E0
  8
0
  6
CONTINUOUS
 62
     3
 10
-93.500000000000199
 20
-0.0000000000000196
 30
0.0
 11
-93.500000000000199
 21
25.9999999999999893
 31
-0.0000000000000058
210
-0.0000000000000002
220
1.0
230
-0.0000000000000002
  0
LINE
  5
72E1
  8
0
  6
CONTINUOUS
 62
     3
 10
-90.2823870905589416
 20
-23.9000000000000412
 30
0.0000000000000053
 11
-90.2823870905589416
 21
-0.0000000000000236
 31
0.0
210
-0.0000000000000002
220
1.0
230
-0.0000000000000002
  0
LINE
  5
72E2
  8
0
  6
CONTINUOUS
 62
     3
 10
-90.2823870905589416
 20
-0.0000000000000186
 30
0.0
 11
-90.2823870905589416
 21
23.8999999999999986
 31
-0.0000000000000053
210
-0.0000000000000002
220
1.0
230
-0.0000000000000002
  0
LINE
  5
72E3
  8
0
  6
CONTINUOUS
 62
     3
 10
-89.9000000000001904
 20
-23.9000000000000412
 30
0.0000000000000053
 11
-89.9000000000001904
 21
-0.0000000000000235
 31
0.0
210
-0.0000000000000002
220
1.0
230
-0.0000000000000002
  0
LINE
  5
72E4
  8
0
  6
CONTINUOUS
 62
     3
 10
-89.9000000000001904
 20
-0.0000000000000185
 30
0.0
 11
-89.9000000000001904
 21
23.8999999999999986
 31
-0.0000000000000053
210
-0.0000000000000002
220
1.0
230
-0.0000000000000002
  0
LINE
  5
72E5
  8
0
  6
CONTINUOUS
 62
     3
 10
-89.0000000000002132
 20
-24.8000000000000398
 30
0.0000000000000055
 11
-89.0000000000002132
 21
-0.0000000000000233
 31
0.0
210
-0.0000000000000002
220
1.0
230
-0.0000000000000002
  0
LINE
  5
72E6
  8
0
  6
CONTINUOUS
 62
     3
 10
-89.0000000000002132
 20
-0.0000000000000177
 30
0.0
 11
-89.0000000000002132
 21
24.7999999999999901
 31
-0.0000000000000055
210
-0.0000000000000002
220
1.0
230
-0.0000000000000002
  0
LINE
  5
72E7
  8
0
  6
CONTINUOUS
 62
     3
 10
-88.0000000000002132
 20
-24.8000000000000291
 30
0.0000000000000055
 11
-88.0000000000002132
 21
-0.0000000000000231
 31
0.0
210
-0.0000000000000002
220
1.0
230
-0.0000000000000002
  0
LINE
  5
72E8
  8
0
  6
CONTINUOUS
 62
     3
 10
-88.0000000000002132
 20
-0.0000000000000178
 30
0.0
 11
-88.0000000000002132
 21
24.7999999999999901
 31
-0.0000000000000055
210
-0.0000000000000002
220
1.0
230
-0.0000000000000002
  0
LINE
  5
72E9
  8
0
  6
CONTINUOUS
 62
     3
 10
-87.1000000000002927
 20
23.8999999999999986
 30
-0.0000000000000053
 11
-86.7516660498397556
 21
23.8999999999999986
 31
-0.0000000000000053
210
-0.0000000000000002
220
1.0
230
-0.0000000000000002
  0
LINE
  5
72EA
  8
0
  6
CONTINUOUS
 62
     3
 10
-87.1000000000002927
 20
-23.9000000000000412
 30
0.0000000000000053
 11
-86.7516660498397556
 21
-23.9000000000000412
 31
0.0000000000000053
210
-0.0000000000000002
220
1.0
230
-0.0000000000000002
  0
LINE
  5
72EB
  8
0
  6
CONTINUOUS
 62
     3
 10
-86.7516660498397556
 20
23.8999999999999986
 30
-0.0000000000000053
 11
-84.5000000000002132
 21
25.1999999999999993
 31
-0.0000000000000056
210
-0.0000000000000002
220
1.0
230
-0.0000000000000002
  0
LINE
  5
72EC
  8
0
  6
CONTINUOUS
 62
     3
 10
-86.7516660498397556
 20
-23.9000000000000412
 30
0.0000000000000053
 11
-84.5000000000002132
 21
-25.2000000000000313
 31
0.0000000000000056
210
-0.0000000000000002
220
1.0
230
-0.0000000000000002
  0
ARC
  5
72ED
  8
0
  6
CONTINUOUS
 62
     3
 10
85.5000000000001137
 20
-19.9999999999999183
 30
0.0
 40
2.9999999999999152
210
0.0
220
-0.0000000000000002
230
-1.0
 50
180.0000000000015916
 51
250.5287793655107009
  0
ARC
  5
72EE
  8
0
  6
CONTINUOUS
 62
     3
 10
85.5000000000001137
 20
19.9999999999998792
 30
0.0
 40
2.9999999999999112
210
0.0
220
-0.0000000000000002
230
-1.0
 50
109.4712206344891996
 51
179.9999999999982094
  0
ARC
  5
72EF
  8
0
  6
CONTINUOUS
 62
     3
 10
97.00000000000027
 20
-22.8245735194571395
 30
0.0
 40
0.9999999999999328
210
0.0
220
-0.0000000000000002
230
-1.0
 50
299.9999999999974989
 51
0.0000000000020228
  0
ARC
  5
72F0
  8
0
  6
CONTINUOUS
 62
     3
 10
97.0000000000002558
 20
22.8245735194571004
 30
0.0
 40
0.9999999999999433
210
0.0
220
-0.0000000000000002
230
-1.0
 50
359.999999999998181
 51
60.0000000000018687
  0
LINE
  5
72F1
  8
0
  6
CONTINUOUS
 62
     3
 10
-97.5000000000001847
 20
23.6905989232414989
 30
-0.0000000000000053
 11
-93.500000000000199
 21
25.9999999999999787
 31
-0.0000000000000058
210
-0.0000000000000002
220
1.0
230
-0.0000000000000002
  0
LINE
  5
72F2
  8
0
  6
CONTINUOUS
 62
     3
 10
-97.5000000000001847
 20
-23.6905989232415415
 30
0.0000000000000053
 11
-93.500000000000199
 21
-26.0000000000000284
 31
0.0000000000000058
210
-0.0000000000000002
220
1.0
230
-0.0000000000000002
  0
ARC
  5
72F3
  8
0
  6
CONTINUOUS
 62
     3
 10
93.0000000000001563
 20
-23.3412804842563908
 30
0.0
 40
0.5000000000000001
210
0.0
220
-0.0000000000000002
230
-1.0
 50
0.0
 51
111.9999999999984936
  0
ARC
  5
72F4
  8
0
  6
CONTINUOUS
 62
     3
 10
93.0000000000001563
 20
23.3412804842563411
 30
0.0
 40
0.4999999999999922
210
0.0
220
-0.0000000000000002
230
-1.0
 50
248.0000000000017906
 51
0.0000000000003804
  0
LINE
  5
72F5
  8
0
  6
CONTINUOUS
 62
     3
 10
-92.8126967032922039
 20
22.8776885569729487
 30
-0.0000000000000051
 11
-90.2823870905589416
 21
23.8999999999999986
 31
-0.0000000000000053
210
-0.0000000000000002
220
1.0
230
-0.0000000000000002
  0
LINE
  5
72F6
  8
0
  6
CONTINUOUS
 62
     3
 10
-92.8126967032922039
 20
-22.8776885569729984
 30
0.0000000000000051
 11
-90.2823870905589416
 21
-23.9000000000000412
 31
0.0000000000000053
210
-0.0000000000000002
220
1.0
230
-0.0000000000000002
  0
LINE
  5
72F7
  8
0
  6
CONTINUOUS
 62
     3
 10
-90.2823870905589416
 20
23.8999999999999986
 30
-0.0000000000000053
 11
-89.9000000000001904
 21
23.8999999999999986
 31
-0.0000000000000053
210
-0.0000000000000002
220
1.0
230
-0.0000000000000002
  0
LINE
  5
72F8
  8
0
  6
CONTINUOUS
 62
     3
 10
-90.2823870905589416
 20
-23.9000000000000412
 30
0.0000000000000053
 11
-89.9000000000001904
 21
-23.9000000000000412
 31
0.0000000000000053
210
-0.0000000000000002
220
1.0
230
-0.0000000000000002
  0
LINE
  5
72F9
  8
0
  6
CONTINUOUS
 62
     3
 10
-89.9000000000001904
 20
23.8999999999999986
 30
-0.0000000000000053
 11
-89.0000000000002132
 21
24.8000000000000007
 31
-0.0000000000000055
210
-0.0000000000000002
220
1.0
230
-0.0000000000000002
  0
LINE
  5
72FA
  8
0
  6
CONTINUOUS
 62
     3
 10
-89.9000000000001904
 20
-23.9000000000000412
 30
0.0000000000000053
 11
-89.0000000000002132
 21
-24.8000000000000398
 31
0.0000000000000055
210
-0.0000000000000002
220
1.0
230
-0.0000000000000002
  0
LINE
  5
72FB
  8
0
  6
CONTINUOUS
 62
     3
 10
-89.0000000000002132
 20
24.8000000000000007
 30
-0.0000000000000055
 11
-88.0000000000002132
 21
24.8000000000000007
 31
-0.0000000000000055
210
-0.0000000000000002
220
1.0
230
-0.0000000000000002
  0
LINE
  5
72FC
  8
0
  6
CONTINUOUS
 62
     3
 10
-89.0000000000002132
 20
-24.8000000000000398
 30
0.0000000000000055
 11
-88.0000000000002132
 21
-24.8000000000000398
 31
0.0000000000000055
210
-0.0000000000000002
220
1.0
230
-0.0000000000000002
  0
LINE
  5
72FD
  8
0
  6
CONTINUOUS
 62
     3
 10
-87.1000000000002927
 20
-23.9000000000000199
 30
0.0000000000000053
 11
-88.0000000000002132
 21
-24.8000000000000291
 31
0.0000000000000055
210
-0.0000000000000002
220
1.0
230
-0.0000000000000002
  0
LINE
  5
72FE
  8
0
  6
CONTINUOUS
 62
     3
 10
-87.1000000000002927
 20
23.8999999999999808
 30
-0.0000000000000053
 11
-88.0000000000002132
 21
24.7999999999999901
 31
-0.0000000000000055
210
-0.0000000000000002
220
1.0
230
-0.0000000000000002
  0
LINE
  5
72FF
  8
0
  6
VERDECKT
 62
     1
 10
-7.2313989106928434
 20
22.4000000000000092
 30
-0.000000000000005
 11
-7.23139891069283
 21
-22.3999999999999986
 31
0.000000000000005
210
-0.0000000000000002
220
1.0
230
-0.0000000000000002
  0
LINE
  5
7300
  8
0
  6
VERDECKT
 62
     1
 10
-5.1246484381965818
 20
23.6715862154292793
 30
-0.0000000000000053
 11
-3.1683532367289762
 21
24.0874095970647986
 31
-0.0000000000000053
210
-0.0000000000000002
220
1.0
230
-0.0000000000000002
  0
LINE
  5
7301
  8
0
  6
VERDECKT
 62
     1
 10
-5.1246484381965711
 20
-23.6715862154292616
 30
0.0000000000000053
 11
-3.1683532367289629
 21
-24.0874095970647915
 31
0.0000000000000053
210
-0.0000000000000002
220
1.0
230
-0.0000000000000002
  0
ARC
  5
7302
  8
0
  6
VERDECKT
 62
     1
 10
4.0000000000000204
 20
28.0000000000000284
 30
0.0
 40
4.0000000000000053
210
0.0
220
-0.0000000000000002
230
-1.0
 50
180.0
 51
258.0
  0
ARC
  5
7303
  8
0
  6
VERDECKT
 62
     1
 10
3.9999999999999991
 20
-28.0000000000000107
 30
0.0
 40
3.9999999999999969
210
0.0
220
-0.0000000000000002
230
-1.0
 50
101.9999999999999005
 51
180.0
  0
LINE
  5
7304
  8
0
  6
VERDECKT
 62
     1
 10
-7.2313989106928318
 20
-22.3999999999999986
 30
0.000000000000005
 11
-8.0000000000000053
 21
-23.0397283529091297
 31
0.0000000000000051
210
-0.0000000000000002
220
1.0
230
-0.0000000000000002
  0
LINE
  5
7305
  8
0
  6
VERDECKT
 62
     1
 10
-7.2313989106928434
 20
22.4000000000000092
 30
-0.000000000000005
 11
-8.0000000000000142
 21
23.0397283529091403
 31
-0.0000000000000051
210
-0.0000000000000002
220
1.0
230
-0.0000000000000002
  0
ARC
  5
7306
  8
0
  6
VERDECKT
 62
     1
 10
4.3434350711382823
 20
19.996266286839731
 30
0.0
 40
3.7574287621135349
210
0.0
220
-0.0000000000000002
230
-1.0
 50
39.7715664420155974
 51
78.0000000000000568
  0
ARC
  5
7307
  8
0
  6
VERDECKT
 62
     1
 10
4.3434350711382761
 20
-19.996266286839731
 30
0.0
 40
3.7574287621135198
210
0.0
220
-0.0000000000000002
230
-1.0
 50
281.9999999999998863
 51
320.2284335579844878
  0
LINE
  5
7308
  8
0
  6
VERDECKT
 62
     1
 10
0.0000000000000703
 20
-133.0000000000001137
 30
0.0000000000000295
 11
-0.9999999999999299
 21
-133.0000000000001137
 31
0.0000000000000295
210
-0.0000000000000002
220
1.0
230
-0.0000000000000002
  0
LINE
  5
7309
  8
0
  6
VERDECKT
 62
     1
 10
0.0000000000000671
 20
-127.0000000000000995
 30
0.0000000000000282
 11
-0.9999999999999332
 21
-127.0000000000000995
 31
0.0000000000000282
210
-0.0000000000000002
220
1.0
230
-0.0000000000000002
  0
LINE
  5
730A
  8
0
  6
VERDECKT
 62
     1
 10
-0.0000000000000671
 20
127.0
 30
-0.0000000000000282
 11
-1.0000000000000671
 21
127.0
 31
-0.0000000000000282
210
-0.0000000000000002
220
1.0
230
-0.0000000000000002
  0
LINE
  5
730B
  8
0
  6
VERDECKT
 62
     1
 10
-0.0000000000000703
 20
133.0000000000001137
 30
-0.0000000000000295
 11
-1.0000000000000699
 21
133.0000000000001137
 31
-0.0000000000000295
210
-0.0000000000000002
220
1.0
230
-0.0000000000000002
  0
LINE
  5
730C
  8
0
  6
VERDECKT
 62
     1
 10
-85.5000000000001847
 20
-23.4226497308104094
 30
0.0000000000000052
 11
-85.5000000000001847
 21
-0.0000000000000225
 31
0.0
210
-0.0000000000000002
220
1.0
230
-0.0000000000000002
  0
LINE
  5
730D
  8
0
  6
VERDECKT
 62
     1
 10
-85.5000000000001847
 20
-0.0000000000000136
 30
0.0
 11
-85.5000000000001847
 21
23.4226497308103809
 31
-0.0000000000000052
210
-0.0000000000000002
220
1.0
230
-0.0000000000000002
  0
LINE
  5
730E
  8
0
  6
VERDECKT
 62
     1
 10
-83.5104348142248369
 20
-18.2500000000000213
 30
0.0000000000000041
 11
-83.5104348142248369
 21
-0.0000000000000221
 31
0.0
210
-0.0000000000000002
220
1.0
230
-0.0000000000000002
  0
LINE
  5
730F
  8
0
  6
VERDECKT
 62
     1
 10
-83.5104348142248369
 20
-0.0000000000000169
 30
0.0
 11
-83.5104348142248369
 21
18.2499999999999893
 31
-0.0000000000000041
210
-0.0000000000000002
220
1.0
230
-0.0000000000000002
  0
LINE
  5
7310
  8
0
  6
VERDECKT
 62
     1
 10
-92.5000000000001847
 20
-21.0000000000000391
 30
0.0000000000000047
 11
-92.5000000000001847
 21
-0.0000000000000241
 31
0.0
210
-0.0000000000000002
220
1.0
230
-0.0000000000000002
  0
LINE
  5
7311
  8
0
  6
VERDECKT
 62
     1
 10
-92.5000000000001847
 20
-0.0000000000000201
 30
0.0
 11
-92.5000000000001847
 21
21.0
 31
-0.0000000000000047
210
-0.0000000000000002
220
1.0
230
-0.0000000000000002
  0
LINE
  5
7312
  8
0
  6
VERDECKT
 62
     1
 10
-85.5000000000001847
 20
23.4226497308103809
 30
-0.0000000000000052
 11
-84.5000000000002132
 21
23.9999999999999893
 31
-0.0000000000000053
210
-0.0000000000000002
220
1.0
230
-0.0000000000000002
  0
LINE
  5
7313
  8
0
  6
VERDECKT
 62
     1
 10
-85.5000000000001847
 20
-23.42264973081042
 30
0.0000000000000052
 11
-84.5000000000002132
 21
-24.0000000000000284
 31
0.0000000000000053
210
-0.0000000000000002
220
1.0
230
-0.0000000000000002
  0
ARC
  5
7314
  8
0
  6
VERDECKT
 62
     1
 10
85.5000000000001137
 20
-19.9999999999998792
 30
0.0
 40
2.9999999999999449
210
0.0
220
-0.0000000000000002
230
-1.0
 50
250.5287793655108999
 51
270.0000000000013074
  0
ARC
  5
7315
  8
0
  6
VERDECKT
 62
     1
 10
85.5000000000001137
 20
19.9999999999998508
 30
0.0
 40
2.9999999999999432
210
0.0
220
-0.0000000000000002
230
-1.0
 50
89.9999999999986358
 51
109.4712206344890006
  0
LINE
  5
7316
  8
0
  6
VERDECKT
 62
     1
 10
-83.5104348142248369
 20
18.2499999999999893
 30
-0.0000000000000041
 11
-82.5000000000001847
 21
18.2499999999999893
 31
-0.0000000000000041
210
-0.0000000000000002
220
1.0
230
-0.0000000000000002
  0
LINE
  5
7317
  8
0
  6
VERDECKT
 62
     1
 10
-83.5104348142248369
 20
-18.2500000000000213
 30
0.0000000000000041
 11
-82.5000000000001847
 21
-18.2500000000000213
 31
0.0000000000000041
210
-0.0000000000000002
220
1.0
230
-0.0000000000000002
  0
ARC
  5
7318
  8
0
  6
VERDECKT
 62
     1
 10
86.5000000000001847
 20
-18.0000000000000391
 30
0.0
 40
2.999999999999996
210
0.0
220
-0.0000000000000002
230
-1.0
 50
184.7801918471986937
 51
270.0
  0
ARC
  5
7319
  8
0
  6
VERDECKT
 62
     1
 10
86.5000000000001847
 20
18.0000000000000107
 30
0.0
 40
2.9999999999999889
210
0.0
220
-0.0000000000000002
230
-1.0
 50
89.9999999999999858
 51
175.2198081528011926
  0
LINE
  5
731A
  8
0
  6
VERDECKT
 62
     1
 10
-92.5000000000001847
 20
21.0
 30
-0.0000000000000047
 11
-86.5000000000001847
 21
21.0000000000000107
 31
-0.0000000000000047
210
-0.0000000000000002
220
1.0
230
-0.0000000000000002
  0
LINE
  5
731B
  8
0
  6
VERDECKT
 62
     1
 10
-92.5000000000001847
 20
-21.0000000000000391
 30
0.0000000000000047
 11
-86.5000000000001847
 21
-21.0000000000000391
 31
0.0000000000000047
210
-0.0000000000000002
220
1.0
230
-0.0000000000000002
  0
LINE
  5
731C
  8
0
  6
VERDECKT
 62
     1
 10
-92.5000000000001847
 20
-21.0000000000000391
 30
0.0000000000000047
 11
-98.000000000000199
 21
-21.9697983938965713
 31
0.0000000000000049
210
-0.0000000000000002
220
1.0
230
-0.0000000000000002
  0
LINE
  5
731D
  8
0
  6
VERDECKT
 62
     1
 10
-92.5000000000001847
 20
21.0
 30
-0.0000000000000047
 11
-98.000000000000199
 21
21.9697983938965287
 31
-0.0000000000000049
210
-0.0000000000000002
220
1.0
230
-0.0000000000000002
  0
ENDBLK
  5
731F
  8
0
  0
BLOCK
  8
0
  2
A$CDA9CAFD7
 70
     0
 10
0.0
 20
0.0
 30
0.0
  3
A$CDA9CAFD7
  1

  0
LINE
  5
7323
  8
0
  6
CONTINUOUS
 62
     3
 10
23.0397283529091297
 20
8.0000000000000071
 30
-0.0000000000000051
 11
-0.0000000000000036
 21
8.0000000000000071
 31
0.0
  0
LINE
  5
7324
  8
0
  6
CONTINUOUS
 62
     3
 10
-0.0000000000000107
 20
8.0000000000000071
 30
0.0
 11
-23.0397283529091297
 21
8.0000000000000071
 31
0.0000000000000051
  0
LINE
  5
7325
  8
0
  6
CONTINUOUS
 62
     3
 10
150.0
 20
0.0000000000000398
 30
-0.0000000000000284
 11
150.0
 21
1.0000000000000391
 31
-0.0000000000000284
  0
LINE
  5
7326
  8
0
  6
CONTINUOUS
 62
     3
 10
130.0
 20
0.0000000000000459
 30
-0.0000000000000284
 11
150.0
 21
0.0000000000000398
 31
-0.0000000000000284
  0
LINE
  5
7327
  8
0
  6
CONTINUOUS
 62
     3
 10
150.0
 20
1.0000000000000391
 30
-0.0000000000000284
 11
130.0
 21
1.0000000000000451
 31
-0.0000000000000284
  0
LINE
  5
7328
  8
0
  6
CONTINUOUS
 62
     3
 10
130.0
 20
0.0000000000000459
 30
-0.0000000000000284
 11
-130.0
 21
0.0000000000000459
 31
0.0000000000000293
  0
LINE
  5
7329
  8
0
  6
CONTINUOUS
 62
     3
 10
-130.0
 20
1.0000000000000451
 30
0.0000000000000284
 11
130.0
 21
1.0000000000000451
 31
-0.0000000000000293
  0
LINE
  5
732A
  8
0
  6
CONTINUOUS
 62
     3
 10
-150.0
 20
0.0000000000000398
 30
0.0000000000000284
 11
-130.0
 21
0.0000000000000459
 31
0.0000000000000284
  0
LINE
  5
732B
  8
0
  6
CONTINUOUS
 62
     3
 10
-130.0
 20
1.0000000000000451
 30
0.0000000000000284
 11
-150.0
 21
1.0000000000000391
 31
0.0000000000000284
  0
LINE
  5
732C
  8
0
  6
CONTINUOUS
 62
     3
 10
-150.0
 20
0.0000000000000398
 30
0.0000000000000284
 11
-150.0
 21
1.0000000000000391
 31
0.0000000000000284
  0
ARC
  5
732D
  8
0
  6
CONTINUOUS
 62
     3
 10
28.0
 20
4.0000000000000053
 30
-0.0000000000000062
 40
2.9999999999999969
 50
191.9999999999998863
 51
270.0
  0
ARC
  5
732E
  8
0
  6
CONTINUOUS
 62
     3
 10
-28.0000000000000107
 20
4.0000000000000053
 30
0.0000000000000062
 40
2.9999999999999991
 50
270.0
 51
348.0
  0
LINE
  5
732F
  8
0
  6
CONTINUOUS
 62
     3
 10
24.6497338161630708
 20
5.3325601290143378
 30
-0.0000000000000055
 11
25.0655571977985794
 21
3.3762649275467291
 31
-0.0000000000000056
  0
LINE
  5
7330
  8
0
  6
CONTINUOUS
 62
     3
 10
-24.6497338161630708
 20
5.3325601290143378
 30
0.0000000000000055
 11
-25.0655571977985794
 21
3.3762649275467291
 31
0.0000000000000056
  0
ARC
  5
7331
  8
0
  6
CONTINUOUS
 62
     3
 10
19.996266286839731
 20
4.343435071138285
 30
-0.0000000000000044
 40
4.7574287621135083
 50
11.9999999999998899
 51
50.228433557984502
  0
ARC
  5
7332
  8
0
  6
CONTINUOUS
 62
     3
 10
-19.996266286839731
 20
4.3434350711382823
 30
0.0000000000000044
 40
4.7574287621135101
 50
129.7715664420153985
 51
168.0
  0
LINE
  5
7333
  8
0
  6
CONTINUOUS
 62
     3
 10
-23.8999999999999702
 20
86.7516660498397414
 30
0.0000000000000053
 11
23.9000000000000483
 21
86.7516660498397414
 31
-0.0000000000000053
  0
LINE
  5
7334
  8
0
  6
CONTINUOUS
 62
     3
 10
-23.8999999999999311
 20
87.1000000000002643
 30
0.0000000000000053
 11
23.9000000000000483
 21
87.1000000000002643
 31
-0.0000000000000053
  0
LINE
  5
7335
  8
0
  6
CONTINUOUS
 62
     3
 10
-25.1999999999999496
 20
84.500000000000199
 30
0.0000000000000056
 11
25.2000000000000597
 21
84.500000000000199
 31
-0.0000000000000056
  0
LINE
  5
7336
  8
0
  6
CONTINUOUS
 62
     3
 10
-19.9999999999999609
 20
82.5000000000001847
 30
0.0000000000000044
 11
20.0000000000000107
 21
82.5000000000001847
 31
-0.0000000000000044
  0
LINE
  5
7337
  8
0
  6
CONTINUOUS
 62
     3
 10
-22.8245735194570507
 20
98.0000000000001847
 30
0.0000000000000051
 11
22.8245735194571004
 21
98.0000000000001847
 31
-0.0000000000000051
  0
LINE
  5
7338
  8
0
  6
CONTINUOUS
 62
     3
 10
-25.9999999999999609
 20
93.500000000000199
 30
0.0000000000000058
 11
26.0000000000000391
 21
93.500000000000199
 31
-0.0000000000000058
  0
LINE
  5
7339
  8
0
  6
CONTINUOUS
 62
     3
 10
-23.8999999999999702
 20
90.2823870905589274
 30
0.0000000000000053
 11
23.9000000000000483
 21
90.2823870905589274
 31
-0.0000000000000053
  0
LINE
  5
733A
  8
0
  6
CONTINUOUS
 62
     3
 10
-23.8999999999999702
 20
89.9000000000001762
 30
0.0000000000000053
 11
23.9000000000000483
 21
89.9000000000001762
 31
-0.0000000000000053
  0
LINE
  5
733B
  8
0
  6
CONTINUOUS
 62
     3
 10
-24.7999999999999687
 20
89.0000000000001847
 30
0.0000000000000055
 11
24.8000000000000504
 21
89.0000000000001847
 31
-0.0000000000000055
  0
LINE
  5
733C
  8
0
  6
CONTINUOUS
 62
     3
 10
-24.7999999999999687
 20
88.000000000000199
 30
0.0000000000000055
 11
24.8000000000000291
 21
88.000000000000199
 31
-0.0000000000000055
  0
LINE
  5
733D
  8
0
  6
CONTINUOUS
 62
     3
 10
23.9000000000000483
 20
87.1000000000002643
 30
-0.0000000000000053
 11
23.9000000000000483
 21
86.7516660498397414
 31
-0.0000000000000053
  0
LINE
  5
733E
  8
0
  6
CONTINUOUS
 62
     3
 10
-23.8999999999999702
 20
87.1000000000002643
 30
0.0000000000000053
 11
-23.8999999999999702
 21
86.7516660498397414
 31
0.0000000000000053
  0
LINE
  5
733F
  8
0
  6
CONTINUOUS
 62
     3
 10
23.9000000000000483
 20
86.7516660498397414
 30
-0.0000000000000053
 11
25.200000000000049
 21
84.500000000000199
 31
-0.0000000000000056
  0
LINE
  5
7340
  8
0
  6
CONTINUOUS
 62
     3
 10
-23.8999999999999702
 20
86.7516660498397414
 30
0.0000000000000053
 11
-25.1999999999999602
 21
84.500000000000199
 31
0.0000000000000056
  0
ARC
  5
7341
  8
0
  6
CONTINUOUS
 62
     3
 10
-19.9999999999998508
 20
85.5000000000000853
 30
0.0000000000000044
 40
2.9999999999999138
 50
199.4712206344910044
 51
270.0
  0
ARC
  5
7342
  8
0
  6
CONTINUOUS
 62
     3
 10
19.9999999999999289
 20
85.5000000000000853
 30
-0.0000000000000044
 40
2.9999999999999112
 50
270.0000000000017053
 51
340.5287793655106725
  0
ARC
  5
7343
  8
0
  6
CONTINUOUS
 62
     3
 10
-22.8245735194570685
 20
97.0000000000002416
 30
0.0000000000000051
 40
0.9999999999999326
 50
89.9999999999979678
 51
150.0000000000025011
  0
ARC
  5
7344
  8
0
  6
CONTINUOUS
 62
     3
 10
22.8245735194571502
 20
97.0000000000002416
 30
-0.0000000000000051
 40
0.999999999999943
 50
29.9999999999981313
 51
90.0000000000018332
  0
LINE
  5
7345
  8
0
  6
CONTINUOUS
 62
     3
 10
23.6905989232415486
 20
97.5000000000001563
 30
-0.0000000000000053
 11
26.0000000000000391
 21
93.500000000000199
 31
-0.0000000000000058
  0
LINE
  5
7346
  8
0
  6
CONTINUOUS
 62
     3
 10
-23.6905989232414704
 20
97.5000000000001563
 30
0.0000000000000053
 11
-25.9999999999999503
 21
93.500000000000199
 31
0.0000000000000058
  0
ARC
  5
7347
  8
0
  6
CONTINUOUS
 62
     3
 10
-23.3412804842563091
 20
93.0000000000001421
 30
0.0000000000000052
 40
0.5
 50
338.000000000001819
 51
90.0000000000003979
  0
ARC
  5
7348
  8
0
  6
CONTINUOUS
 62
     3
 10
23.3412804842564015
 20
93.0000000000001421
 30
-0.0000000000000052
 40
0.4999999999999921
 50
89.9999999999995879
 51
201.9999999999980957
  0
LINE
  5
7349
  8
0
  6
CONTINUOUS
 62
     3
 10
22.8776885569730091
 20
92.8126967032922039
 30
-0.0000000000000051
 11
23.9000000000000483
 21
90.2823870905589274
 31
-0.0000000000000053
  0
LINE
  5
734A
  8
0
  6
CONTINUOUS
 62
     3
 10
-22.8776885569729203
 20
92.8126967032922039
 30
0.0000000000000051
 11
-23.8999999999999702
 21
90.2823870905589274
 31
0.0000000000000053
  0
LINE
  5
734B
  8
0
  6
CONTINUOUS
 62
     3
 10
23.9000000000000483
 20
90.2823870905589274
 30
-0.0000000000000053
 11
23.9000000000000483
 21
89.9000000000001762
 31
-0.0000000000000053
  0
LINE
  5
734C
  8
0
  6
CONTINUOUS
 62
     3
 10
-23.8999999999999702
 20
90.2823870905589274
 30
0.0000000000000053
 11
-23.8999999999999702
 21
89.9000000000001762
 31
0.0000000000000053
  0
LINE
  5
734D
  8
0
  6
CONTINUOUS
 62
     3
 10
23.9000000000000483
 20
89.9000000000001762
 30
-0.0000000000000053
 11
24.8000000000000611
 21
89.0000000000001847
 31
-0.0000000000000055
  0
LINE
  5
734E
  8
0
  6
CONTINUOUS
 62
     3
 10
-23.8999999999999702
 20
89.9000000000001762
 30
0.0000000000000053
 11
-24.7999999999999687
 21
89.0000000000001847
 31
0.0000000000000055
  0
LINE
  5
734F
  8
0
  6
CONTINUOUS
 62
     3
 10
24.8000000000000611
 20
89.0000000000001847
 30
-0.0000000000000055
 11
24.8000000000000611
 21
88.000000000000199
 31
-0.0000000000000055
  0
LINE
  5
7350
  8
0
  6
CONTINUOUS
 62
     3
 10
-24.7999999999999687
 20
89.0000000000001847
 30
0.0000000000000055
 11
-24.7999999999999687
 21
88.000000000000199
 31
0.0000000000000055
  0
LINE
  5
7351
  8
0
  6
CONTINUOUS
 62
     3
 10
-23.8999999999999488
 20
87.1000000000002643
 30
0.0000000000000053
 11
-24.799999999999951
 21
88.000000000000199
 31
0.0000000000000055
  0
LINE
  5
7352
  8
0
  6
CONTINUOUS
 62
     3
 10
23.9000000000000412
 20
87.1000000000002643
 30
-0.0000000000000053
 11
24.8000000000000398
 21
88.000000000000199
 31
-0.0000000000000055
  0
LINE
  5
7353
  8
0
  6
VERDECKT
 62
     1
 10
22.3999999999999986
 20
7.2313989106928362
 30
-0.000000000000005
 11
-0.0000000000000036
 21
7.2313989106928362
 31
0.0
  0
LINE
  5
7354
  8
0
  6
VERDECKT
 62
     1
 10
-0.0000000000000103
 20
7.2313989106928362
 30
0.0
 11
-22.3999999999999986
 21
7.2313989106928354
 31
0.000000000000005
  0
LINE
  5
7355
  8
0
  6
VERDECKT
 62
     1
 10
23.6715862154292616
 20
5.1246484381965756
 30
-0.0000000000000053
 11
24.0874095970647915
 21
3.1683532367289691
 31
-0.0000000000000053
  0
LINE
  5
7356
  8
0
  6
VERDECKT
 62
     1
 10
-23.6715862154292616
 20
5.1246484381965756
 30
0.0000000000000053
 11
-24.0874095970647915
 21
3.1683532367289691
 31
0.0000000000000053
  0
ARC
  5
7357
  8
0
  6
VERDECKT
 62
     1
 10
28.0000000000000107
 20
4.0000000000000124
 30
-0.0000000000000062
 40
4.0000000000000044
 50
192.0
 51
270.0
  0
ARC
  5
7358
  8
0
  6
VERDECKT
 62
     1
 10
-28.0
 20
4.0000000000000053
 30
0.0000000000000062
 40
3.999999999999996
 50
269.9999999999998863
 51
348.0
  0
LINE
  5
7359
  8
0
  6
VERDECKT
 62
     1
 10
-22.3999999999999986
 20
7.2313989106928371
 30
0.000000000000005
 11
-23.0397283529091297
 21
8.0000000000000089
 31
0.0000000000000051
  0
LINE
  5
735A
  8
0
  6
VERDECKT
 62
     1
 10
22.3999999999999986
 20
7.2313989106928371
 30
-0.000000000000005
 11
23.0397283529091297
 21
8.0000000000000089
 31
-0.0000000000000051
  0
ARC
  5
735B
  8
0
  6
VERDECKT
 62
     1
 10
19.9962662868397096
 20
4.3434350711382761
 30
-0.0000000000000044
 40
3.7574287621135309
 50
11.9999999999999591
 51
50.2284335579844168
  0
ARC
  5
735C
  8
0
  6
VERDECKT
 62
     1
 10
-19.9962662868397203
 20
4.343435071138277
 30
0.0000000000000044
 40
3.7574287621135269
 50
129.7715664420155122
 51
168.0000000000001137
  0
LINE
  5
735D
  8
0
  6
VERDECKT
 62
     1
 10
127.0
 20
0.0000000000000398
 30
-0.0000000000000284
 11
127.0
 21
1.0000000000000391
 31
-0.0000000000000284
  0
LINE
  5
735E
  8
0
  6
VERDECKT
 62
     1
 10
133.0
 20
0.0000000000000398
 30
-0.0000000000000284
 11
133.0
 21
1.0000000000000391
 31
-0.0000000000000284
  0
LINE
  5
735F
  8
0
  6
VERDECKT
 62
     1
 10
-133.0
 20
0.0000000000000398
 30
0.0000000000000284
 11
-133.0
 21
1.0000000000000391
 31
0.0000000000000284
  0
LINE
  5
7360
  8
0
  6
VERDECKT
 62
     1
 10
-127.0
 20
0.0000000000000398
 30
0.0000000000000284
 11
-127.0
 21
1.0000000000000391
 31
0.0000000000000284
  0
LINE
  5
7361
  8
0
  6
VERDECKT
 62
     1
 10
-23.4226497308103596
 20
85.5000000000001563
 30
0.0000000000000052
 11
23.42264973081042
 21
85.5000000000001563
 31
-0.0000000000000052
  0
LINE
  5
7362
  8
0
  6
VERDECKT
 62
     1
 10
-18.2499999999999503
 20
83.5104348142248227
 30
0.0000000000000041
 11
18.2500000000000391
 21
83.5104348142248227
 31
-0.0000000000000041
  0
LINE
  5
7363
  8
0
  6
VERDECKT
 62
     1
 10
-20.9999999999999609
 20
92.5000000000001705
 30
0.0000000000000047
 11
21.0000000000000711
 21
92.5000000000001705
 31
-0.0000000000000047
  0
LINE
  5
7364
  8
0
  6
VERDECKT
 62
     1
 10
23.4226497308104307
 20
85.5000000000001563
 30
-0.0000000000000052
 11
24.0000000000000391
 21
84.500000000000199
 31
-0.0000000000000053
  0
LINE
  5
7365
  8
0
  6
VERDECKT
 62
     1
 10
-23.422649730810349
 20
85.5000000000001563
 30
0.0000000000000052
 11
-23.9999999999999609
 21
84.500000000000199
 31
0.0000000000000053
  0
ARC
  5
7366
  8
0
  6
VERDECKT
 62
     1
 10
-19.9999999999998117
 20
85.5000000000000853
 30
0.0000000000000044
 40
2.9999999999999449
 50
179.9999999999986073
 51
199.4712206344889864
  0
ARC
  5
7367
  8
0
  6
VERDECKT
 62
     1
 10
19.9999999999999005
 20
85.5000000000000853
 30
-0.0000000000000044
 40
2.9999999999999432
 50
340.5287793655110136
 51
0.000000000001374
  0
LINE
  5
7368
  8
0
  6
VERDECKT
 62
     1
 10
18.2500000000000391
 20
83.5104348142248227
 30
-0.0000000000000041
 11
18.2500000000000391
 21
82.5000000000001705
 31
-0.0000000000000041
  0
LINE
  5
7369
  8
0
  6
VERDECKT
 62
     1
 10
-18.2499999999999503
 20
83.5104348142248227
 30
0.0000000000000041
 11
-18.2499999999999503
 21
82.5000000000001705
 31
0.0000000000000041
  0
ARC
  5
736A
  8
0
  6
VERDECKT
 62
     1
 10
-17.9999999999999787
 20
86.5000000000001847
 30
0.000000000000004
 40
2.999999999999996
 50
180.0
 51
265.2198081528011926
  0
ARC
  5
736B
  8
0
  6
VERDECKT
 62
     1
 10
18.0000000000000604
 20
86.5000000000001847
 30
-0.000000000000004
 40
2.9999999999999889
 50
274.7801918471988074
 51
0.0
  0
LINE
  5
736C
  8
0
  6
VERDECKT
 62
     1
 10
21.0000000000000604
 20
92.5000000000001705
 30
-0.0000000000000047
 11
21.0000000000000604
 21
86.5000000000001847
 31
-0.0000000000000047
  0
LINE
  5
736D
  8
0
  6
VERDECKT
 62
     1
 10
-20.9999999999999716
 20
92.5000000000001705
 30
0.0000000000000047
 11
-20.9999999999999716
 21
86.5000000000001847
 31
0.0000000000000047
  0
LINE
  5
736E
  8
0
  6
VERDECKT
 62
     1
 10
-20.9999999999999716
 20
92.5000000000001705
 30
0.0000000000000047
 11
-21.9697983938965002
 21
98.0000000000001847
 31
0.0000000000000049
  0
LINE
  5
736F
  8
0
  6
VERDECKT
 62
     1
 10
21.0000000000000604
 20
92.5000000000001705
 30
-0.0000000000000047
 11
21.9697983938965784
 21
98.0000000000001847
 31
-0.0000000000000049
  0
ENDBLK
  5
7371
  8
0
  0
ENDSEC
  0
SECTION
  2
ENTITIES
  0
TEXT
  5
3D7
  8
VOLL
 10
78.076754716981128
 20
31.025947764705851
 30
0.0
 40
1.8
  1

  7
GREEKS
  0
INSERT
  5
AD0
  8
ADSK_ASSOC_ENTITY_BACKUPS
  2
*S0
 10
0.0
 20
0.0
 30
0.0
  0
INSERT
  5
72C3
  8
STEMPEL
  2
A$C68CE56FE
 10
0.0
 20
0.0
 30
0.0
  0
INSERT
  5
7320
  8
STEMPEL
  2
A$C3B6FB195
 10
-200.0
 20
0.0
 30
0.0
  0
INSERT
  5
7372
  8
STEMPEL
  2
A$CDA9CAFD7
 10
0.0
 20
200.0
 30
-0.0000000000000333
  0
VIEWPORT
  5
AAD
 67
     1
  8
0
 10
205.7323176011738042
 20
145.4885700874285988
 30
0.0
 40
558.8319832755776133
 41
298.5191815856778135
 68
     1
 69
     1
1001
ACAD
1000
MVIEW
1002
{
1070
    16
1010
0.0
1020
0.0
1030
0.0
1010
0.0
1020
0.0
1030
1.0
1040
0.0
1040
298.5191815856778135
1040
205.7323176011738042
1040
145.4885700874285988
1040
50.0
1040
0.0
1040
0.0
1070
     0
1070
  1500
1070
     1
1070
     1
1070
     0
1070
     0
1070
     0
1070
     0
1040
0.0
1040
0.0
1040
0.0
1040
10.0
1040
10.0
1040
10.0
1040
10.0
1070
     0
1002
{
1002
}
1002
}
  0
TEXT
  5
CB0
 67
     1
  8
VOLL
 10
625.5592565604117681
 20
227.4217200880700887
 30
0.0
 40
3.6000000000000001
  1

  7
GREEKS
  0
INSERT
  5
548D
 67
     1
  8
BEM
 62
     2
  2
_NONE
 10
23.4398745320330413
 20
119.8769473413416051
 30
0.0
 41
3.0
 42
3.0
 43
3.0
 50
45.0
  0
ENDSEC
  0
EOF
