  0
SECTION
  2
HEADER
  9
$ACADVER
  1
AC1009
  9
$INSBASE
 10
0.0
 20
0.0
 30
0.0
  9
$EXTMIN
 10
-0.0000000000000284
 20
-405.0
 30
-0.0000000000000355
  9
$EXTMAX
 10
755.0
 20
160.0000000000001137
 30
0.0000000000000858
  9
$LIMMIN
 10
0.0
 20
0.0
  9
$LIMMAX
 10
594.0
 20
840.0
  9
$ORTHOMODE
 70
     1
  9
$REGENMODE
 70
     1
  9
$FILLMODE
 70
     1
  9
$QTEXTMODE
 70
     0
  9
$MIRRTEXT
 70
     1
  9
$DRAGMODE
 70
     2
  9
$LTSCALE
 40
10.0
  9
$OSMODE
 70
   511
  9
$ATTMODE
 70
     1
  9
$TEXTSIZE
 40
3.5
  9
$TRACEWID
 40
1.0
  9
$TEXTSTYLE
  7
STANDARD
  9
$CLAYER
  8
STEMPEL
  9
$CELTYPE
  6
BYLAYER
  9
$CECOLOR
 62
   256
  9
$DIMSCALE
 40
1.0
  9
$DIMASZ
 40
3.5
  9
$DIMEXO
 40
1.0
  9
$DIMDLI
 40
0.38
  9
$DIMRND
 40
0.0
  9
$DIMDLE
 40
0.0
  9
$DIMEXE
 40
1.0
  9
$DIMTP
 40
0.0
  9
$DIMTM
 40
0.000000001
  9
$DIMTXT
 40
3.5
  9
$DIMCEN
 40
0.09
  9
$DIMTSZ
 40
0.0
  9
$DIMTOL
 70
     0
  9
$DIMLIM
 70
     0
  9
$DIMTIH
 70
     0
  9
$DIMTOH
 70
     0
  9
$DIMSE1
 70
     0
  9
$DIMSE2
 70
     0
  9
$DIMTAD
 70
     1
  9
$DIMZIN
 70
     8
  9
$DIMBLK
  1

  9
$DIMASO
 70
     1
  9
$DIMSHO
 70
     0
  9
$DIMPOST
  1

  9
$DIMAPOST
  1

  9
$DIMALT
 70
     0
  9
$DIMALTD
 70
     2
  9
$DIMALTF
 40
25.3999999999999986
  9
$DIMLFAC
 40
2.0
  9
$DIMTOFL
 70
     1
  9
$DIMTVP
 40
0.0
  9
$DIMTIX
 70
     0
  9
$DIMSOXD
 70
     0
  9
$DIMSAH
 70
     0
  9
$DIMBLK1
  1

  9
$DIMBLK2
  1

  9
$DIMSTYLE
  2
LORO
  9
$DIMCLRD
 70
     0
  9
$DIMCLRE
 70
     0
  9
$DIMCLRT
 70
     1
  9
$DIMTFAC
 40
0.5
  9
$DIMGAP
 40
1.5
  9
$LUNITS
 70
     2
  9
$LUPREC
 70
     2
  9
$SKETCHINC
 40
1.0
  9
$FILLETRAD
 40
3.0
  9
$AUNITS
 70
     0
  9
$AUPREC
 70
     0
  9
$MENU
  1
ACAD
  9
$ELEVATION
 40
0.0
  9
$PELEVATION
 40
0.0
  9
$THICKNESS
 40
0.0
  9
$LIMCHECK
 70
     0
  9
$BLIPMODE
 70
     0
  9
$CHAMFERA
 40
0.0
  9
$CHAMFERB
 40
0.0
  9
$SKPOLY
 70
     0
  9
$TDCREATE
 40
2455397.867048610933125
  9
$TDUPDATE
 40
2460728.570833332836628
  9
$TDINDWG
 40
3.2598673843000001
  9
$TDUSRTIMER
 40
3.2598673843000001
  9
$USRTIMER
 70
     1
  9
$ANGBASE
 50
0.0
  9
$ANGDIR
 70
     0
  9
$PDMODE
 70
     0
  9
$PDSIZE
 40
0.0
  9
$PLINEWID
 40
0.0
  9
$COORDS
 70
     1
  9
$SPLFRAME
 70
     0
  9
$SPLINETYPE
 70
     6
  9
$SPLINESEGS
 70
     8
  9
$ATTDIA
 70
     1
  9
$ATTREQ
 70
     1
  9
$HANDLING
 70
     1
  9
$HANDSEED
  5
31FDB
  9
$SURFTAB1
 70
     6
  9
$SURFTAB2
 70
     6
  9
$SURFTYPE
 70
     6
  9
$SURFU
 70
     6
  9
$SURFV
 70
     6
  9
$UCSNAME
  2

  9
$UCSORG
 10
0.0
 20
0.0
 30
0.0
  9
$UCSXDIR
 10
1.0
 20
0.0
 30
0.0
  9
$UCSYDIR
 10
0.0
 20
1.0
 30
0.0
  9
$PUCSNAME
  2

  9
$PUCSORG
 10
0.0
 20
0.0
 30
0.0
  9
$PUCSXDIR
 10
1.0
 20
0.0
 30
0.0
  9
$PUCSYDIR
 10
0.0
 20
1.0
 30
0.0
  9
$USERI1
 70
     0
  9
$USERI2
 70
     0
  9
$USERI3
 70
     0
  9
$USERI4
 70
     0
  9
$USERI5
 70
     0
  9
$USERR1
 40
0.0
  9
$USERR2
 40
0.0
  9
$USERR3
 40
0.0
  9
$USERR4
 40
0.0
  9
$USERR5
 40
0.0
  9
$WORLDVIEW
 70
     1
  9
$SHADEDGE
 70
     3
  9
$SHADEDIF
 70
    70
  9
$TILEMODE
 70
     1
  9
$MAXACTVP
 70
    16
  9
$PLIMCHECK
 70
     0
  9
$PEXTMIN
 10
0.0
 20
-0.0000000000001137
 30
-0.0000000000004547
  9
$PEXTMAX
 10
593.5
 20
419.5
 30
0.0000000000000932
  9
$PLIMMIN
 10
-0.249998425477429
 20
-0.2499991561024899
  9
$PLIMMAX
 10
593.7500015745224573
 20
419.7500008438975101
  9
$UNITMODE
 70
     0
  9
$VISRETAIN
 70
     0
  9
$PLINEGEN
 70
     0
  9
$PSLTSCALE
 70
     0
  0
ENDSEC
  0
SECTION
  2
TABLES
  0
TABLE
  2
VPORT
 70
     1
  0
VPORT
  2
*ACTIVE
 70
     0
 10
0.0
 20
0.0
 11
1.0
 21
1.0
 12
270.0
 22
-124.9999999999999005
 13
0.0
 23
0.0
 14
1.0
 24
1.0
 15
10.0
 25
10.0
 16
0.0000000000003837
 26
0.0
 36
1699.1245301782580555
 17
107.5
 27
2.5
 37
0.0000000000000251
 40
567.9123711340206455
 41
1.8847807394668961
 42
50.0
 43
0.0
 44
0.0
 50
0.0
 51
0.0
 71
     0
 72
  1500
 73
     1
 74
     0
 75
     0
 76
     0
 77
     0
 78
     0
  0
ENDTAB
  0
TABLE
  2
LTYPE
 70
     3
  0
LTYPE
  2
CONTINUOUS
 70
     0
  3
Solid line
 72
    65
 73
     0
 40
0.0
  0
LTYPE
  2
STRICHPUNKT
 70
     0
  3
__ . __ . __ . __ . __ . __ . __ . __ . __ . __
 72
    65
 73
     4
 40
1.0
 49
0.5
 49
-0.25
 49
0.0
 49
-0.25
  0
LTYPE
  2
VERDECKT
 70
     0
  3
Verdeckt __ __ __ __ __ __ __ __ __ __ __ __ __
 72
    65
 73
     2
 40
0.375
 49
0.25
 49
-0.125
  0
ENDTAB
  0
TABLE
  2
LAYER
 70
     6
  0
LAYER
  2
0
 70
     0
 62
     7
  6
CONTINUOUS
  0
LAYER
  2
STEMPEL
 70
     0
 62
     3
  6
CONTINUOUS
  0
LAYER
  2
ADSK_ASSOC_ENTITY_BACKUPS
 70
     1
 62
    -7
  6
CONTINUOUS
  0
ENDTAB
  0
TABLE
  2
STYLE
 70
     2
  0
STYLE
  2
STANDARD
 70
     0
 40
0.0
 41
0.8
 50
0.0
 71
     0
 42
3.5
  3
simplex.shx
  4

  0
ENDTAB
  0
TABLE
  2
VIEW
 70
     0
  0
ENDTAB
  0
TABLE
  2
UCS
 70
     0
  0
ENDTAB
  0
TABLE
  2
APPID
 70
    32
  0
APPID
  2
ACAD
 70
     0
  0
APPID
  2
ACAECLAYERSTANDARD
 70
     0
  0
APPID
  2
ACCMTRANSPARENCY
 70
     0
  0
APPID
  2
ACAD_NAV_VCDISPLAY
 70
     0
  0
APPID
  2
ACAD_PSEXT
 70
     0
  0
APPID
  2
ACAD_STEPID
 70
     0
  0
APPID
  2
ACAD_EXEMPT_FROM_CAD_STANDARDS
 70
     0
  0
APPID
  2
ACSYNERGY
 70
     0
  0
APPID
  2
SYNERGY_BODY_TBR_ID
 70
     0
  0
APPID
  2
ACAD_VIEW_EDGE_ID
 70
     0
  0
APPID
  2
GRADIENTCOLOR1ACI
 70
     0
  0
APPID
  2
GRADIENTCOLOR2ACI
 70
     0
  0
APPID
  2
ACAD_DSTYLE_DIMRADIAL_EXTENSION
 70
     0
  0
APPID
  2
ACADANNOMONITORALERTICONDI
 70
     0
  0
APPID
  2
ACAD_MLEADERVER
 70
     0
  0
APPID
  2
ACSYNERGYSKETCH
 70
     0
  0
APPID
  2
ACAD_MODELDOC_XFORM
 70
     0
  0
APPID
  2
ACDBDYNAMICBLOCKGUID
 70
     0
  0
APPID
  2
ACAD_DSTYLE_DIMJAG
 70
     0
  0
APPID
  2
ACAD_DSTYLE_DIMBREAK
 70
     0
  0
APPID
  2
ACAD_DSTYLE_DIMTALN
 70
     0
  0
APPID
  2
ACADANNOPO
 70
     0
  0
APPID
  2
PLOTTRANSPARENCY
 70
     0
  0
APPID
  2
ACADANNOTATIVE
 70
     0
  0
APPID
  2
ACAD_DIMASSOC_CALC_DIMLFAC
 70
     0
  0
APPID
  2
ACAD_DIMASSOC_DIMLFAC
 70
     0
  0
APPID
  2
ACAD_DIMASSOC_OVERRIDDEN_D
 70
     0
  0
APPID
  2
ACADANNOAV
 70
     0
  0
APPID
  2
ACAUTHENVIRON
 70
     0
  0
APPID
  2
ACDBDYNAMICBLOCKTRUENAME
 70
     0
  0
APPID
  2
SYNERGY_EXCLUDED_FROM_SNAPSHOT
 70
     0
  0
APPID
  2
ACAD_ASSOCPERSSUBENTMANAGER
 70
     0
  0
ENDTAB
  0
TABLE
  2
DIMSTYLE
 70
     1
  0
DIMSTYLE
  2
LORO
 70
     0
  3

  4

  5

  6

  7

 40
1.0
 41
3.5
 42
1.0
 43
0.38
 44
1.0
 45
0.0
 46
0.0
 47
0.0
 48
0.000000001
140
3.5
141
0.09
142
0.0
143
25.3999999999999986
144
2.0
145
0.0
146
0.5
147
1.5
 71
     0
 72
     0
 73
     0
 74
     0
 75
     0
 76
     0
 77
     1
 78
     8
170
     0
171
     2
172
     1
173
     0
174
     0
175
     0
176
     0
177
     0
178
     1
  0
ENDTAB
  0
ENDSEC
  0
SECTION
  2
BLOCKS
  0
BLOCK
  8
0
  2
$MODEL_SPACE
 70
     0
 10
0.0
 20
0.0
 30
0.0
  3
$MODEL_SPACE
  1

  0
ENDBLK
  5
38
  8
0
  0
BLOCK
 67
     1
  8
0
  2
$PAPER_SPACE
 70
     0
 10
0.0
 20
0.0
 30
0.0
  3
$PAPER_SPACE
  1

  0
ENDBLK
  5
36
 67
     1
  8
0
  0
BLOCK
  8
0
  2
*S0
 70
     1
 10
0.0
 20
0.0
 30
0.0
  3
*S0
  1

  0
ENDBLK
  5
7128
  8
0
  0
BLOCK
  8
0
  2
A$C27AB6F77
 70
     0
 10
0.0
 20
0.0
 30
0.0
  3
A$C27AB6F77
  1

  0
LINE
  5
31F19
  8
0
  6
CONTINUOUS
 62
     3
 10
-0.0000000000000284
 20
160.0
 30
-0.0000000000000355
 11
370.0
 21
160.0
 31
-0.0000000000000355
210
0.0
220
1.0
230
-0.0000000000000002
  0
LINE
  5
31F1A
  8
0
  6
CONTINUOUS
 62
     3
 10
-0.0000000000000284
 20
0.0
 30
0.0
 11
-0.0000000000000284
 21
160.0
 31
-0.0000000000000355
210
0.0
220
1.0
230
-0.0000000000000002
  0
LINE
  5
31F1B
  8
0
  6
CONTINUOUS
 62
     3
 10
370.0
 20
0.0
 30
0.0
 11
370.0
 21
160.0
 31
-0.0000000000000355
210
0.0
220
1.0
230
-0.0000000000000002
  0
LINE
  5
31F1C
  8
0
  6
CONTINUOUS
 62
     3
 10
-0.0000000000000284
 20
0.0
 30
0.0
 11
370.0
 21
0.0
 31
0.0
210
0.0
220
1.0
230
-0.0000000000000002
  0
LINE
  5
31F1D
  8
0
  6
VERDECKT
 62
     1
 10
15.0
 20
33.0
 30
-0.0000000000000073
 11
14.9999999999999893
 21
85.4999999999999858
 31
-0.000000000000019
210
0.0
220
1.0
230
-0.0000000000000002
  0
LINE
  5
31F1E
  8
0
  6
VERDECKT
 62
     1
 10
15.0
 20
160.0
 30
-0.0000000000000355
 11
15.0
 21
85.4999999999999858
 31
-0.000000000000019
210
0.0
220
1.0
230
-0.0000000000000002
  0
LINE
  5
31F1F
  8
0
  6
VERDECKT
 62
     1
 10
30.0
 20
53.9999999999999716
 30
-0.000000000000012
 11
30.0
 21
91.4999999999999574
 31
-0.0000000000000203
210
0.0
220
1.0
230
-0.0000000000000002
  0
LINE
  5
31F20
  8
0
  6
VERDECKT
 62
     1
 10
30.0
 20
160.0
 30
-0.0000000000000355
 11
30.0
 21
91.4999999999999574
 31
-0.0000000000000203
210
0.0
220
1.0
230
-0.0000000000000002
  0
LINE
  5
31F21
  8
0
  6
VERDECKT
 62
     1
 10
45.0
 20
160.0
 30
-0.0000000000000355
 11
45.0
 21
106.5
 31
-0.0000000000000236
210
0.0
220
1.0
230
-0.0000000000000002
  0
LINE
  5
31F22
  8
0
  6
VERDECKT
 62
     1
 10
45.0
 20
79.0
 30
-0.0000000000000175
 11
44.9999999999999929
 21
106.5
 31
-0.0000000000000236
210
0.0
220
1.0
230
-0.0000000000000002
  0
LINE
  5
31F23
  8
0
  6
VERDECKT
 62
     1
 10
128.0
 20
33.0000000000000284
 30
-0.0000000000000073
 11
180.0
 21
85.0000000000000142
 31
-0.0000000000000189
210
0.0
220
1.0
230
-0.0000000000000002
  0
LINE
  5
31F24
  8
0
  6
VERDECKT
 62
     1
 10
128.0
 20
33.0000000000000284
 30
-0.0000000000000073
 11
59.9999999999999574
 21
33.0000000000000284
 31
-0.0000000000000073
210
0.0
220
1.0
230
-0.0000000000000002
  0
LINE
  5
31F25
  8
0
  6
VERDECKT
 62
     1
 10
59.9999999999999929
 20
33.0
 30
-0.0000000000000073
 11
59.9999999999999929
 21
85.0000000000000142
 31
-0.0000000000000189
210
0.0
220
1.0
230
-0.0000000000000002
  0
LINE
  5
31F26
  8
0
  6
VERDECKT
 62
     1
 10
285.0
 20
125.0
 30
-0.0000000000000278
 11
285.0
 21
85.0000000000000142
 31
-0.0000000000000189
210
0.0
220
1.0
230
-0.0000000000000002
  0
LINE
  5
31F27
  8
0
  6
VERDECKT
 62
     1
 10
285.0
 20
85.0000000000000142
 30
-0.0000000000000189
 11
60.0
 21
85.0000000000000142
 31
-0.0000000000000189
210
0.0
220
1.0
230
-0.0000000000000002
  0
LINE
  5
31F28
  8
0
  6
VERDECKT
 62
     1
 10
60.0
 20
85.0000000000000142
 30
-0.0000000000000189
 11
60.0
 21
125.0
 31
-0.0000000000000278
210
0.0
220
1.0
230
-0.0000000000000002
  0
LINE
  5
31F29
  8
0
  6
VERDECKT
 62
     1
 10
59.9999999999999716
 20
160.0
 30
-0.0000000000000355
 11
59.9999999999999716
 21
150.0
 31
-0.0000000000000333
210
0.0
220
1.0
230
-0.0000000000000002
  0
LINE
  5
31F2A
  8
0
  6
VERDECKT
 62
     1
 10
59.9999999999999716
 20
150.0
 30
-0.0000000000000333
 11
59.9999999999999716
 21
125.0
 31
-0.0000000000000278
210
0.0
220
1.0
230
-0.0000000000000002
  0
LINE
  5
31F2B
  8
0
  6
VERDECKT
 62
     1
 10
295.0
 20
125.0
 30
-0.0000000000000278
 11
60.0
 21
125.0
 31
-0.0000000000000278
210
0.0
220
1.0
230
-0.0000000000000002
  0
LINE
  5
31F2C
  8
0
  6
VERDECKT
 62
     1
 10
295.0
 20
150.0
 30
-0.0000000000000333
 11
295.0
 21
125.0
 31
-0.0000000000000278
210
0.0
220
1.0
230
-0.0000000000000002
  0
LINE
  5
31F2D
  8
0
  6
VERDECKT
 62
     1
 10
214.9999999999998863
 20
150.0
 30
-0.0000000000000333
 11
59.9999999999999716
 21
150.0
 31
-0.0000000000000333
210
0.0
220
1.0
230
-0.0000000000000002
  0
LINE
  5
31F2E
  8
0
  6
VERDECKT
 62
     1
 10
214.9999999999998863
 20
150.0
 30
-0.0000000000000333
 11
352.5
 21
150.0
 31
-0.0000000000000333
210
0.0
220
1.0
230
-0.0000000000000002
  0
LINE
  5
31F2F
  8
0
  6
VERDECKT
 62
     1
 10
30.0
 20
79.0
 30
-0.0000000000000175
 11
45.0
 21
79.0
 31
-0.0000000000000175
210
0.0
220
1.0
230
-0.0000000000000002
  0
LINE
  5
31F30
  8
0
  6
VERDECKT
 62
     1
 10
15.0
 20
54.0
 30
-0.000000000000012
 11
30.0
 21
54.0
 31
-0.000000000000012
210
0.0
220
1.0
230
-0.0000000000000002
  0
LINE
  5
31F31
  8
0
  6
VERDECKT
 62
     1
 10
0.0
 20
33.0
 30
-0.0000000000000073
 11
15.0
 21
33.0
 31
-0.0000000000000073
210
0.0
220
1.0
230
-0.0000000000000002
  0
LINE
  5
31F32
  8
0
  6
VERDECKT
 62
     1
 10
352.5
 20
160.0
 30
-0.0000000000000355
 11
352.5
 21
150.0
 31
-0.0000000000000333
210
0.0
220
1.0
230
-0.0000000000000002
  0
ENDBLK
  5
31F34
  8
0
  0
BLOCK
  8
0
  2
A$CC718CF47
 70
     0
 10
0.0
 20
0.0
 30
0.0
  3
A$CC718CF47
  1

  0
LINE
  5
31F38
  8
0
  6
CONTINUOUS
 62
     3
 10
15.0000000000000302
 20
-37.4999999999999929
 30
0.0
 11
15.0000000000000302
 21
-52.5
 31
0.0
  0
LINE
  5
31F39
  8
0
  6
CONTINUOUS
 62
     3
 10
15.0000000000000302
 20
37.4999999999999787
 30
0.0
 11
15.0000000000000107
 21
-37.5
 31
0.0
  0
LINE
  5
31F3A
  8
0
  6
CONTINUOUS
 62
     3
 10
15.0000000000000302
 20
52.5000000000000071
 30
0.0
 11
15.0000000000000302
 21
37.5000000000000284
 31
0.0
  0
LINE
  5
31F3B
  8
0
  6
CONTINUOUS
 62
     3
 10
30.0000000000000284
 20
-27.4999999999999503
 30
0.0
 11
30.0000000000000284
 21
-37.4999999999999929
 31
0.0
  0
LINE
  5
31F3C
  8
0
  6
CONTINUOUS
 62
     3
 10
30.0000000000000284
 20
27.4999999999999893
 30
0.0
 11
30.0000000000000213
 21
-27.4999999999999787
 31
0.0
  0
LINE
  5
31F3D
  8
0
  6
CONTINUOUS
 62
     3
 10
30.0000000000000284
 20
37.5000000000000284
 30
0.0
 11
30.0000000000000284
 21
27.5000000000000604
 31
0.0
  0
LINE
  5
31F3E
  8
0
  6
CONTINUOUS
 62
     3
 10
45.0000000000000284
 20
-27.4999999999999289
 30
0.0
 11
30.0000000000000284
 21
-27.4999999999999289
 31
-0.0000000000000035
  0
LINE
  5
31F3F
  8
0
  6
CONTINUOUS
 62
     3
 10
30.0000000000000284
 20
27.5000000000000711
 30
0.0
 11
45.0000000000000284
 21
27.5000000000000604
 31
0.0000000000000035
  0
LINE
  5
31F40
  8
0
  6
CONTINUOUS
 62
     3
 10
45.0000000000000284
 20
27.5000000000000604
 30
0.0
 11
45.0000000000000213
 21
-27.4999999999999289
 31
0.0
  0
LINE
  5
31F41
  8
0
  6
CONTINUOUS
 62
     3
 10
15.0000000000000302
 20
-52.5
 30
0.0
 11
0.0000000000000373
 21
-52.5
 31
-0.0000000000000035
  0
LINE
  5
31F42
  8
0
  6
CONTINUOUS
 62
     3
 10
0.0000000000000371
 20
-52.5
 30
0.0
 11
0.0000000000000183
 21
-155.0
 31
0.0
  0
LINE
  5
31F43
  8
0
  6
CONTINUOUS
 62
     3
 10
0.0000000000000087
 20
-155.0
 30
0.0
 11
370.0
 21
-155.0
 31
0.0000000000000858
  0
LINE
  5
31F44
  8
0
  6
CONTINUOUS
 62
     3
 10
370.0000000000001137
 20
-155.0
 30
0.0000000000000853
 11
370.0000000000001137
 21
155.0
 31
0.0000000000000853
  0
LINE
  5
31F45
  8
0
  6
CONTINUOUS
 62
     3
 10
370.0000000000001137
 20
155.0
 30
0.0000000000000853
 11
0.0000000000000568
 21
155.0
 31
-0.0000000000000005
  0
LINE
  5
31F46
  8
0
  6
CONTINUOUS
 62
     3
 10
0.0000000000000655
 20
155.0
 30
0.0
 11
0.0000000000000467
 21
52.5000000000000071
 31
0.0
  0
LINE
  5
31F47
  8
0
  6
CONTINUOUS
 62
     3
 10
0.0000000000000371
 20
52.5000000000000071
 30
0.0
 11
15.0000000000000302
 21
52.5000000000000213
 31
0.0000000000000035
  0
LINE
  5
31F48
  8
0
  6
CONTINUOUS
 62
     3
 10
15.0000000000000302
 20
37.5000000000000284
 30
0.0
 11
30.0000000000000284
 21
37.5000000000000284
 31
0.0000000000000035
  0
LINE
  5
31F49
  8
0
  6
CONTINUOUS
 62
     3
 10
30.0000000000000284
 20
-37.4999999999999929
 30
0.0
 11
15.0000000000000302
 21
-37.4999999999999929
 31
-0.0000000000000035
  0
LINE
  5
31F4A
  8
0
  6
CONTINUOUS
 62
     3
 10
60.0000000000000213
 20
-137.5
 30
0.0
 11
60.0000000000000284
 21
137.5
 31
0.0
  0
LINE
  5
31F4B
  8
0
  6
CONTINUOUS
 62
     3
 10
60.0000000000000284
 20
137.5
 30
0.0
 11
215.0
 21
137.4999999999998863
 31
0.0000000000000359
  0
ARC
  5
31F4C
  8
0
  6
CONTINUOUS
 62
     3
 10
215.0
 20
-0.0000000000000624
 30
0.0000000000000568
 40
137.5
 50
270.0
 51
90.0
  0
LINE
  5
31F4D
  8
0
  6
CONTINUOUS
 62
     3
 10
215.0
 20
-137.5
 30
0.0000000000000568
 11
60.0
 21
-137.5
 31
0.0000000000000209
  0
LINE
  5
31F4E
  8
0
  6
CONTINUOUS
 62
     3
 10
60.0
 20
52.5000000000000213
 30
0.0000000000000142
 11
180.0
 21
52.5
 31
0.000000000000042
  0
LINE
  5
31F4F
  8
0
  6
CONTINUOUS
 62
     3
 10
180.0
 20
52.5
 30
0.0000000000000426
 11
180.0
 21
-52.5
 31
0.0000000000000426
  0
LINE
  5
31F50
  8
0
  6
CONTINUOUS
 62
     3
 10
128.0
 20
52.5
 30
0.0000000000000284
 11
128.0
 21
-52.5
 31
0.0000000000000284
  0
LINE
  5
31F51
  8
0
  6
CONTINUOUS
 62
     3
 10
180.0
 20
-52.5
 30
0.0000000000000426
 11
60.0
 21
-52.4999999999999787
 31
0.0000000000000148
  0
LINE
  5
31F52
  8
0
  6
CONTINUOUS
 62
     3
 10
285.0000000000001137
 20
-77.5000000000000426
 30
0.0000000000000711
 11
60.0000000000000568
 21
-77.5000000000000142
 31
0.0000000000000189
  0
LINE
  5
31F53
  8
0
  6
CONTINUOUS
 62
     3
 10
60.0000000000000284
 20
77.5000000000000142
 30
0.0000000000000142
 11
285.0
 21
77.5
 31
0.0000000000000664
  0
LINE
  5
31F54
  8
0
  6
CONTINUOUS
 62
     3
 10
285.0000000000001137
 20
77.5
 30
0.0000000000000711
 11
285.0000000000001137
 21
-77.5000000000000284
 31
0.0000000000000711
  0
LINE
  5
31F55
  8
0
  6
CONTINUOUS
 62
     3
 10
0.0000000000000102
 20
-52.4999999999999787
 30
0.0
 11
0.0000000000000295
 21
52.5
 31
0.0
  0
LINE
  5
31F56
  8
0
  6
CONTINUOUS
 62
     3
 10
295.0000000000001137
 20
-92.5000000000000142
 30
0.0000000000000568
 11
60.0000000000000568
 21
-92.5
 31
0.0000000000000024
  0
LINE
  5
31F57
  8
0
  6
CONTINUOUS
 62
     3
 10
295.0000000000001137
 20
92.5000000000000142
 30
0.0000000000000568
 11
295.0
 21
-92.4999999999999858
 31
0.0000000000000568
  0
LINE
  5
31F58
  8
0
  6
CONTINUOUS
 62
     3
 10
60.0000000000000284
 20
92.5
 30
0.0
 11
295.0000000000001137
 21
92.5000000000000142
 31
0.0000000000000545
  0
ENDBLK
  5
31F5A
  8
0
  0
BLOCK
  8
0
  2
A$C666B1594
 70
     0
 10
0.0
 20
0.0
 30
0.0
  3
A$C666B1594
  1

  0
LINE
  5
31F5E
  8
0
  6
CONTINUOUS
 62
     3
 10
37.4999999999999574
 20
160.0
 30
-0.0000000000000355
 11
52.4999999999999787
 21
160.0
 31
-0.0000000000000355
210
-0.0000000000000002
220
1.0
230
-0.0000000000000002
  0
LINE
  5
31F5F
  8
0
  6
CONTINUOUS
 62
     3
 10
37.4999999999999574
 20
91.5000000000000284
 30
-0.0000000000000203
 11
37.4999999999999503
 21
160.0
 31
-0.0000000000000355
210
-0.0000000000000002
220
1.0
230
-0.0000000000000002
  0
ARC
  5
31F60
  8
0
  6
CONTINUOUS
 62
     3
 10
-0.000000000000016
 20
91.5000000000000142
 30
-0.0000000000000203
 40
37.5
 50
180.0000000000001137
 51
0.0000000000001005
  0
LINE
  5
31F61
  8
0
  6
CONTINUOUS
 62
     3
 10
-37.5000000000000711
 20
160.0
 30
-0.0000000000000355
 11
-37.4999999999999787
 21
91.4999999999999432
 31
-0.0000000000000203
210
-0.0000000000000002
220
1.0
230
-0.0000000000000002
  0
LINE
  5
31F62
  8
0
  6
CONTINUOUS
 62
     3
 10
-52.5000000000000711
 20
160.0
 30
-0.0000000000000355
 11
-37.5000000000000711
 21
160.0
 31
-0.0000000000000355
210
-0.0000000000000002
220
1.0
230
-0.0000000000000002
  0
LINE
  5
31F63
  8
0
  6
CONTINUOUS
 62
     3
 10
27.4999999999999183
 20
160.0
 30
-0.0000000000000355
 11
37.4999999999999574
 21
160.0
 31
-0.0000000000000355
210
-0.0000000000000002
220
1.0
230
-0.0000000000000002
  0
LINE
  5
31F64
  8
0
  6
CONTINUOUS
 62
     3
 10
27.4999999999999716
 20
106.5
 30
-0.0000000000000236
 11
27.4999999999999005
 21
160.0
 31
-0.0000000000000355
210
-0.0000000000000002
220
1.0
230
-0.0000000000000002
  0
ARC
  5
31F65
  8
0
  6
CONTINUOUS
 62
     3
 10
-0.0000000000000255
 20
106.5
 30
-0.0000000000000236
 40
27.5
 50
179.9999999999998863
 51
0.0
  0
LINE
  5
31F66
  8
0
  6
CONTINUOUS
 62
     3
 10
-27.5000000000001101
 20
160.0
 30
-0.0000000000000355
 11
-27.5000000000000213
 21
106.5
 31
-0.0000000000000236
210
-0.0000000000000002
220
1.0
230
-0.0000000000000002
  0
LINE
  5
31F67
  8
0
  6
CONTINUOUS
 62
     3
 10
-37.5000000000000711
 20
160.0
 30
-0.0000000000000355
 11
-27.5000000000001101
 21
160.0
 31
-0.0000000000000355
210
-0.0000000000000002
220
1.0
230
-0.0000000000000002
  0
LINE
  5
31F68
  8
0
  6
CONTINUOUS
 62
     3
 10
-27.5000000000001101
 20
160.0
 30
-0.0000000000000355
 11
27.4999999999999112
 21
160.0
 31
-0.0000000000000355
210
-0.0000000000000002
220
1.0
230
-0.0000000000000002
  0
LINE
  5
31F69
  8
0
  6
CONTINUOUS
 62
     3
 10
52.4999999999999716
 20
160.0
 30
-0.0000000000000355
 11
155.0
 21
160.0000000000001137
 31
-0.0000000000000355
210
-0.0000000000000002
220
1.0
230
-0.0000000000000002
  0
LINE
  5
31F6A
  8
0
  6
CONTINUOUS
 62
     3
 10
-155.0
 20
160.0
 30
-0.0000000000000355
 11
-52.5000000000000711
 21
160.0
 31
-0.0000000000000355
210
-0.0000000000000002
220
1.0
230
-0.0000000000000002
  0
LINE
  5
31F6B
  8
0
  6
CONTINUOUS
 62
     3
 10
-52.5000000000000711
 20
85.5
 30
-0.000000000000019
 11
-52.5000000000000711
 21
160.0
 31
-0.0000000000000355
210
-0.0000000000000002
220
1.0
230
-0.0000000000000002
  0
ARC
  5
31F6C
  8
0
  6
CONTINUOUS
 62
     3
 10
0.0000000000000281
 20
85.5000000000000426
 30
0.0
 40
52.5
210
0.0
220
-0.0000000000000002
230
-1.0
 50
180.0
 51
0.0
  0
LINE
  5
31F6D
  8
0
  6
CONTINUOUS
 62
     3
 10
52.4999999999999787
 20
160.0
 30
-0.0000000000000355
 11
52.4999999999999574
 21
85.5000000000000426
 31
-0.000000000000019
210
-0.0000000000000002
220
1.0
230
-0.0000000000000002
  0
LINE
  5
31F6E
  8
0
  6
CONTINUOUS
 62
     3
 10
-155.0
 20
-0.0000000000000344
 30
0.0
 11
-155.0
 21
160.0
 31
-0.0000000000000355
210
-0.0000000000000002
220
1.0
230
-0.0000000000000002
  0
LINE
  5
31F6F
  8
0
  6
CONTINUOUS
 62
     3
 10
-155.0
 20
-0.0000000000000344
 30
0.0
 11
155.0
 21
0.0000000000000344
 31
0.0
210
-0.0000000000000002
220
1.0
230
-0.0000000000000002
  0
LINE
  5
31F70
  8
0
  6
CONTINUOUS
 62
     3
 10
155.0
 20
0.0000000000000344
 30
0.0
 11
155.0
 21
160.0000000000001137
 31
-0.0000000000000355
210
-0.0000000000000002
220
1.0
230
-0.0000000000000002
  0
LINE
  5
31F71
  8
0
  6
VERDECKT
 62
     1
 10
-52.5000000000000711
 20
85.0000000000000284
 30
-0.0000000000000189
 11
-52.5000000000000568
 21
32.9999999999999929
 31
-0.0000000000000073
210
-0.0000000000000002
220
1.0
230
-0.0000000000000002
  0
LINE
  5
31F72
  8
0
  6
VERDECKT
 62
     1
 10
-52.5000000000000284
 20
85.0000000000000284
 30
-0.0000000000000189
 11
52.5
 21
85.0000000000000568
 31
-0.0000000000000189
210
-0.0000000000000002
220
1.0
230
-0.0000000000000002
  0
LINE
  5
31F73
  8
0
  6
VERDECKT
 62
     1
 10
52.4999999999999929
 20
33.0000000000000213
 30
-0.0000000000000073
 11
52.4999999999999716
 21
85.0000000000000568
 31
-0.0000000000000189
210
-0.0000000000000002
220
1.0
230
-0.0000000000000002
  0
LINE
  5
31F74
  8
0
  6
VERDECKT
 62
     1
 10
77.5000000000000142
 20
85.0000000000000568
 30
-0.0000000000000189
 11
77.5
 21
125.0000000000000995
 31
-0.0000000000000278
210
-0.0000000000000002
220
1.0
230
-0.0000000000000002
  0
LINE
  5
31F75
  8
0
  6
VERDECKT
 62
     1
 10
52.4999999999999716
 20
85.0000000000000568
 30
-0.0000000000000189
 11
77.5
 21
85.0000000000000568
 31
-0.0000000000000189
210
-0.0000000000000002
220
1.0
230
-0.0000000000000002
  0
LINE
  5
31F76
  8
0
  6
VERDECKT
 62
     1
 10
-77.5000000000000284
 20
85.0000000000000284
 30
-0.0000000000000189
 11
-52.5000000000000711
 21
85.0000000000000284
 31
-0.0000000000000189
210
-0.0000000000000002
220
1.0
230
-0.0000000000000002
  0
LINE
  5
31F77
  8
0
  6
VERDECKT
 62
     1
 10
52.4999999999999929
 20
33.0000000000000497
 30
-0.0000000000000073
 11
-52.5000000000000426
 21
33.0000000000000213
 31
-0.0000000000000073
210
-0.0000000000000002
220
1.0
230
-0.0000000000000002
  0
LINE
  5
31F78
  8
0
  6
VERDECKT
 62
     1
 10
-77.5000000000000568
 20
125.0
 30
-0.0000000000000278
 11
-77.5000000000000426
 21
85.0000000000000284
 31
-0.0000000000000189
210
-0.0000000000000002
220
1.0
230
-0.0000000000000002
  0
LINE
  5
31F79
  8
0
  6
VERDECKT
 62
     1
 10
-77.5000000000000426
 20
125.0
 30
-0.0000000000000278
 11
77.5000000000000142
 21
125.0000000000000995
 31
-0.0000000000000278
210
-0.0000000000000002
220
1.0
230
-0.0000000000000002
  0
LINE
  5
31F7A
  8
0
  6
VERDECKT
 62
     1
 10
-77.5000000000000568
 20
125.0
 30
-0.0000000000000278
 11
-92.5000000000000568
 21
125.0
 31
-0.0000000000000278
210
-0.0000000000000002
220
1.0
230
-0.0000000000000002
  0
LINE
  5
31F7B
  8
0
  6
VERDECKT
 62
     1
 10
-92.5000000000000568
 20
150.0
 30
-0.0000000000000333
 11
-92.5000000000000568
 21
125.0
 31
-0.0000000000000278
210
-0.0000000000000002
220
1.0
230
-0.0000000000000002
  0
LINE
  5
31F7C
  8
0
  6
VERDECKT
 62
     1
 10
-92.5000000000000568
 20
150.0
 30
-0.0000000000000333
 11
-137.5000000000001137
 21
150.0
 31
-0.0000000000000333
210
-0.0000000000000002
220
1.0
230
-0.0000000000000002
  0
LINE
  5
31F7D
  8
0
  6
VERDECKT
 62
     1
 10
-137.5000000000001137
 20
160.0
 30
-0.0000000000000355
 11
-137.5000000000001137
 21
150.0
 31
-0.0000000000000333
210
-0.0000000000000002
220
1.0
230
-0.0000000000000002
  0
LINE
  5
31F7E
  8
0
  6
VERDECKT
 62
     1
 10
137.5
 20
160.0000000000001137
 30
-0.0000000000000355
 11
137.5
 21
150.0000000000001137
 31
-0.0000000000000333
210
-0.0000000000000002
220
1.0
230
-0.0000000000000002
  0
LINE
  5
31F7F
  8
0
  6
VERDECKT
 62
     1
 10
137.5
 20
150.0000000000001137
 30
-0.0000000000000333
 11
92.4999999999999858
 21
150.0000000000001137
 31
-0.0000000000000333
210
-0.0000000000000002
220
1.0
230
-0.0000000000000002
  0
LINE
  5
31F80
  8
0
  6
VERDECKT
 62
     1
 10
92.4999999999999858
 20
150.0000000000001137
 30
-0.0000000000000333
 11
92.4999999999999858
 21
125.0000000000000995
 31
-0.0000000000000278
210
-0.0000000000000002
220
1.0
230
-0.0000000000000002
  0
LINE
  5
31F81
  8
0
  6
VERDECKT
 62
     1
 10
92.4999999999999858
 20
125.0000000000000995
 30
-0.0000000000000278
 11
77.4999999999999858
 21
125.0000000000000995
 31
-0.0000000000000278
210
-0.0000000000000002
220
1.0
230
-0.0000000000000002
  0
LINE
  5
31F82
  8
0
  6
VERDECKT
 62
     1
 10
-92.5000000000000568
 20
150.0
 30
-0.0000000000000333
 11
92.4999999999999858
 21
150.0000000000001137
 31
-0.0000000000000333
210
-0.0000000000000002
220
1.0
230
-0.0000000000000002
  0
ENDBLK
  5
31F84
  8
0
  0
ENDSEC
  0
SECTION
  2
ENTITIES
  0
INSERT
  5
712A
  8
ADSK_ASSOC_ENTITY_BACKUPS
  2
*S0
 10
0.0
 20
0.0
 30
0.0
  0
INSERT
  5
31F35
  8
STEMPEL
  2
A$C27AB6F77
 10
0.0
 20
0.0
 30
0.0
  0
INSERT
  5
31F5B
  8
STEMPEL
  2
A$CC718CF47
 10
0.0
 20
-250.0
 30
0.0
  0
INSERT
  5
31F85
  8
STEMPEL
  2
A$C666B1594
 10
600.0
 20
0.0
 30
0.0
  0
VIEWPORT
  5
7108
 67
     1
  8
0
 10
296.7499998457552124
 20
209.7499996205690138
 30
0.0
 40
794.7411156475350253
 41
421.6623711213882757
 68
     1
 69
     1
1001
ACAD
1000
MVIEW
1002
{
1070
    16
1010
0.0
1020
0.0
1030
0.0
1010
0.0
1020
0.0
1030
1.0
1040
0.0
1040
421.6623711213882757
1040
296.7499998457552124
1040
209.7499996205690138
1040
50.0
1040
0.0
1040
0.0
1070
     0
1070
  1500
1070
     1
1070
     1
1070
     0
1070
     0
1070
     0
1070
     0
1040
0.0
1040
0.0
1040
0.0
1040
10.0
1040
10.0
1040
10.0
1040
10.0
1070
     0
1002
{
1002
}
1002
}
  0
ENDSEC
  0
EOF
