  0
SECTION
  2
HEADER
  9
$ACADVER
  1
AC1009
  9
$INSBASE
 10
0.0
 20
0.0
 30
0.0
  9
$EXTMIN
 10
-0.0000009677214621
 20
-405.0000002214046049
 30
-0.0000000745059197
  9
$EXTMAX
 10
754.999998842042146
 20
159.9999993442943094
 30
-0.0000000745059197
  9
$LIMMIN
 10
0.0
 20
0.0
  9
$LIMMAX
 10
594.0
 20
840.0
  9
$ORTHOMODE
 70
     1
  9
$REGENMODE
 70
     1
  9
$FILLMODE
 70
     1
  9
$QTEXTMODE
 70
     0
  9
$MIRRTEXT
 70
     1
  9
$DRAGMODE
 70
     2
  9
$LTSCALE
 40
10.0
  9
$OSMODE
 70
  1535
  9
$ATTMODE
 70
     1
  9
$TEXTSIZE
 40
3.5
  9
$TRACEWID
 40
1.0
  9
$TEXTSTYLE
  7
STANDARD
  9
$CLAYER
  8
STEMPEL
  9
$CELTYPE
  6
BYLAYER
  9
$CECOLOR
 62
   256
  9
$DIMSCALE
 40
1.0
  9
$DIMASZ
 40
3.5
  9
$DIMEXO
 40
1.0
  9
$DIMDLI
 40
0.38
  9
$DIMRND
 40
0.0
  9
$DIMDLE
 40
0.0
  9
$DIMEXE
 40
1.0
  9
$DIMTP
 40
0.0
  9
$DIMTM
 40
0.000000001
  9
$DIMTXT
 40
3.5
  9
$DIMCEN
 40
0.09
  9
$DIMTSZ
 40
0.0
  9
$DIMTOL
 70
     0
  9
$DIMLIM
 70
     0
  9
$DIMTIH
 70
     0
  9
$DIMTOH
 70
     0
  9
$DIMSE1
 70
     0
  9
$DIMSE2
 70
     0
  9
$DIMTAD
 70
     1
  9
$DIMZIN
 70
     8
  9
$DIMBLK
  1

  9
$DIMASO
 70
     1
  9
$DIMSHO
 70
     0
  9
$DIMPOST
  1

  9
$DIMAPOST
  1

  9
$DIMALT
 70
     0
  9
$DIMALTD
 70
     2
  9
$DIMALTF
 40
25.3999999999999986
  9
$DIMLFAC
 40
2.0
  9
$DIMTOFL
 70
     1
  9
$DIMTVP
 40
0.0
  9
$DIMTIX
 70
     0
  9
$DIMSOXD
 70
     0
  9
$DIMSAH
 70
     0
  9
$DIMBLK1
  1

  9
$DIMBLK2
  1

  9
$DIMSTYLE
  2
LORO
  9
$DIMCLRD
 70
     0
  9
$DIMCLRE
 70
     0
  9
$DIMCLRT
 70
     1
  9
$DIMTFAC
 40
0.5
  9
$DIMGAP
 40
1.5
  9
$LUNITS
 70
     2
  9
$LUPREC
 70
     2
  9
$SKETCHINC
 40
1.0
  9
$FILLETRAD
 40
3.0
  9
$AUNITS
 70
     0
  9
$AUPREC
 70
     0
  9
$MENU
  1
ACAD
  9
$ELEVATION
 40
0.0
  9
$PELEVATION
 40
0.0
  9
$THICKNESS
 40
0.0
  9
$LIMCHECK
 70
     0
  9
$BLIPMODE
 70
     0
  9
$CHAMFERA
 40
0.0
  9
$CHAMFERB
 40
0.0
  9
$SKPOLY
 70
     0
  9
$TDCREATE
 40
2455397.867048610933125
  9
$TDUPDATE
 40
2460747.343761574011296
  9
$TDINDWG
 40
3.3568812731
  9
$TDUSRTIMER
 40
3.3568812731
  9
$USRTIMER
 70
     1
  9
$ANGBASE
 50
0.0
  9
$ANGDIR
 70
     0
  9
$PDMODE
 70
     0
  9
$PDSIZE
 40
0.0
  9
$PLINEWID
 40
0.0
  9
$COORDS
 70
     1
  9
$SPLFRAME
 70
     0
  9
$SPLINETYPE
 70
     6
  9
$SPLINESEGS
 70
     8
  9
$ATTDIA
 70
     1
  9
$ATTREQ
 70
     1
  9
$HANDLING
 70
     1
  9
$HANDSEED
  5
32561
  9
$SURFTAB1
 70
     6
  9
$SURFTAB2
 70
     6
  9
$SURFTYPE
 70
     6
  9
$SURFU
 70
     6
  9
$SURFV
 70
     6
  9
$UCSNAME
  2

  9
$UCSORG
 10
0.0
 20
0.0
 30
0.0
  9
$UCSXDIR
 10
1.0
 20
0.0
 30
0.0
  9
$UCSYDIR
 10
0.0
 20
1.0
 30
0.0
  9
$PUCSNAME
  2

  9
$PUCSORG
 10
0.0
 20
0.0
 30
0.0
  9
$PUCSXDIR
 10
1.0
 20
0.0
 30
0.0
  9
$PUCSYDIR
 10
0.0
 20
1.0
 30
0.0
  9
$USERI1
 70
     0
  9
$USERI2
 70
     0
  9
$USERI3
 70
     0
  9
$USERI4
 70
     0
  9
$USERI5
 70
     0
  9
$USERR1
 40
0.0
  9
$USERR2
 40
0.0
  9
$USERR3
 40
0.0
  9
$USERR4
 40
0.0
  9
$USERR5
 40
0.0
  9
$WORLDVIEW
 70
     1
  9
$SHADEDGE
 70
     3
  9
$SHADEDIF
 70
    70
  9
$TILEMODE
 70
     1
  9
$MAXACTVP
 70
    16
  9
$PLIMCHECK
 70
     0
  9
$PEXTMIN
 10
0.0
 20
-0.0000000000001137
 30
-0.0000000000004547
  9
$PEXTMAX
 10
593.5
 20
419.5
 30
0.0000000000000932
  9
$PLIMMIN
 10
-0.249998425477429
 20
-0.2499991561024899
  9
$PLIMMAX
 10
593.7500015745224573
 20
419.7500008438975101
  9
$UNITMODE
 70
     0
  9
$VISRETAIN
 70
     0
  9
$PLINEGEN
 70
     0
  9
$PSLTSCALE
 70
     0
  0
ENDSEC
  0
SECTION
  2
TABLES
  0
TABLE
  2
VPORT
 70
     1
  0
VPORT
  2
*ACTIVE
 70
     0
 10
0.0
 20
0.0
 11
1.0
 21
1.0
 12
269.9999989371603988
 22
-125.0000004385551051
 13
0.0
 23
0.0
 14
1.0
 24
1.0
 15
10.0
 25
10.0
 16
-0.0000000000003553
 26
0.0
 36
1584.440801471424038
 17
107.5
 27
2.5
 37
-0.0000000000000178
 40
567.9123706974809238
 41
1.883920894239036
 42
50.0
 43
0.0
 44
0.0
 50
0.0
 51
0.0
 71
     0
 72
  1500
 73
     1
 74
     0
 75
     0
 76
     0
 77
     0
 78
     0
  0
ENDTAB
  0
TABLE
  2
LTYPE
 70
     3
  0
LTYPE
  2
CONTINUOUS
 70
     0
  3
Solid line
 72
    65
 73
     0
 40
0.0
  0
LTYPE
  2
STRICHPUNKT
 70
     0
  3
__ . __ . __ . __ . __ . __ . __ . __ . __ . __
 72
    65
 73
     4
 40
1.0
 49
0.5
 49
-0.25
 49
0.0
 49
-0.25
  0
LTYPE
  2
VERDECKT
 70
     0
  3
Verdeckt __ __ __ __ __ __ __ __ __ __ __ __ __
 72
    65
 73
     2
 40
0.375
 49
0.25
 49
-0.125
  0
ENDTAB
  0
TABLE
  2
LAYER
 70
     6
  0
LAYER
  2
0
 70
     0
 62
     7
  6
CONTINUOUS
  0
LAYER
  2
STEMPEL
 70
     0
 62
     3
  6
CONTINUOUS
  0
LAYER
  2
ADSK_ASSOC_ENTITY_BACKUPS
 70
     1
 62
    -7
  6
CONTINUOUS
  0
ENDTAB
  0
TABLE
  2
STYLE
 70
     2
  0
STYLE
  2
STANDARD
 70
     0
 40
0.0
 41
0.8
 50
0.0
 71
     0
 42
3.5
  3
simplex.shx
  4

  0
ENDTAB
  0
TABLE
  2
VIEW
 70
     0
  0
ENDTAB
  0
TABLE
  2
UCS
 70
     0
  0
ENDTAB
  0
TABLE
  2
APPID
 70
    32
  0
APPID
  2
ACAD
 70
     0
  0
APPID
  2
ACAECLAYERSTANDARD
 70
     0
  0
APPID
  2
ACCMTRANSPARENCY
 70
     0
  0
APPID
  2
ACAD_NAV_VCDISPLAY
 70
     0
  0
APPID
  2
ACAD_PSEXT
 70
     0
  0
APPID
  2
ACAD_STEPID
 70
     0
  0
APPID
  2
ACAD_EXEMPT_FROM_CAD_STANDARDS
 70
     0
  0
APPID
  2
ACSYNERGY
 70
     0
  0
APPID
  2
SYNERGY_BODY_TBR_ID
 70
     0
  0
APPID
  2
ACAD_VIEW_EDGE_ID
 70
     0
  0
APPID
  2
GRADIENTCOLOR1ACI
 70
     0
  0
APPID
  2
GRADIENTCOLOR2ACI
 70
     0
  0
APPID
  2
ACAD_DSTYLE_DIMRADIAL_EXTENSION
 70
     0
  0
APPID
  2
ACADANNOMONITORALERTICONDI
 70
     0
  0
APPID
  2
ACAD_MLEADERVER
 70
     0
  0
APPID
  2
ACSYNERGYSKETCH
 70
     0
  0
APPID
  2
ACAD_MODELDOC_XFORM
 70
     0
  0
APPID
  2
ACDBDYNAMICBLOCKGUID
 70
     0
  0
APPID
  2
ACAD_DSTYLE_DIMJAG
 70
     0
  0
APPID
  2
ACAD_DSTYLE_DIMBREAK
 70
     0
  0
APPID
  2
ACAD_DSTYLE_DIMTALN
 70
     0
  0
APPID
  2
ACADANNOPO
 70
     0
  0
APPID
  2
PLOTTRANSPARENCY
 70
     0
  0
APPID
  2
ACADANNOTATIVE
 70
     0
  0
APPID
  2
ACAD_DIMASSOC_CALC_DIMLFAC
 70
     0
  0
APPID
  2
ACAD_DIMASSOC_DIMLFAC
 70
     0
  0
APPID
  2
ACAD_DIMASSOC_OVERRIDDEN_D
 70
     0
  0
APPID
  2
ACADANNOAV
 70
     0
  0
APPID
  2
ACAUTHENVIRON
 70
     0
  0
APPID
  2
ACDBDYNAMICBLOCKTRUENAME
 70
     0
  0
APPID
  2
SYNERGY_EXCLUDED_FROM_SNAPSHOT
 70
     0
  0
APPID
  2
ACAD_ASSOCPERSSUBENTMANAGER
 70
     0
  0
ENDTAB
  0
TABLE
  2
DIMSTYLE
 70
     1
  0
DIMSTYLE
  2
LORO
 70
     0
  3

  4

  5

  6

  7

 40
1.0
 41
3.5
 42
1.0
 43
0.38
 44
1.0
 45
0.0
 46
0.0
 47
0.0
 48
0.000000001
140
3.5
141
0.09
142
0.0
143
25.3999999999999986
144
2.0
145
0.0
146
0.5
147
1.5
 71
     0
 72
     0
 73
     0
 74
     0
 75
     0
 76
     0
 77
     1
 78
     8
170
     0
171
     2
172
     1
173
     0
174
     0
175
     0
176
     0
177
     0
178
     1
  0
ENDTAB
  0
ENDSEC
  0
SECTION
  2
BLOCKS
  0
BLOCK
  8
0
  2
$MODEL_SPACE
 70
     0
 10
0.0
 20
0.0
 30
0.0
  3
$MODEL_SPACE
  1

  0
ENDBLK
  5
38
  8
0
  0
BLOCK
 67
     1
  8
0
  2
$PAPER_SPACE
 70
     0
 10
0.0
 20
0.0
 30
0.0
  3
$PAPER_SPACE
  1

  0
ENDBLK
  5
36
 67
     1
  8
0
  0
BLOCK
  8
0
  2
*S0
 70
     1
 10
0.0
 20
0.0
 30
0.0
  3
*S0
  1

  0
ENDBLK
  5
7128
  8
0
  0
BLOCK
  8
0
  2
A$CD581455C
 70
     0
 10
0.0
 20
0.0
 30
0.0
  3
A$CD581455C
  1

  0
LINE
  5
324C6
  8
0
  6
CONTINUOUS
 62
     3
 10
-155.0
 20
160.0
 30
-0.0000000000000355
 11
155.0
 21
160.0000000000001137
 31
-0.0000000000000355
210
-0.0000000000000002
220
1.0
230
-0.0000000000000002
  0
LINE
  5
324C7
  8
0
  6
CONTINUOUS
 62
     3
 10
-155.0
 20
-0.0000000000000344
 30
0.0
 11
-155.0
 21
160.0
 31
-0.0000000000000355
210
-0.0000000000000002
220
1.0
230
-0.0000000000000002
  0
LINE
  5
324C8
  8
0
  6
CONTINUOUS
 62
     3
 10
-155.0
 20
-0.0000000000000344
 30
0.0
 11
155.0
 21
0.0000000000000344
 31
0.0
210
-0.0000000000000002
220
1.0
230
-0.0000000000000002
  0
LINE
  5
324C9
  8
0
  6
CONTINUOUS
 62
     3
 10
155.0
 20
0.0000000000000344
 30
0.0
 11
155.0
 21
160.0000000000001137
 31
-0.0000000000000355
210
-0.0000000000000002
220
1.0
230
-0.0000000000000002
  0
LINE
  5
324CA
  8
0
  6
VERDECKT
 62
     1
 10
-52.5000000000000711
 20
85.0000000000000284
 30
-0.0000000000000189
 11
-52.5000000000000568
 21
32.9999999999999929
 31
-0.0000000000000073
210
-0.0000000000000002
220
1.0
230
-0.0000000000000002
  0
LINE
  5
324CB
  8
0
  6
VERDECKT
 62
     1
 10
-52.5000000000000284
 20
85.0000000000000284
 30
-0.0000000000000189
 11
52.5
 21
85.0000000000000568
 31
-0.0000000000000189
210
-0.0000000000000002
220
1.0
230
-0.0000000000000002
  0
LINE
  5
324CC
  8
0
  6
VERDECKT
 62
     1
 10
52.4999999999999929
 20
33.0000000000000213
 30
-0.0000000000000073
 11
52.4999999999999716
 21
85.0000000000000568
 31
-0.0000000000000189
210
-0.0000000000000002
220
1.0
230
-0.0000000000000002
  0
LINE
  5
324CD
  8
0
  6
VERDECKT
 62
     1
 10
77.5000000000000142
 20
85.0000000000000568
 30
-0.0000000000000189
 11
77.5
 21
125.0000000000000995
 31
-0.0000000000000278
210
-0.0000000000000002
220
1.0
230
-0.0000000000000002
  0
LINE
  5
324CE
  8
0
  6
VERDECKT
 62
     1
 10
52.4999999999999716
 20
85.0000000000000568
 30
-0.0000000000000189
 11
77.5
 21
85.0000000000000568
 31
-0.0000000000000189
210
-0.0000000000000002
220
1.0
230
-0.0000000000000002
  0
LINE
  5
324CF
  8
0
  6
VERDECKT
 62
     1
 10
-77.5000000000000284
 20
85.0000000000000284
 30
-0.0000000000000189
 11
-52.5000000000000711
 21
85.0000000000000284
 31
-0.0000000000000189
210
-0.0000000000000002
220
1.0
230
-0.0000000000000002
  0
LINE
  5
324D0
  8
0
  6
VERDECKT
 62
     1
 10
52.4999999999999929
 20
33.0000000000000497
 30
-0.0000000000000073
 11
-52.5000000000000426
 21
33.0000000000000213
 31
-0.0000000000000073
210
-0.0000000000000002
220
1.0
230
-0.0000000000000002
  0
LINE
  5
324D1
  8
0
  6
VERDECKT
 62
     1
 10
-77.5000000000000568
 20
125.0
 30
-0.0000000000000278
 11
-77.5000000000000426
 21
85.0000000000000284
 31
-0.0000000000000189
210
-0.0000000000000002
220
1.0
230
-0.0000000000000002
  0
LINE
  5
324D2
  8
0
  6
VERDECKT
 62
     1
 10
-77.5000000000000426
 20
125.0
 30
-0.0000000000000278
 11
77.5000000000000142
 21
125.0000000000000995
 31
-0.0000000000000278
210
-0.0000000000000002
220
1.0
230
-0.0000000000000002
  0
LINE
  5
324D3
  8
0
  6
VERDECKT
 62
     1
 10
-77.5000000000000568
 20
125.0
 30
-0.0000000000000278
 11
-92.5000000000000568
 21
125.0
 31
-0.0000000000000278
210
-0.0000000000000002
220
1.0
230
-0.0000000000000002
  0
LINE
  5
324D4
  8
0
  6
VERDECKT
 62
     1
 10
-92.5000000000000568
 20
150.0
 30
-0.0000000000000333
 11
-92.5000000000000568
 21
125.0
 31
-0.0000000000000278
210
-0.0000000000000002
220
1.0
230
-0.0000000000000002
  0
LINE
  5
324D5
  8
0
  6
VERDECKT
 62
     1
 10
-92.5000000000000568
 20
150.0
 30
-0.0000000000000333
 11
-137.5000000000001137
 21
150.0
 31
-0.0000000000000333
210
-0.0000000000000002
220
1.0
230
-0.0000000000000002
  0
LINE
  5
324D6
  8
0
  6
VERDECKT
 62
     1
 10
-137.5000000000001137
 20
160.0
 30
-0.0000000000000355
 11
-137.5000000000001137
 21
150.0
 31
-0.0000000000000333
210
-0.0000000000000002
220
1.0
230
-0.0000000000000002
  0
LINE
  5
324D7
  8
0
  6
VERDECKT
 62
     1
 10
137.5
 20
160.0000000000001137
 30
-0.0000000000000355
 11
137.5
 21
150.0000000000001137
 31
-0.0000000000000333
210
-0.0000000000000002
220
1.0
230
-0.0000000000000002
  0
LINE
  5
324D8
  8
0
  6
VERDECKT
 62
     1
 10
137.5
 20
150.0000000000001137
 30
-0.0000000000000333
 11
92.4999999999999858
 21
150.0000000000001137
 31
-0.0000000000000333
210
-0.0000000000000002
220
1.0
230
-0.0000000000000002
  0
LINE
  5
324D9
  8
0
  6
VERDECKT
 62
     1
 10
92.4999999999999858
 20
150.0000000000001137
 30
-0.0000000000000333
 11
92.4999999999999858
 21
125.0000000000000995
 31
-0.0000000000000278
210
-0.0000000000000002
220
1.0
230
-0.0000000000000002
  0
LINE
  5
324DA
  8
0
  6
VERDECKT
 62
     1
 10
92.4999999999999858
 20
125.0000000000000995
 30
-0.0000000000000278
 11
77.4999999999999858
 21
125.0000000000000995
 31
-0.0000000000000278
210
-0.0000000000000002
220
1.0
230
-0.0000000000000002
  0
LINE
  5
324DB
  8
0
  6
VERDECKT
 62
     1
 10
-92.5000000000000568
 20
150.0
 30
-0.0000000000000333
 11
92.4999999999999858
 21
150.0000000000001137
 31
-0.0000000000000333
210
-0.0000000000000002
220
1.0
230
-0.0000000000000002
  0
ENDBLK
  5
324DD
  8
0
  0
BLOCK
  8
0
  2
A$C596A25B8
 70
     0
 10
0.0
 20
0.0
 30
0.0
  3
A$C596A25B8
  1

  0
LINE
  5
324E1
  8
0
  6
CONTINUOUS
 62
     3
 10
59.9999999999999929
 20
-137.5
 30
0.0
 11
60.0
 21
137.5
 31
0.0
  0
LINE
  5
324E2
  8
0
  6
CONTINUOUS
 62
     3
 10
60.0
 20
137.5
 30
0.0
 11
215.0
 21
137.4999999999998863
 31
0.0
  0
ARC
  5
324E3
  8
0
  6
CONTINUOUS
 62
     3
 10
215.0
 20
-0.0000000000000624
 30
0.0
 40
137.5
 50
270.0
 51
90.0
  0
LINE
  5
324E4
  8
0
  6
CONTINUOUS
 62
     3
 10
214.9999999999998863
 20
-137.5
 30
0.0
 11
59.9999999999999716
 21
-137.5
 31
0.0
  0
LINE
  5
324E5
  8
0
  6
CONTINUOUS
 62
     3
 10
0.0000000000000284
 20
155.0
 30
0.0
 11
-0.0000000000000285
 21
-155.0
 31
0.0
  0
LINE
  5
324E6
  8
0
  6
CONTINUOUS
 62
     3
 10
-0.0000000000000284
 20
-155.0
 30
0.0
 11
370.0
 21
-155.0
 31
0.0
  0
LINE
  5
324E7
  8
0
  6
CONTINUOUS
 62
     3
 10
370.0
 20
-155.0
 30
0.0
 11
370.0000000000001137
 21
155.0
 31
0.0
  0
LINE
  5
324E8
  8
0
  6
CONTINUOUS
 62
     3
 10
370.0
 20
155.0
 30
0.0
 11
0.0
 21
155.0
 31
0.0
  0
LINE
  5
324E9
  8
0
  6
CONTINUOUS
 62
     3
 10
59.9999999999999929
 20
52.5000000000000213
 30
0.0
 11
180.0
 21
52.5
 31
0.0
  0
LINE
  5
324EA
  8
0
  6
CONTINUOUS
 62
     3
 10
180.0
 20
52.5
 30
0.0
 11
180.0
 21
-52.5
 31
0.0
  0
LINE
  5
324EB
  8
0
  6
CONTINUOUS
 62
     3
 10
128.0
 20
52.5
 30
0.0
 11
128.0
 21
-52.5
 31
0.0
  0
LINE
  5
324EC
  8
0
  6
CONTINUOUS
 62
     3
 10
180.0
 20
-52.5
 30
0.0
 11
59.9999999999999716
 21
-52.4999999999999787
 31
0.0
  0
LINE
  5
324ED
  8
0
  6
CONTINUOUS
 62
     3
 10
285.0
 20
-77.5000000000000426
 30
0.0
 11
60.0
 21
-77.5000000000000142
 31
0.0
  0
LINE
  5
324EE
  8
0
  6
CONTINUOUS
 62
     3
 10
60.0
 20
77.5000000000000142
 30
0.0
 11
285.0
 21
77.5
 31
0.0
  0
LINE
  5
324EF
  8
0
  6
CONTINUOUS
 62
     3
 10
285.0
 20
77.5
 30
0.0
 11
285.0
 21
-77.5000000000000284
 31
0.0
  0
LINE
  5
324F0
  8
0
  6
CONTINUOUS
 62
     3
 10
295.0
 20
-92.5000000000000142
 30
0.0
 11
60.0
 21
-92.5
 31
0.0
  0
LINE
  5
324F1
  8
0
  6
CONTINUOUS
 62
     3
 10
295.0
 20
92.5000000000000142
 30
0.0
 11
294.9999999999998863
 21
-92.4999999999999858
 31
0.0
  0
LINE
  5
324F2
  8
0
  6
CONTINUOUS
 62
     3
 10
60.0
 20
92.5
 30
0.0
 11
295.0
 21
92.5000000000000142
 31
0.0
  0
ENDBLK
  5
324F4
  8
0
  0
BLOCK
  8
0
  2
A$CED181533
 70
     0
 10
0.0
 20
0.0
 30
0.0
  3
A$CED181533
  1

  0
LINE
  5
324F8
  8
0
  6
CONTINUOUS
 62
     3
 10
-0.0000000000000284
 20
160.0
 30
-0.0000000000000355
 11
370.0
 21
160.0
 31
-0.0000000000000355
210
0.0
220
1.0
230
-0.0000000000000002
  0
LINE
  5
324F9
  8
0
  6
CONTINUOUS
 62
     3
 10
-0.0000000000000284
 20
0.0
 30
0.0
 11
-0.0000000000000284
 21
160.0
 31
-0.0000000000000355
210
0.0
220
1.0
230
-0.0000000000000002
  0
LINE
  5
324FA
  8
0
  6
CONTINUOUS
 62
     3
 10
370.0
 20
0.0
 30
0.0
 11
370.0
 21
160.0
 31
-0.0000000000000355
210
0.0
220
1.0
230
-0.0000000000000002
  0
LINE
  5
324FB
  8
0
  6
CONTINUOUS
 62
     3
 10
-0.0000000000000284
 20
0.0
 30
0.0
 11
370.0
 21
0.0
 31
0.0
210
0.0
220
1.0
230
-0.0000000000000002
  0
LINE
  5
324FC
  8
0
  6
VERDECKT
 62
     1
 10
128.0
 20
33.0000000000000284
 30
-0.0000000000000073
 11
180.0
 21
85.0000000000000142
 31
-0.0000000000000189
210
0.0
220
1.0
230
-0.0000000000000002
  0
LINE
  5
324FD
  8
0
  6
VERDECKT
 62
     1
 10
128.0
 20
33.0000000000000284
 30
-0.0000000000000073
 11
59.9999999999999574
 21
33.0000000000000284
 31
-0.0000000000000073
210
0.0
220
1.0
230
-0.0000000000000002
  0
LINE
  5
324FE
  8
0
  6
VERDECKT
 62
     1
 10
59.9999999999999929
 20
33.0
 30
-0.0000000000000073
 11
59.9999999999999929
 21
85.0000000000000142
 31
-0.0000000000000189
210
0.0
220
1.0
230
-0.0000000000000002
  0
LINE
  5
324FF
  8
0
  6
VERDECKT
 62
     1
 10
285.0
 20
125.0
 30
-0.0000000000000278
 11
285.0
 21
85.0000000000000142
 31
-0.0000000000000189
210
0.0
220
1.0
230
-0.0000000000000002
  0
LINE
  5
32500
  8
0
  6
VERDECKT
 62
     1
 10
285.0
 20
85.0000000000000142
 30
-0.0000000000000189
 11
60.0
 21
85.0000000000000142
 31
-0.0000000000000189
210
0.0
220
1.0
230
-0.0000000000000002
  0
LINE
  5
32501
  8
0
  6
VERDECKT
 62
     1
 10
60.0
 20
85.0000000000000142
 30
-0.0000000000000189
 11
60.0
 21
125.0
 31
-0.0000000000000278
210
0.0
220
1.0
230
-0.0000000000000002
  0
LINE
  5
32502
  8
0
  6
VERDECKT
 62
     1
 10
59.9999999999999716
 20
160.0
 30
-0.0000000000000355
 11
59.9999999999999716
 21
150.0
 31
-0.0000000000000333
210
0.0
220
1.0
230
-0.0000000000000002
  0
LINE
  5
32503
  8
0
  6
VERDECKT
 62
     1
 10
59.9999999999999716
 20
150.0
 30
-0.0000000000000333
 11
59.9999999999999716
 21
125.0
 31
-0.0000000000000278
210
0.0
220
1.0
230
-0.0000000000000002
  0
LINE
  5
32504
  8
0
  6
VERDECKT
 62
     1
 10
295.0
 20
125.0
 30
-0.0000000000000278
 11
60.0
 21
125.0
 31
-0.0000000000000278
210
0.0
220
1.0
230
-0.0000000000000002
  0
LINE
  5
32505
  8
0
  6
VERDECKT
 62
     1
 10
295.0
 20
150.0
 30
-0.0000000000000333
 11
295.0
 21
125.0
 31
-0.0000000000000278
210
0.0
220
1.0
230
-0.0000000000000002
  0
LINE
  5
32506
  8
0
  6
VERDECKT
 62
     1
 10
214.9999999999998863
 20
150.0
 30
-0.0000000000000333
 11
59.9999999999999716
 21
150.0
 31
-0.0000000000000333
210
0.0
220
1.0
230
-0.0000000000000002
  0
LINE
  5
32507
  8
0
  6
VERDECKT
 62
     1
 10
214.9999999999998863
 20
150.0
 30
-0.0000000000000333
 11
352.5
 21
150.0
 31
-0.0000000000000333
210
0.0
220
1.0
230
-0.0000000000000002
  0
LINE
  5
32508
  8
0
  6
VERDECKT
 62
     1
 10
352.5
 20
160.0
 30
-0.0000000000000355
 11
352.5
 21
150.0
 31
-0.0000000000000333
210
0.0
220
1.0
230
-0.0000000000000002
  0
ENDBLK
  5
3250A
  8
0
  0
ENDSEC
  0
SECTION
  2
ENTITIES
  0
INSERT
  5
712A
  8
ADSK_ASSOC_ENTITY_BACKUPS
  2
*S0
 10
0.0
 20
0.0
 30
0.0
  0
INSERT
  5
324DE
  8
STEMPEL
  2
A$CD581455C
 10
600.0
 20
0.0
 30
0.0
  0
INSERT
  5
324F5
  8
STEMPEL
  2
A$C596A25B8
 10
0.0
 20
-250.0
 30
0.0
  0
INSERT
  5
3250B
  8
STEMPEL
  2
A$CED181533
 10
0.0
 20
0.0
 30
0.0
  0
VIEWPORT
  5
7108
 67
     1
  8
0
 10
296.7499993830033986
 20
209.8462258749632099
 30
0.0
 40
795.1717410402983433
 41
422.0834024782596998
 68
     1
 69
     1
1001
ACAD
1000
MVIEW
1002
{
1070
    16
1010
0.0
1020
0.0
1030
0.0
1010
0.0
1020
0.0
1030
1.0
1040
0.0
1040
422.0834024782596998
1040
296.7499993830033986
1040
209.8462258749632099
1040
50.0
1040
0.0
1040
0.0
1070
     0
1070
  1500
1070
     1
1070
     1
1070
     0
1070
     0
1070
     0
1070
     0
1040
0.0
1040
0.0
1040
0.0
1040
10.0
1040
10.0
1040
10.0
1040
10.0
1070
     0
1002
{
1002
}
1002
}
  0
ENDSEC
  0
EOF
