  0
SECTION
  2
HEADER
  9
$ACADVER
  1
AC1009
  9
$INSBASE
 10
0.0
 20
0.0
 30
0.0
  9
$EXTMIN
 10
2900.0229846256061137
 20
0.3897413737020088
 30
-62.2866348998125474
  9
$EXTMAX
 10
3104.1632278367651452
 20
363.2104808506678069
 30
-62.273055877381239
  9
$LIMMIN
 10
0.0
 20
0.0
  9
$LIMMAX
 10
839.9999999999997726
 20
594.0
  9
$ORTHOMODE
 70
     1
  9
$REGENMODE
 70
     1
  9
$FILLMODE
 70
     1
  9
$QTEXTMODE
 70
     0
  9
$MIRRTEXT
 70
     1
  9
$DRAGMODE
 70
     2
  9
$LTSCALE
 40
20.0
  9
$OSMODE
 70
  2495
  9
$ATTMODE
 70
     1
  9
$TEXTSIZE
 40
3.5
  9
$TRACEWID
 40
0.5
  9
$TEXTSTYLE
  7
STANDARD
  9
$CLAYER
  8
0
  9
$CELTYPE
  6
BYLAYER
  9
$CECOLOR
 62
   256
  9
$DIMSCALE
 40
1.0
  9
$DIMASZ
 40
3.5
  9
$DIMEXO
 40
1.0
  9
$DIMDLI
 40
7.0
  9
$DIMRND
 40
0.0
  9
$DIMDLE
 40
0.0
  9
$DIMEXE
 40
1.0
  9
$DIMTP
 40
0.0
  9
$DIMTM
 40
0.0
  9
$DIMTXT
 40
3.5
  9
$DIMCEN
 40
1.5
  9
$DIMTSZ
 40
0.0
  9
$DIMTOL
 70
     0
  9
$DIMLIM
 70
     0
  9
$DIMTIH
 70
     0
  9
$DIMTOH
 70
     0
  9
$DIMSE1
 70
     0
  9
$DIMSE2
 70
     0
  9
$DIMTAD
 70
     1
  9
$DIMZIN
 70
     8
  9
$DIMBLK
  1

  9
$DIMASO
 70
     1
  9
$DIMSHO
 70
     0
  9
$DIMPOST
  1

  9
$DIMAPOST
  1

  9
$DIMALT
 70
     0
  9
$DIMALTD
 70
     2
  9
$DIMALTF
 40
25.3999999999999986
  9
$DIMLFAC
 40
2.0
  9
$DIMTOFL
 70
     1
  9
$DIMTVP
 40
0.0
  9
$DIMTIX
 70
     0
  9
$DIMSOXD
 70
     0
  9
$DIMSAH
 70
     0
  9
$DIMBLK1
  1

  9
$DIMBLK2
  1

  9
$DIMSTYLE
  2
STANDARD
  9
$DIMCLRD
 70
     0
  9
$DIMCLRE
 70
     0
  9
$DIMCLRT
 70
     1
  9
$DIMTFAC
 40
0.5142857142857143
  9
$DIMGAP
 40
1.5
  9
$LUNITS
 70
     2
  9
$LUPREC
 70
     2
  9
$SKETCHINC
 40
1.0
  9
$FILLETRAD
 40
6.5
  9
$AUNITS
 70
     0
  9
$AUPREC
 70
     0
  9
$MENU
  1
ACAD
  9
$ELEVATION
 40
0.0
  9
$PELEVATION
 40
0.0
  9
$THICKNESS
 40
0.0
  9
$LIMCHECK
 70
     0
  9
$BLIPMODE
 70
     0
  9
$CHAMFERA
 40
0.0
  9
$CHAMFERB
 40
0.0
  9
$SKPOLY
 70
     0
  9
$TDCREATE
 40
2451337.6017592591233552
  9
$TDUPDATE
 40
2458904.411284722853452
  9
$TDINDWG
 40
1.3340824768999999
  9
$TDUSRTIMER
 40
1.3340824768999999
  9
$USRTIMER
 70
     1
  9
$ANGBASE
 50
0.0
  9
$ANGDIR
 70
     0
  9
$PDMODE
 70
     0
  9
$PDSIZE
 40
0.0
  9
$PLINEWID
 40
0.0
  9
$COORDS
 70
     1
  9
$SPLFRAME
 70
     0
  9
$SPLINETYPE
 70
     6
  9
$SPLINESEGS
 70
     8
  9
$ATTDIA
 70
     1
  9
$ATTREQ
 70
     1
  9
$HANDLING
 70
     1
  9
$HANDSEED
  5
4503
  9
$SURFTAB1
 70
     6
  9
$SURFTAB2
 70
     6
  9
$SURFTYPE
 70
     6
  9
$SURFU
 70
     6
  9
$SURFV
 70
     6
  9
$UCSNAME
  2

  9
$UCSORG
 10
0.0
 20
0.0
 30
0.0
  9
$UCSXDIR
 10
1.0
 20
0.0
 30
0.0
  9
$UCSYDIR
 10
0.0
 20
1.0
 30
0.0
  9
$PUCSNAME
  2

  9
$PUCSORG
 10
0.0
 20
0.0
 30
0.0
  9
$PUCSXDIR
 10
1.0
 20
0.0
 30
0.0
  9
$PUCSYDIR
 10
0.0
 20
1.0
 30
0.0
  9
$USERI1
 70
     0
  9
$USERI2
 70
     0
  9
$USERI3
 70
     0
  9
$USERI4
 70
     0
  9
$USERI5
 70
     0
  9
$USERR1
 40
0.0
  9
$USERR2
 40
0.0
  9
$USERR3
 40
0.0
  9
$USERR4
 40
0.0
  9
$USERR5
 40
0.0
  9
$WORLDVIEW
 70
     1
  9
$SHADEDGE
 70
     3
  9
$SHADEDIF
 70
    70
  9
$TILEMODE
 70
     1
  9
$MAXACTVP
 70
    16
  9
$PLIMCHECK
 70
     0
  9
$PEXTMIN
 10
1.0000000000000000E+20
 20
1.0000000000000000E+20
 30
1.0000000000000000E+20
  9
$PEXTMAX
 10
-1.0000000000000000E+20
 20
-1.0000000000000000E+20
 30
-1.0000000000000000E+20
  9
$PLIMMIN
 10
-5.3252412243389244
 20
-6.0638366480793593
  9
$PLIMMAX
 10
414.6214140490985187
 20
290.8621582249675157
  9
$UNITMODE
 70
     0
  9
$VISRETAIN
 70
     0
  9
$PLINEGEN
 70
     0
  9
$PSLTSCALE
 70
     0
  0
ENDSEC
  0
SECTION
  2
TABLES
  0
TABLE
  2
VPORT
 70
     1
  0
VPORT
  2
*ACTIVE
 70
     0
 10
0.0
 20
0.0
 11
1.0
 21
1.0
 12
798.2759137697084952
 22
-65.6895130204402449
 13
0.0
 23
0.0
 14
1.0
 24
1.0
 15
10.0
 25
10.0
 16
-0.0000000000009095
 26
0.0
 36
4600.1969408191898765
 17
2203.8171924614771342
 27
247.4896241326252095
 37
26.7116356029797188
 40
365.4154050751325258
 41
1.785202863961814
 42
50.0
 43
0.0
 44
0.0
 50
0.0
 51
0.0
 71
     0
 72
  1500
 73
     1
 74
     0
 75
     0
 76
     0
 77
     0
 78
     0
  0
ENDTAB
  0
TABLE
  2
LTYPE
 70
     8
  0
LTYPE
  2
CONTINUOUS
 70
     0
  3
Solid line
 72
    65
 73
     0
 40
0.0
  0
LTYPE
  2
AUSGEZOGEN
 70
     0
  3
Ausgezogene Linie
 72
    65
 73
     0
 40
0.0
  0
LTYPE
  2
PHANTOM2
 70
     0
  3
Phantom (.5x) ___ _ _ ___ _ _ ___ _ _ ___ _ _
 72
    65
 73
     6
 40
1.25
 49
0.625
 49
-0.125
 49
0.125
 49
-0.125
 49
0.125
 49
-0.125
  0
LTYPE
  2
VERDECKT
 70
     0
  3
Verdeckt __ __ __ __ __ __ __ __ __ __ __ __ __
 72
    65
 73
     2
 40
0.375
 49
0.25
 49
-0.125
  0
ENDTAB
  0
TABLE
  2
LAYER
 70
    17
  0
LAYER
  2
0
 70
     0
 62
     7
  6
CONTINUOUS
  0
LAYER
  2
VOLL
 70
     0
 62
     1
  6
CONTINUOUS
  0
LAYER
  2
TEXT
 70
     0
 62
     7
  6
CONTINUOUS
  0
LAYER
  2
DEFPOINTS
 70
     0
 62
     7
  6
AUSGEZOGEN
  0
LAYER
  2
ADSK_ASSOC_ENTITY_BACKUPS
 70
     1
 62
    -7
  6
CONTINUOUS
  0
ENDTAB
  0
TABLE
  2
STYLE
 70
     4
  0
STYLE
  2
STANDARD
 70
     0
 40
0.0
 41
0.8
 50
0.0
 71
     0
 42
3.5
  3
simplex.shx
  4

  0
STYLE
  2
GREEKS
 70
     0
 40
0.0
 41
0.8
 50
0.0
 71
     0
 42
2.5
  3
SIMPLEX.shx
  4

  0
ENDTAB
  0
TABLE
  2
VIEW
 70
     1
  0
ENDTAB
  0
TABLE
  2
UCS
 70
     0
  0
ENDTAB
  0
TABLE
  2
APPID
 70
    48
  0
APPID
  2
ACAD
 70
     0
  0
APPID
  2
ACAD_NAV_VCDISPLAY
 70
     0
  0
APPID
  2
GRADIENTCOLOR1ACI
 70
     0
  0
APPID
  2
GRADIENTCOLOR2ACI
 70
     0
  0
APPID
  2
ACAD_MLEADERVER
 70
     0
  0
APPID
  2
ACAD_EXEMPT_FROM_CAD_STANDARDS
 70
     0
  0
APPID
  2
ACAD_PSEXT
 70
     0
  0
APPID
  2
ACAD_STEPID
 70
     0
  0
APPID
  2
ACAECLAYERSTANDARD
 70
     0
  0
APPID
  2
ACCMTRANSPARENCY
 70
     0
  0
APPID
  2
ACAD_DSTYLE_DIMRADIAL_EXTENSION
 70
     0
  0
APPID
  2
ACAD_DSTYLE_DIMJAG
 70
     0
  0
APPID
  2
ACAD_DSTYLE_DIMBREAK
 70
     0
  0
APPID
  2
ACAUTHENVIRON
 70
     0
  0
APPID
  2
ACDBDYNAMICBLOCKTRUENAME
 70
     0
  0
APPID
  2
ACDBDYNAMICBLOCKGUID
 70
     0
  0
APPID
  2
ACADANNOPO
 70
     0
  0
APPID
  2
ACADANNOMONITORALERTICONDI
 70
     0
  0
APPID
  2
ACAD_OBJECT_CHANGE_GUID
 70
     0
  0
APPID
  2
MCAD_NO_VIS
 70
     0
  0
APPID
  2
ACAD_TEMP_GRAPHIC
 70
     0
  0
APPID
  2
ACATTRIBSERVICES
 70
     0
  0
APPID
  2
DESIGNERASSEMBLIES
 70
     0
  0
APPID
  2
GENIUS_GENSCREG_15
 70
     0
  0
APPID
  2
GENIUS_GENOBJ-N-SDF_13
 70
     0
  0
APPID
  2
GENIUS_GENODEF_13
 70
     0
  0
APPID
  2
ACAD_DSTYLE_DIMARC_LENGTH_
 70
     0
  0
APPID
  2
ACAD_DSTYLE_DIM_LINETYPE
 70
     0
  0
APPID
  2
ACAD_DSTYLE_DIM_EXT1_LINETYPE
 70
     0
  0
APPID
  2
ACAD_DSTYLE_DIM_EXT2_LINETYPE
 70
     0
  0
APPID
  2
RAK
 70
     0
  0
APPID
  2
ACSYNERGY
 70
     0
  0
APPID
  2
SYNERGY_BODY_TBR_ID
 70
     0
  0
APPID
  2
ACAD_VIEW_EDGE_ID
 70
     0
  0
APPID
  2
ACSYNERGYSKETCH
 70
     0
  0
APPID
  2
ACAD_MODELDOC_XFORM
 70
     0
  0
APPID
  2
GENIUS_GENDTOL_13
 70
     0
  0
APPID
  2
ACAD_DSTYLE_DIMINSPECT
 70
     0
  0
APPID
  2
ACAD_DSTYLE_DIMANGULAR_EXT
 70
     0
  0
APPID
  2
PLOTTRANSPARENCY
 70
     0
  0
APPID
  2
PE_URL
 70
     0
  0
APPID
  2
ACADANNOAV
 70
     0
  0
APPID
  2
SYNERGY_EXCLUDED_FROM_SNAPSHOT
 70
     0
  0
APPID
  2
ACAD_DIMASSOC_CALC_DIMLFAC
 70
     0
  0
APPID
  2
ACAD_DIMASSOC_DIMLFAC
 70
     0
  0
APPID
  2
ACAD_DIMASSOC_OVERRIDDEN_D
 70
     0
  0
APPID
  2
ACAD_DSTYLE_DIMTALN
 70
     0
  0
APPID
  2
AcDbAttr
 70
     0
  0
ENDTAB
  0
TABLE
  2
DIMSTYLE
 70
     4
  0
DIMSTYLE
  2
STANDARD
 70
     0
  3

  4

  5

  6

  7

 40
1.0
 41
0.18
 42
0.0625
 43
0.38
 44
0.18
 45
0.0
 46
0.0
 47
0.0
 48
0.0
140
0.18
141
0.09
142
0.0
143
25.3999999999999986
144
1.0
145
0.0
146
1.0
147
0.09
 71
     0
 72
     0
 73
     1
 74
     1
 75
     0
 76
     0
 77
     0
 78
     0
170
     0
171
     2
172
     0
173
     0
174
     0
175
     0
176
     0
177
     0
178
     0
  0
ENDTAB
  0
ENDSEC
  0
SECTION
  2
BLOCKS
  0
BLOCK
  8
0
  2
$MODEL_SPACE
 70
     0
 10
0.0
 20
0.0
 30
0.0
  3
$MODEL_SPACE
  1

  0
ENDBLK
  5
36
  8
0
  0
BLOCK
 67
     1
  8
0
  2
$PAPER_SPACE
 70
     0
 10
0.0
 20
0.0
 30
0.0
  3
$PAPER_SPACE
  1

  0
ENDBLK
  5
34
 67
     1
  8
0
  0
BLOCK
  8
0
  2
*S1
 70
     1
 10
0.0
 20
0.0
 30
0.0
  3
*S1
  1

  0
ENDBLK
  5
19CF
  8
0
  0
BLOCK
  8
0
  2
A$CF7D0897F
 70
     0
 10
0.0
 20
0.0
 30
0.0
  3
A$CF7D0897F
  1

  0
CIRCLE
  5
4001
  8
0
  6
CONTINUOUS
 62
     3
 10
1436.0659429712709425
 20
170.9000041510576864
 30
0.0000000000004121
 40
24.5739943915477284
  0
CIRCLE
  5
4002
  8
0
  6
CONTINUOUS
 62
     3
 10
1313.8962487374030843
 20
170.9000041510576011
 30
0.0000000000003837
 40
5.0
  0
LINE
  5
4003
  8
0
  6
CONTINUOUS
 62
     3
 10
1369.7541793090069859
 20
165.9000041510576011
 30
0.0000000000003979
 11
1345.5659429712709425
 21
165.9000041510576011
 31
0.0000000000003909
  0
LINE
  5
4004
  8
0
  6
CONTINUOUS
 62
     3
 10
1342.5659429712709425
 20
165.9000041510576011
 30
0.0000000000003837
 11
1345.5659429712709425
 21
165.9000041510576011
 31
0.0000000000003837
  0
LINE
  5
4005
  8
0
  6
CONTINUOUS
 62
     3
 10
1342.5659429712709425
 20
165.9000041510576011
 30
0.0000000000003837
 11
1341.5659429712720794
 21
165.9000041510576011
 31
0.0000000000003837
  0
LINE
  5
4006
  8
0
  6
CONTINUOUS
 62
     3
 10
1341.5659429712720794
 20
165.9000041510576011
 30
0.0000000000003837
 11
1325.4347599721729694
 21
165.9000041510576011
 31
0.000000000000379
  0
LINE
  5
4007
  8
0
  6
CONTINUOUS
 62
     3
 10
1369.7541793090069859
 20
175.9000041510576011
 30
0.0000000000003979
 11
1345.5659429712709425
 21
175.9000041510576011
 31
0.0000000000003909
  0
ARC
  5
4008
  8
0
  6
CONTINUOUS
 62
     3
 10
1325.4347599721729694
 20
179.9000041510564074
 30
0.0000000000003837
 40
3.9999999999988418
 50
218.3665142559351011
 51
270.0000000000064801
  0
ARC
  5
4009
  8
0
  6
CONTINUOUS
 62
     3
 10
1314.0659429712709425
 20
170.9000041510576011
 30
0.0000000000003837
 40
10.5000000000000604
 50
38.3665142559454608
 51
321.6334857440544965
  0
ARC
  5
400A
  8
0
  6
CONTINUOUS
 62
     3
 10
1325.4347599721729694
 20
161.9000041510587096
 30
0.0000000000003837
 40
3.9999999999988631
 50
89.9999999999934914
 51
141.6334857440648989
  0
LINE
  5
400B
  8
0
  6
CONTINUOUS
 62
     3
 10
1325.4347599721729694
 20
175.9000041510576011
 30
0.0000000000003837
 11
1341.5659429712720794
 21
175.9000041510576011
 31
0.0000000000003884
  0
LINE
  5
400C
  8
0
  6
CONTINUOUS
 62
     3
 10
1341.5659429712720794
 20
175.9000041510576011
 30
0.0000000000003837
 11
1342.5659429712709425
 21
175.9000041510576011
 31
0.0000000000003837
  0
LINE
  5
400D
  8
0
  6
CONTINUOUS
 62
     3
 10
1342.5659429712709425
 20
175.9000041510576011
 30
0.0000000000003837
 11
1342.5659429712709425
 21
165.9000041510576011
 31
0.0000000000003837
  0
LINE
  5
400E
  8
0
  6
CONTINUOUS
 62
     3
 10
1345.5659429712709425
 20
175.9000041510576011
 30
0.0000000000003837
 11
1342.5659429712709425
 21
175.9000041510576011
 31
0.0000000000003837
  0
CIRCLE
  5
400F
  8
0
  6
CONTINUOUS
 62
     3
 10
1496.8962487374019474
 20
65.2449048893568033
 30
0.0000000000004263
 40
5.0
  0
LINE
  5
4010
  8
0
  6
CONTINUOUS
 62
     3
 10
1473.5519518213250194
 20
115.9723322497868025
 30
0.0000000000004263
 11
1485.6460699901929274
 21
95.0247051085665646
 31
0.0000000000004298
  0
LINE
  5
4011
  8
0
  6
CONTINUOUS
 62
     3
 10
1487.1460699901929274
 20
92.4266288972133339
 30
0.0000000000004263
 11
1485.6460699901929274
 21
95.0247051085666641
 31
0.0000000000004263
  0
LINE
  5
4012
  8
0
  6
CONTINUOUS
 62
     3
 10
1487.1460699901929274
 20
92.4266288972131775
 30
0.0000000000004263
 11
1487.6460699901920179
 21
91.5606034934287436
 31
0.0000000000004263
  0
LINE
  5
4013
  8
0
  6
CONTINUOUS
 62
     3
 10
1487.6460699901920179
 20
91.5606034934287436
 30
0.0000000000004263
 11
1495.7116614897420277
 21
77.5905892231142502
 31
0.0000000000004287
  0
LINE
  5
4014
  8
0
  6
CONTINUOUS
 62
     3
 10
1464.8916977834810496
 20
110.972332249787101
 30
0.0000000000004263
 11
1476.9858159523480481
 21
90.0247051085666641
 31
0.0000000000004298
  0
ARC
  5
4015
  8
0
  6
CONTINUOUS
 62
     3
 10
1483.5873058367610611
 20
70.5905892231146339
 30
0.0000000000004263
 40
3.9999999999988431
 50
338.3665142559351011
 51
30.0000000000064908
  0
ARC
  5
4016
  8
0
  6
CONTINUOUS
 62
     3
 10
1497.065942971270033
 20
65.2449048893568033
 30
0.0000000000004263
 40
10.5000000000000604
 50
158.3665142559453045
 51
81.6334857440544539
  0
ARC
  5
4017
  8
0
  6
CONTINUOUS
 62
     3
 10
1499.1757631048790245
 20
79.5905892231132839
 30
0.0000000000004405
 40
3.9999999999988631
 50
209.9999999999934062
 51
261.6334857440648989
  0
LINE
  5
4018
  8
0
  6
CONTINUOUS
 62
     3
 10
1487.051407451896921
 20
72.5905892231144207
 30
0.0000000000004263
 11
1478.9858159523480481
 21
86.5606034934289141
 31
0.000000000000424
  0
LINE
  5
4019
  8
0
  6
CONTINUOUS
 62
     3
 10
1478.9858159523480481
 20
86.5606034934287436
 30
0.0000000000004263
 11
1478.4858159523480481
 21
87.4266288972131775
 31
0.0000000000004263
  0
LINE
  5
401A
  8
0
  6
CONTINUOUS
 62
     3
 10
1478.4858159523480481
 20
87.426628897213277
 30
0.0000000000004263
 11
1487.1460699901929274
 21
92.426628897213277
 31
0.0000000000004288
  0
LINE
  5
401B
  8
0
  6
CONTINUOUS
 62
     3
 10
1476.9858159523480481
 20
90.0247051085666641
 30
0.0000000000004263
 11
1478.4858159523480481
 21
87.4266288972133339
 31
0.0000000000004263
  0
CIRCLE
  5
401C
  8
0
  6
CONTINUOUS
 62
     3
 10
1436.0659429712709425
 20
170.9000041510576864
 30
0.0000000000004121
 40
66.5
  0
CIRCLE
  5
401D
  8
0
  6
CONTINUOUS
 62
     3
 10
1436.0659429712709425
 20
170.9000041510576864
 30
0.0000000000004121
 40
25.0
  0
CIRCLE
  5
401E
  8
0
  6
CONTINUOUS
 62
     3
 10
1496.8962487374010379
 20
276.5551034127589105
 30
0.0000000000004263
 40
5.0
  0
LINE
  5
401F
  8
0
  6
CONTINUOUS
 62
     3
 10
1464.8916977834810496
 20
230.8276760523285986
 30
0.0000000000004263
 11
1476.9858159523480481
 21
251.7753031935486945
 31
0.0000000000004298
  0
LINE
  5
4020
  8
0
  6
CONTINUOUS
 62
     3
 10
1478.4858159523480481
 20
254.3733794049020958
 30
0.0000000000004263
 11
1476.9858159523480481
 21
251.7753031935488082
 31
0.0000000000004263
  0
LINE
  5
4021
  8
0
  6
CONTINUOUS
 62
     3
 10
1478.4858159523480481
 20
254.3733794049020958
 30
0.0000000000004263
 11
1478.9858159523480481
 21
255.2394048086864871
 31
0.0000000000004263
  0
LINE
  5
4022
  8
0
  6
CONTINUOUS
 62
     3
 10
1478.9858159523480481
 20
255.2394048086864871
 30
0.0000000000004263
 11
1487.051407451896921
 21
269.2094190790010089
 31
0.0000000000004287
  0
LINE
  5
4023
  8
0
  6
CONTINUOUS
 62
     3
 10
1473.5519518213250194
 20
225.8276760523289113
 30
0.0000000000004263
 11
1485.6460699901929274
 21
246.7753031935488082
 31
0.0000000000004298
  0
ARC
  5
4024
  8
0
  6
CONTINUOUS
 62
     3
 10
1499.1757631048778876
 20
262.2094190790019752
 30
0.0000000000004405
 40
3.9999999999988418
 50
98.3665142559348311
 51
150.0000000000061959
  0
ARC
  5
4025
  8
0
  6
CONTINUOUS
 62
     3
 10
1497.065942971270033
 20
276.5551034127586263
 30
0.0000000000004263
 40
10.5000000000000604
 50
278.3665142559449919
 51
201.6334857440540986
  0
ARC
  5
4026
  8
0
  6
CONTINUOUS
 62
     3
 10
1483.5873058367610611
 20
271.2094190790007815
 30
0.0000000000004263
 40
3.9999999999988631
 50
329.9999999999934062
 51
21.6334857440648598
  0
LINE
  5
4027
  8
0
  6
CONTINUOUS
 62
     3
 10
1495.7116614897420277
 20
264.2094190790011226
 30
0.0000000000004263
 11
1487.6460699901920179
 21
250.2394048086866007
 31
0.000000000000424
  0
LINE
  5
4028
  8
0
  6
CONTINUOUS
 62
     3
 10
1487.6460699901920179
 20
250.2394048086864871
 30
0.0000000000004263
 11
1487.1460699901929274
 21
249.3733794049020105
 31
0.0000000000004263
  0
LINE
  5
4029
  8
0
  6
CONTINUOUS
 62
     3
 10
1487.1460699901929274
 20
249.3733794049020958
 30
0.0000000000004263
 11
1478.4858159523480481
 21
254.3733794049020958
 31
0.0000000000004238
  0
LINE
  5
402A
  8
0
  6
CONTINUOUS
 62
     3
 10
1485.6460699901929274
 20
246.7753031935488082
 30
0.0000000000004263
 11
1487.1460699901929274
 21
249.3733794049020958
 31
0.0000000000004263
  0
CIRCLE
  5
402B
  8
0
  6
VERDECKT
 62
     1
 10
1436.0659429712709425
 20
170.9000041510576864
 30
0.0000000000004121
 40
26.0682864386853907
  0
CIRCLE
  5
402C
  8
0
  6
VERDECKT
 62
     1
 10
1436.0659429712709425
 20
170.9000041510576011
 30
0.0000000000004121
 40
26.5
  0
LINE
  5
402D
  8
0
  6
VERDECKT
 62
     1
 10
1384.5675138337880981
 20
165.9000041510576011
 30
0.0000000000003979
 11
1369.7541793090069859
 21
165.9000041510576011
 31
0.0000000000003936
  0
LINE
  5
402E
  8
0
  6
VERDECKT
 62
     1
 10
1384.5675138337880981
 20
175.9000041510576011
 30
0.0000000000003979
 11
1384.5675138337880981
 21
165.9000041510576011
 31
0.0000000000003979
  0
LINE
  5
402F
  8
0
  6
VERDECKT
 62
     1
 10
1384.5675138337880981
 20
175.9000041510576011
 30
0.0000000000003979
 11
1369.7541793090069859
 21
175.9000041510576011
 31
0.0000000000003936
  0
LINE
  5
4030
  8
0
  6
VERDECKT
 62
     1
 10
1344.5659429712709425
 20
175.9000041510576011
 30
0.0000000000003837
 11
1344.5659429712709425
 21
165.9000041510576011
 31
0.0000000000003837
  0
LINE
  5
4031
  8
0
  6
VERDECKT
 62
     1
 10
1466.1452845589340086
 20
128.8010562630047104
 30
0.0000000000004263
 11
1473.5519518213250194
 21
115.972332249786902
 31
0.0000000000004285
  0
LINE
  5
4032
  8
0
  6
VERDECKT
 62
     1
 10
1457.4850305210900387
 20
123.8010562630048952
 30
0.0000000000004263
 11
1466.1452845589340086
 21
128.8010562630049094
 31
0.0000000000004288
  0
LINE
  5
4033
  8
0
  6
VERDECKT
 62
     1
 10
1457.4850305210900387
 20
123.8010562630046962
 30
0.0000000000004263
 11
1464.8916977834810496
 21
110.9723322497870015
 31
0.0000000000004285
  0
LINE
  5
4034
  8
0
  6
VERDECKT
 62
     1
 10
1477.4858159523480481
 20
89.1586797047821165
 30
0.0000000000004263
 11
1486.1460699901929274
 21
94.1586797047821165
 31
0.0000000000004288
  0
LINE
  5
4035
  8
0
  6
VERDECKT
 62
     1
 10
1457.4850305210900387
 20
217.9989520391106907
 30
0.0000000000004263
 11
1464.8916977834810496
 21
230.8276760523287123
 31
0.0000000000004285
  0
LINE
  5
4036
  8
0
  6
VERDECKT
 62
     1
 10
1466.1452845589340086
 20
212.9989520391104918
 30
0.0000000000004263
 11
1457.4850305210900387
 21
217.9989520391104918
 31
0.0000000000004238
  0
LINE
  5
4037
  8
0
  6
VERDECKT
 62
     1
 10
1466.1452845589340086
 20
212.9989520391106055
 30
0.0000000000004263
 11
1473.5519518213250194
 21
225.8276760523289113
 31
0.0000000000004285
  0
LINE
  5
4038
  8
0
  6
VERDECKT
 62
     1
 10
1486.1460699901929274
 20
247.6413285973331995
 30
0.0000000000004263
 11
1477.4858159523480481
 21
252.6413285973331995
 31
0.0000000000004238
  0
ENDBLK
  5
403A
  8
0
  0
BLOCK
  8
0
  2
A$CDED11CF7
 70
     0
 10
0.0
 20
0.0
 30
0.0
  3
A$CDED11CF7
  1

  0
LINE
  5
403E
  8
0
  6
CONTINUOUS
 62
     3
 10
1409.9976565325860065
 20
49.7044748283236189
 30
-0.000000000000011
 11
1462.1342294099570154
 21
49.7044748283236189
 31
-0.000000000000011
210
0.0
220
1.0
230
-0.0000000000000002
  0
LINE
  5
403F
  8
0
  6
CONTINUOUS
 62
     3
 10
1409.9976565325860065
 20
49.7044748283236189
 30
-0.000000000000011
 11
1409.590677433674955
 21
54.3562672150068522
 31
-0.0000000000000121
210
0.0
220
1.0
230
-0.0000000000000002
  0
LINE
  5
4040
  8
0
  6
CONTINUOUS
 62
     3
 10
1462.1342294099570154
 20
49.7044748283236189
 30
-0.000000000000011
 11
1462.5412085088669301
 21
54.3562672150068522
 31
-0.0000000000000121
210
0.0
220
1.0
230
-0.0000000000000002
  0
ARC
  5
4041
  8
0
  6
CONTINUOUS
 62
     3
 10
-1416.0659429712839028
 20
54.9227795428660812
 30
0.0
 40
6.5000000000125064
210
0.0
220
-0.0000000000000002
230
-1.0
 50
355.0000000000144951
 51
0.0000000000045164
  0
ARC
  5
4042
  8
0
  6
CONTINUOUS
 62
     3
 10
-1456.0659429712588917
 20
54.9227795428660812
 30
0.0
 40
6.5000000000125047
210
0.0
220
-0.0000000000000002
230
-1.0
 50
179.9999999999953957
 51
184.9999999999853912
  0
LINE
  5
4043
  8
0
  6
CONTINUOUS
 62
     3
 10
1462.5659429712709425
 20
109.704474828323896
 30
-0.0000000000000244
 11
1462.5659429712709425
 21
54.9227795428665928
 31
-0.0000000000000122
210
0.0
220
1.0
230
-0.0000000000000002
  0
LINE
  5
4044
  8
0
  6
CONTINUOUS
 62
     3
 10
1409.5659429712709425
 20
111.7044748283235975
 30
-0.0000000000000248
 11
1409.5659429712709425
 21
54.9227795428665928
 31
-0.0000000000000122
210
0.0
220
1.0
230
-0.0000000000000002
  0
LINE
  5
4045
  8
0
  6
CONTINUOUS
 62
     3
 10
1384.5675138337880981
 20
111.704474828323896
 30
-0.0000000000000248
 11
1384.5675138337880981
 21
109.704474828323896
 31
-0.0000000000000244
210
0.0
220
1.0
230
-0.0000000000000002
  0
LINE
  5
4046
  8
0
  6
CONTINUOUS
 62
     3
 10
1369.7541793090069859
 20
111.704474828323896
 30
-0.0000000000000248
 11
1345.5659429712709425
 21
111.704474828323896
 31
-0.0000000000000248
210
0.0
220
1.0
230
-0.0000000000000002
  0
ARC
  5
4047
  8
0
  6
CONTINUOUS
 62
     3
 10
1345.5659429712709425
 20
108.704474828323896
 30
-0.0000000000000241
 40
3.0
 50
90.0
 51
180.0000000000005116
  0
LINE
  5
4048
  8
0
  6
CONTINUOUS
 62
     3
 10
1342.5659429712709425
 20
108.704474828323896
 30
-0.0000000000000241
 11
1342.5659429712709425
 21
92.7044748283239102
 31
-0.0000000000000206
210
0.0
220
1.0
230
-0.0000000000000002
  0
ARC
  5
4049
  8
0
  6
CONTINUOUS
 62
     3
 10
-1341.5659429712720794
 20
92.7044748283239102
 30
0.0
 40
1.0
210
0.0
220
-0.0000000000000002
230
-1.0
 50
180.0
 51
270.0
  0
LINE
  5
404A
  8
0
  6
CONTINUOUS
 62
     3
 10
1341.5659429712720794
 20
91.7044748283239244
 30
-0.0000000000000204
 11
1325.4347599721729694
 21
91.7044748283239244
 31
-0.0000000000000204
210
0.0
220
1.0
230
-0.0000000000000002
  0
LINE
  5
404B
  8
0
  6
CONTINUOUS
 62
     3
 10
1325.4347599721729694
 20
89.7044748283239102
 30
-0.0000000000000199
 11
1341.5659429712720794
 21
89.7044748283239102
 31
-0.0000000000000199
210
0.0
220
1.0
230
-0.0000000000000002
  0
ARC
  5
404C
  8
0
  6
CONTINUOUS
 62
     3
 10
1341.5659429712709425
 20
92.7044748283240523
 30
-0.0000000000000206
 40
3.0000000000001128
 50
270.0
 51
359.9999999999973284
  0
LINE
  5
404D
  8
0
  6
CONTINUOUS
 62
     3
 10
1344.5659429712709425
 20
92.7044748283239102
 30
-0.0000000000000206
 11
1344.5659429712709425
 21
108.704474828323896
 31
-0.0000000000000241
210
0.0
220
1.0
230
-0.0000000000000002
  0
ARC
  5
404E
  8
0
  6
CONTINUOUS
 62
     3
 10
-1345.5659429712709425
 20
108.704474828323896
 30
0.0
 40
1.0
210
0.0
220
-0.0000000000000002
230
-1.0
 50
0.0
 51
89.9999999999983658
  0
LINE
  5
404F
  8
0
  6
CONTINUOUS
 62
     3
 10
1345.5659429712709425
 20
109.704474828323896
 30
-0.0000000000000244
 11
1384.5675138337880981
 21
109.704474828323896
 31
-0.0000000000000244
210
0.0
220
1.0
230
-0.0000000000000002
  0
LINE
  5
4050
  8
0
  6
CONTINUOUS
 62
     3
 10
1322.2985345926140326
 20
89.7044748283239102
 30
-0.0000000000000199
 11
1303.5659429712709425
 21
89.7044748283239102
 31
-0.0000000000000199
210
0.0
220
1.0
230
-0.0000000000000002
  0
LINE
  5
4051
  8
0
  6
CONTINUOUS
 62
     3
 10
1322.2985345926140326
 20
91.7044748283239244
 30
-0.0000000000000204
 11
1303.5659429712709425
 21
91.7044748283239244
 31
-0.0000000000000204
210
0.0
220
1.0
230
-0.0000000000000002
  0
LINE
  5
4052
  8
0
  6
CONTINUOUS
 62
     3
 10
1325.4347599721729694
 20
91.7044748283239244
 30
-0.0000000000000204
 11
1322.2985345926140326
 21
91.7044748283239244
 31
-0.0000000000000204
210
0.0
220
1.0
230
-0.0000000000000002
  0
LINE
  5
4053
  8
0
  6
CONTINUOUS
 62
     3
 10
1322.2985345926140326
 20
89.7044748283239102
 30
-0.0000000000000199
 11
1325.4347599721729694
 21
89.7044748283239102
 31
-0.0000000000000199
210
0.0
220
1.0
230
-0.0000000000000002
  0
LINE
  5
4054
  8
0
  6
CONTINUOUS
 62
     3
 10
1303.5659429712709425
 20
89.7044748283239102
 30
-0.0000000000000199
 11
1303.5659429712709425
 21
91.7044748283239244
 31
-0.0000000000000204
210
0.0
220
1.0
230
-0.0000000000000002
  0
POLYLINE
  5
4055
  8
0
  6
CONTINUOUS
 62
     3
 10
1485.6460699901929274
 20
111.704474828323896
 30
-0.0000000000000248
 66
     1
 70
     8
  0
VERTEX
  8
0
  5
40F3
 10
1485.65
 20
111.704
 30
-2.48000e-14
  70
    32
  0
VERTEX
  8
0
  5
40F4
 10
1485.66
 20
111.704
 30
-2.47999e-14
  70
    32
  0
VERTEX
  8
0
  5
40F5
 10
1485.68
 20
111.704
 30
-2.47998e-14
  70
    32
  0
VERTEX
  8
0
  5
40F6
 10
1485.70
 20
111.702
 30
-2.47995e-14
  70
    32
  0
VERTEX
  8
0
  5
40F7
 10
1485.72
 20
111.701
 30
-2.47992e-14
  70
    32
  0
VERTEX
  8
0
  5
40F8
 10
1485.74
 20
111.699
 30
-2.47987e-14
  70
    32
  0
VERTEX
  8
0
  5
40F9
 10
1485.76
 20
111.696
 30
-2.47981e-14
  70
    32
  0
VERTEX
  8
0
  5
40FA
 10
1485.77
 20
111.693
 30
-2.47974e-14
  70
    32
  0
VERTEX
  8
0
  5
40FB
 10
1485.79
 20
111.690
 30
-2.47966e-14
  70
    32
  0
VERTEX
  8
0
  5
40FC
 10
1485.81
 20
111.686
 30
-2.47957e-14
  70
    32
  0
VERTEX
  8
0
  5
40FD
 10
1485.83
 20
111.682
 30
-2.47947e-14
  70
    32
  0
VERTEX
  8
0
  5
40FE
 10
1485.85
 20
111.677
 30
-2.47936e-14
  70
    32
  0
VERTEX
  8
0
  5
40FF
 10
1485.87
 20
111.672
 30
-2.47924e-14
  70
    32
  0
VERTEX
  8
0
  5
4100
 10
1485.88
 20
111.666
 30
-2.47911e-14
  70
    32
  0
VERTEX
  8
0
  5
4101
 10
1485.90
 20
111.660
 30
-2.47897e-14
  70
    32
  0
VERTEX
  8
0
  5
4102
 10
1485.92
 20
111.654
 30
-2.47882e-14
  70
    32
  0
VERTEX
  8
0
  5
4103
 10
1485.94
 20
111.647
 30
-2.47865e-14
  70
    32
  0
VERTEX
  8
0
  5
4104
 10
1485.96
 20
111.639
 30
-2.47848e-14
  70
    32
  0
VERTEX
  8
0
  5
4105
 10
1485.97
 20
111.632
 30
-2.47830e-14
  70
    32
  0
VERTEX
  8
0
  5
4106
 10
1485.99
 20
111.623
 30
-2.47811e-14
  70
    32
  0
VERTEX
  8
0
  5
4107
 10
1486.01
 20
111.615
 30
-2.47790e-14
  70
    32
  0
VERTEX
  8
0
  5
4108
 10
1486.03
 20
111.605
 30
-2.47769e-14
  70
    32
  0
VERTEX
  8
0
  5
4109
 10
1486.05
 20
111.596
 30
-2.47746e-14
  70
    32
  0
VERTEX
  8
0
  5
410A
 10
1486.06
 20
111.586
 30
-2.47723e-14
  70
    32
  0
VERTEX
  8
0
  5
410B
 10
1486.08
 20
111.575
 30
-2.47699e-14
  70
    32
  0
VERTEX
  8
0
  5
410C
 10
1486.10
 20
111.564
 30
-2.47673e-14
  70
    32
  0
VERTEX
  8
0
  5
410D
 10
1486.12
 20
111.553
 30
-2.47647e-14
  70
    32
  0
VERTEX
  8
0
  5
410E
 10
1486.13
 20
111.541
 30
-2.47619e-14
  70
    32
  0
VERTEX
  8
0
  5
410F
 10
1486.15
 20
111.529
 30
-2.47591e-14
  70
    32
  0
VERTEX
  8
0
  5
4110
 10
1486.17
 20
111.516
 30
-2.47561e-14
  70
    32
  0
VERTEX
  8
0
  5
4111
 10
1486.19
 20
111.503
 30
-2.47531e-14
  70
    32
  0
VERTEX
  8
0
  5
4112
 10
1486.20
 20
111.490
 30
-2.47500e-14
  70
    32
  0
VERTEX
  8
0
  5
4113
 10
1486.22
 20
111.476
 30
-2.47467e-14
  70
    32
  0
VERTEX
  8
0
  5
4114
 10
1486.24
 20
111.462
 30
-2.47434e-14
  70
    32
  0
VERTEX
  8
0
  5
4115
 10
1486.25
 20
111.447
 30
-2.47399e-14
  70
    32
  0
VERTEX
  8
0
  5
4116
 10
1486.27
 20
111.432
 30
-2.47364e-14
  70
    32
  0
VERTEX
  8
0
  5
4117
 10
1486.29
 20
111.416
 30
-2.47328e-14
  70
    32
  0
VERTEX
  8
0
  5
4118
 10
1486.30
 20
111.400
 30
-2.47291e-14
  70
    32
  0
VERTEX
  8
0
  5
4119
 10
1486.32
 20
111.384
 30
-2.47253e-14
  70
    32
  0
VERTEX
  8
0
  5
411A
 10
1486.34
 20
111.367
 30
-2.47213e-14
  70
    32
  0
VERTEX
  8
0
  5
411B
 10
1486.35
 20
111.350
 30
-2.47173e-14
  70
    32
  0
VERTEX
  8
0
  5
411C
 10
1486.37
 20
111.333
 30
-2.47132e-14
  70
    32
  0
VERTEX
  8
0
  5
411D
 10
1486.39
 20
111.315
 30
-2.47091e-14
  70
    32
  0
VERTEX
  8
0
  5
411E
 10
1486.40
 20
111.296
 30
-2.47048e-14
  70
    32
  0
VERTEX
  8
0
  5
411F
 10
1486.42
 20
111.278
 30
-2.47004e-14
  70
    32
  0
VERTEX
  8
0
  5
4120
 10
1486.43
 20
111.259
 30
-2.46959e-14
  70
    32
  0
VERTEX
  8
0
  5
4121
 10
1486.45
 20
111.239
 30
-2.46914e-14
  70
    32
  0
VERTEX
  8
0
  5
4122
 10
1486.46
 20
111.219
 30
-2.46868e-14
  70
    32
  0
VERTEX
  8
0
  5
4123
 10
1486.48
 20
111.199
 30
-2.46820e-14
  70
    32
  0
VERTEX
  8
0
  5
4124
 10
1486.49
 20
111.178
 30
-2.46772e-14
  70
    32
  0
VERTEX
  8
0
  5
4125
 10
1486.51
 20
111.157
 30
-2.46723e-14
  70
    32
  0
VERTEX
  8
0
  5
4126
 10
1486.52
 20
111.136
 30
-2.46673e-14
  70
    32
  0
VERTEX
  8
0
  5
4127
 10
1486.54
 20
111.114
 30
-2.46622e-14
  70
    32
  0
VERTEX
  8
0
  5
4128
 10
1486.55
 20
111.092
 30
-2.46571e-14
  70
    32
  0
VERTEX
  8
0
  5
4129
 10
1486.57
 20
111.070
 30
-2.46518e-14
  70
    32
  0
VERTEX
  8
0
  5
412A
 10
1486.58
 20
111.047
 30
-2.46465e-14
  70
    32
  0
VERTEX
  8
0
  5
412B
 10
1486.60
 20
111.024
 30
-2.46411e-14
  70
    32
  0
VERTEX
  8
0
  5
412C
 10
1486.61
 20
111.000
 30
-2.46356e-14
  70
    32
  0
VERTEX
  8
0
  5
412D
 10
1486.63
 20
110.976
 30
-2.46300e-14
  70
    32
  0
VERTEX
  8
0
  5
412E
 10
1486.64
 20
110.952
 30
-2.46244e-14
  70
    32
  0
VERTEX
  8
0
  5
412F
 10
1486.65
 20
110.927
 30
-2.46187e-14
  70
    32
  0
VERTEX
  8
0
  5
4130
 10
1486.67
 20
110.902
 30
-2.46129e-14
  70
    32
  0
VERTEX
  8
0
  5
4131
 10
1486.68
 20
110.877
 30
-2.46070e-14
  70
    32
  0
VERTEX
  8
0
  5
4132
 10
1486.69
 20
110.852
 30
-2.46010e-14
  70
    32
  0
VERTEX
  8
0
  5
4133
 10
1486.71
 20
110.826
 30
-2.45950e-14
  70
    32
  0
VERTEX
  8
0
  5
4134
 10
1486.72
 20
110.800
 30
-2.45889e-14
  70
    32
  0
VERTEX
  8
0
  5
4135
 10
1486.73
 20
110.773
 30
-2.45827e-14
  70
    32
  0
VERTEX
  8
0
  5
4136
 10
1486.75
 20
110.746
 30
-2.45764e-14
  70
    32
  0
VERTEX
  8
0
  5
4137
 10
1486.76
 20
110.719
 30
-2.45701e-14
  70
    32
  0
VERTEX
  8
0
  5
4138
 10
1486.77
 20
110.692
 30
-2.45637e-14
  70
    32
  0
VERTEX
  8
0
  5
4139
 10
1486.78
 20
110.664
 30
-2.45572e-14
  70
    32
  0
VERTEX
  8
0
  5
413A
 10
1486.79
 20
110.636
 30
-2.45507e-14
  70
    32
  0
VERTEX
  8
0
  5
413B
 10
1486.81
 20
110.608
 30
-2.45441e-14
  70
    32
  0
VERTEX
  8
0
  5
413C
 10
1486.82
 20
110.579
 30
-2.45374e-14
  70
    32
  0
VERTEX
  8
0
  5
413D
 10
1486.83
 20
110.550
 30
-2.45307e-14
  70
    32
  0
VERTEX
  8
0
  5
413E
 10
1486.84
 20
110.521
 30
-2.45239e-14
  70
    32
  0
VERTEX
  8
0
  5
413F
 10
1486.85
 20
110.492
 30
-2.45170e-14
  70
    32
  0
VERTEX
  8
0
  5
4140
 10
1486.86
 20
110.462
 30
-2.45101e-14
  70
    32
  0
VERTEX
  8
0
  5
4141
 10
1486.87
 20
110.432
 30
-2.45031e-14
  70
    32
  0
VERTEX
  8
0
  5
4142
 10
1486.88
 20
110.402
 30
-2.44960e-14
  70
    32
  0
VERTEX
  8
0
  5
4143
 10
1486.89
 20
110.371
 30
-2.44889e-14
  70
    32
  0
VERTEX
  8
0
  5
4144
 10
1486.90
 20
110.340
 30
-2.44817e-14
  70
    32
  0
VERTEX
  8
0
  5
4145
 10
1486.91
 20
110.309
 30
-2.44745e-14
  70
    32
  0
VERTEX
  8
0
  5
4146
 10
1486.92
 20
110.278
 30
-2.44672e-14
  70
    32
  0
VERTEX
  8
0
  5
4147
 10
1486.93
 20
110.247
 30
-2.44599e-14
  70
    32
  0
VERTEX
  8
0
  5
4148
 10
1486.94
 20
110.215
 30
-2.44525e-14
  70
    32
  0
VERTEX
  8
0
  5
4149
 10
1486.95
 20
110.183
 30
-2.44450e-14
  70
    32
  0
VERTEX
  8
0
  5
414A
 10
1486.96
 20
110.151
 30
-2.44375e-14
  70
    32
  0
VERTEX
  8
0
  5
414B
 10
1486.97
 20
110.119
 30
-2.44300e-14
  70
    32
  0
VERTEX
  8
0
  5
414C
 10
1486.98
 20
110.086
 30
-2.44224e-14
  70
    32
  0
VERTEX
  8
0
  5
414D
 10
1486.99
 20
110.053
 30
-2.44147e-14
  70
    32
  0
VERTEX
  8
0
  5
414E
 10
1486.99
 20
110.020
 30
-2.44070e-14
  70
    32
  0
VERTEX
  8
0
  5
414F
 10
1487.00
 20
109.987
 30
-2.43993e-14
  70
    32
  0
VERTEX
  8
0
  5
4150
 10
1487.01
 20
109.954
 30
-2.43915e-14
  70
    32
  0
VERTEX
  8
0
  5
4151
 10
1487.02
 20
109.920
 30
-2.43837e-14
  70
    32
  0
VERTEX
  8
0
  5
4152
 10
1487.02
 20
109.886
 30
-2.43758e-14
  70
    32
  0
VERTEX
  8
0
  5
4153
 10
1487.03
 20
109.853
 30
-2.43679e-14
  70
    32
  0
VERTEX
  8
0
  5
4154
 10
1487.04
 20
109.818
 30
-2.43599e-14
  70
    32
  0
VERTEX
  8
0
  5
4155
 10
1487.05
 20
109.784
 30
-2.43519e-14
  70
    32
  0
VERTEX
  8
0
  5
4156
 10
1487.05
 20
109.750
 30
-2.43439e-14
  70
    32
  0
VERTEX
  8
0
  5
4157
 10
1487.06
 20
109.715
 30
-2.43358e-14
  70
    32
  0
VERTEX
  8
0
  5
4158
 10
1487.06
 20
109.680
 30
-2.43277e-14
  70
    32
  0
VERTEX
  8
0
  5
4159
 10
1487.07
 20
109.646
 30
-2.43196e-14
  70
    32
  0
VERTEX
  8
0
  5
415A
 10
1487.08
 20
109.610
 30
-2.43114e-14
  70
    32
  0
VERTEX
  8
0
  5
415B
 10
1487.08
 20
109.575
 30
-2.43032e-14
  70
    32
  0
VERTEX
  8
0
  5
415C
 10
1487.09
 20
109.540
 30
-2.42950e-14
  70
    32
  0
VERTEX
  8
0
  5
415D
 10
1487.09
 20
109.505
 30
-2.42867e-14
  70
    32
  0
VERTEX
  8
0
  5
415E
 10
1487.10
 20
109.469
 30
-2.42784e-14
  70
    32
  0
VERTEX
  8
0
  5
415F
 10
1487.10
 20
109.433
 30
-2.42701e-14
  70
    32
  0
VERTEX
  8
0
  5
4160
 10
1487.11
 20
109.398
 30
-2.42617e-14
  70
    32
  0
VERTEX
  8
0
  5
4161
 10
1487.11
 20
109.362
 30
-2.42534e-14
  70
    32
  0
VERTEX
  8
0
  5
4162
 10
1487.11
 20
109.326
 30
-2.42450e-14
  70
    32
  0
VERTEX
  8
0
  5
4163
 10
1487.12
 20
109.290
 30
-2.42366e-14
  70
    32
  0
VERTEX
  8
0
  5
4164
 10
1487.12
 20
109.254
 30
-2.42281e-14
  70
    32
  0
VERTEX
  8
0
  5
4165
 10
1487.12
 20
109.217
 30
-2.42197e-14
  70
    32
  0
VERTEX
  8
0
  5
4166
 10
1487.13
 20
109.181
 30
-2.42112e-14
  70
    32
  0
VERTEX
  8
0
  5
4167
 10
1487.13
 20
109.145
 30
-2.42027e-14
  70
    32
  0
VERTEX
  8
0
  5
4168
 10
1487.13
 20
109.108
 30
-2.41942e-14
  70
    32
  0
VERTEX
  8
0
  5
4169
 10
1487.13
 20
109.072
 30
-2.41857e-14
  70
    32
  0
VERTEX
  8
0
  5
416A
 10
1487.14
 20
109.035
 30
-2.41772e-14
  70
    32
  0
VERTEX
  8
0
  5
416B
 10
1487.14
 20
108.999
 30
-2.41686e-14
  70
    32
  0
VERTEX
  8
0
  5
416C
 10
1487.14
 20
108.962
 30
-2.41601e-14
  70
    32
  0
VERTEX
  8
0
  5
416D
 10
1487.14
 20
108.925
 30
-2.41515e-14
  70
    32
  0
VERTEX
  8
0
  5
416E
 10
1487.14
 20
108.888
 30
-2.41429e-14
  70
    32
  0
VERTEX
  8
0
  5
416F
 10
1487.14
 20
108.852
 30
-2.41343e-14
  70
    32
  0
VERTEX
  8
0
  5
4170
 10
1487.15
 20
108.815
 30
-2.41258e-14
  70
    32
  0
VERTEX
  8
0
  5
4171
 10
1487.15
 20
108.778
 30
-2.41172e-14
  70
    32
  0
VERTEX
  8
0
  5
4172
 10
1487.15
 20
108.741
 30
-2.41086e-14
  70
    32
  0
VERTEX
  8
0
  5
4173
 10
1487.15
 20
108.704
 30
-2.41000e-14
  70
    32
  0
SEQEND
  8
0
  5
4174
  0
LINE
  5
4056
  8
0
  6
CONTINUOUS
 62
     3
 10
1487.1460699901929274
 20
108.704474828323896
 30
-0.0000000000000241
 11
1487.1460699901929274
 21
92.7044748283239102
 31
-0.0000000000000206
210
0.0
220
1.0
230
-0.0000000000000002
  0
POLYLINE
  5
4057
  8
0
  6
CONTINUOUS
 62
     3
 10
1487.1460699901920179
 20
92.7044748283239102
 30
-0.0000000000000206
 66
     1
 70
     8
  0
VERTEX
  8
0
  5
4175
 10
1487.15
 20
92.7045
 30
-2.06000e-14
  70
    32
  0
VERTEX
  8
0
  5
4176
 10
1487.15
 20
92.6922
 30
-2.05975e-14
  70
    32
  0
VERTEX
  8
0
  5
4177
 10
1487.15
 20
92.6799
 30
-2.05951e-14
  70
    32
  0
VERTEX
  8
0
  5
4178
 10
1487.15
 20
92.6677
 30
-2.05926e-14
  70
    32
  0
VERTEX
  8
0
  5
4179
 10
1487.15
 20
92.6554
 30
-2.05902e-14
  70
    32
  0
VERTEX
  8
0
  5
417A
 10
1487.15
 20
92.6432
 30
-2.05877e-14
  70
    32
  0
VERTEX
  8
0
  5
417B
 10
1487.15
 20
92.6309
 30
-2.05853e-14
  70
    32
  0
VERTEX
  8
0
  5
417C
 10
1487.15
 20
92.6187
 30
-2.05828e-14
  70
    32
  0
VERTEX
  8
0
  5
417D
 10
1487.15
 20
92.6065
 30
-2.05804e-14
  70
    32
  0
VERTEX
  8
0
  5
417E
 10
1487.15
 20
92.5943
 30
-2.05780e-14
  70
    32
  0
VERTEX
  8
0
  5
417F
 10
1487.15
 20
92.5821
 30
-2.05755e-14
  70
    32
  0
VERTEX
  8
0
  5
4180
 10
1487.15
 20
92.5699
 30
-2.05731e-14
  70
    32
  0
VERTEX
  8
0
  5
4181
 10
1487.15
 20
92.5577
 30
-2.05707e-14
  70
    32
  0
VERTEX
  8
0
  5
4182
 10
1487.15
 20
92.5456
 30
-2.05682e-14
  70
    32
  0
VERTEX
  8
0
  5
4183
 10
1487.15
 20
92.5335
 30
-2.05658e-14
  70
    32
  0
VERTEX
  8
0
  5
4184
 10
1487.15
 20
92.5214
 30
-2.05634e-14
  70
    32
  0
VERTEX
  8
0
  5
4185
 10
1487.16
 20
92.5094
 30
-2.05610e-14
  70
    32
  0
VERTEX
  8
0
  5
4186
 10
1487.16
 20
92.4974
 30
-2.05586e-14
  70
    32
  0
VERTEX
  8
0
  5
4187
 10
1487.16
 20
92.4854
 30
-2.05562e-14
  70
    32
  0
VERTEX
  8
0
  5
4188
 10
1487.16
 20
92.4734
 30
-2.05538e-14
  70
    32
  0
VERTEX
  8
0
  5
4189
 10
1487.16
 20
92.4615
 30
-2.05514e-14
  70
    32
  0
VERTEX
  8
0
  5
418A
 10
1487.16
 20
92.4496
 30
-2.05490e-14
  70
    32
  0
VERTEX
  8
0
  5
418B
 10
1487.16
 20
92.4378
 30
-2.05467e-14
  70
    32
  0
VERTEX
  8
0
  5
418C
 10
1487.17
 20
92.4260
 30
-2.05443e-14
  70
    32
  0
VERTEX
  8
0
  5
418D
 10
1487.17
 20
92.4142
 30
-2.05419e-14
  70
    32
  0
VERTEX
  8
0
  5
418E
 10
1487.17
 20
92.4025
 30
-2.05396e-14
  70
    32
  0
VERTEX
  8
0
  5
418F
 10
1487.17
 20
92.3908
 30
-2.05373e-14
  70
    32
  0
VERTEX
  8
0
  5
4190
 10
1487.17
 20
92.3792
 30
-2.05349e-14
  70
    32
  0
VERTEX
  8
0
  5
4191
 10
1487.18
 20
92.3676
 30
-2.05326e-14
  70
    32
  0
VERTEX
  8
0
  5
4192
 10
1487.18
 20
92.3561
 30
-2.05303e-14
  70
    32
  0
VERTEX
  8
0
  5
4193
 10
1487.18
 20
92.3446
 30
-2.05280e-14
  70
    32
  0
VERTEX
  8
0
  5
4194
 10
1487.18
 20
92.3332
 30
-2.05257e-14
  70
    32
  0
VERTEX
  8
0
  5
4195
 10
1487.18
 20
92.3218
 30
-2.05235e-14
  70
    32
  0
VERTEX
  8
0
  5
4196
 10
1487.19
 20
92.3105
 30
-2.05212e-14
  70
    32
  0
VERTEX
  8
0
  5
4197
 10
1487.19
 20
92.2992
 30
-2.05190e-14
  70
    32
  0
VERTEX
  8
0
  5
4198
 10
1487.19
 20
92.2880
 30
-2.05167e-14
  70
    32
  0
VERTEX
  8
0
  5
4199
 10
1487.19
 20
92.2769
 30
-2.05145e-14
  70
    32
  0
VERTEX
  8
0
  5
419A
 10
1487.20
 20
92.2659
 30
-2.05123e-14
  70
    32
  0
VERTEX
  8
0
  5
419B
 10
1487.20
 20
92.2549
 30
-2.05101e-14
  70
    32
  0
VERTEX
  8
0
  5
419C
 10
1487.20
 20
92.2439
 30
-2.05079e-14
  70
    32
  0
VERTEX
  8
0
  5
419D
 10
1487.21
 20
92.2331
 30
-2.05057e-14
  70
    32
  0
VERTEX
  8
0
  5
419E
 10
1487.21
 20
92.2223
 30
-2.05036e-14
  70
    32
  0
VERTEX
  8
0
  5
419F
 10
1487.21
 20
92.2116
 30
-2.05014e-14
  70
    32
  0
VERTEX
  8
0
  5
41A0
 10
1487.21
 20
92.2009
 30
-2.04993e-14
  70
    32
  0
VERTEX
  8
0
  5
41A1
 10
1487.22
 20
92.1904
 30
-2.04972e-14
  70
    32
  0
VERTEX
  8
0
  5
41A2
 10
1487.22
 20
92.1799
 30
-2.04951e-14
  70
    32
  0
VERTEX
  8
0
  5
41A3
 10
1487.22
 20
92.1695
 30
-2.04930e-14
  70
    32
  0
VERTEX
  8
0
  5
41A4
 10
1487.23
 20
92.1591
 30
-2.04909e-14
  70
    32
  0
VERTEX
  8
0
  5
41A5
 10
1487.23
 20
92.1489
 30
-2.04889e-14
  70
    32
  0
VERTEX
  8
0
  5
41A6
 10
1487.23
 20
92.1387
 30
-2.04869e-14
  70
    32
  0
VERTEX
  8
0
  5
41A7
 10
1487.24
 20
92.1287
 30
-2.04848e-14
  70
    32
  0
VERTEX
  8
0
  5
41A8
 10
1487.24
 20
92.1187
 30
-2.04828e-14
  70
    32
  0
VERTEX
  8
0
  5
41A9
 10
1487.24
 20
92.1088
 30
-2.04809e-14
  70
    32
  0
VERTEX
  8
0
  5
41AA
 10
1487.25
 20
92.0990
 30
-2.04789e-14
  70
    32
  0
VERTEX
  8
0
  5
41AB
 10
1487.25
 20
92.0892
 30
-2.04770e-14
  70
    32
  0
VERTEX
  8
0
  5
41AC
 10
1487.26
 20
92.0796
 30
-2.04750e-14
  70
    32
  0
VERTEX
  8
0
  5
41AD
 10
1487.26
 20
92.0701
 30
-2.04731e-14
  70
    32
  0
VERTEX
  8
0
  5
41AE
 10
1487.26
 20
92.0606
 30
-2.04712e-14
  70
    32
  0
VERTEX
  8
0
  5
41AF
 10
1487.27
 20
92.0513
 30
-2.04694e-14
  70
    32
  0
VERTEX
  8
0
  5
41B0
 10
1487.27
 20
92.0421
 30
-2.04675e-14
  70
    32
  0
VERTEX
  8
0
  5
41B1
 10
1487.28
 20
92.0329
 30
-2.04657e-14
  70
    32
  0
VERTEX
  8
0
  5
41B2
 10
1487.28
 20
92.0239
 30
-2.04639e-14
  70
    32
  0
VERTEX
  8
0
  5
41B3
 10
1487.28
 20
92.0149
 30
-2.04621e-14
  70
    32
  0
VERTEX
  8
0
  5
41B4
 10
1487.29
 20
92.0061
 30
-2.04603e-14
  70
    32
  0
VERTEX
  8
0
  5
41B5
 10
1487.29
 20
91.9974
 30
-2.04586e-14
  70
    32
  0
VERTEX
  8
0
  5
41B6
 10
1487.30
 20
91.9887
 30
-2.04569e-14
  70
    32
  0
VERTEX
  8
0
  5
41B7
 10
1487.30
 20
91.9802
 30
-2.04552e-14
  70
    32
  0
VERTEX
  8
0
  5
41B8
 10
1487.31
 20
91.9718
 30
-2.04535e-14
  70
    32
  0
VERTEX
  8
0
  5
41B9
 10
1487.31
 20
91.9635
 30
-2.04518e-14
  70
    32
  0
VERTEX
  8
0
  5
41BA
 10
1487.31
 20
91.9553
 30
-2.04502e-14
  70
    32
  0
VERTEX
  8
0
  5
41BB
 10
1487.32
 20
91.9473
 30
-2.04486e-14
  70
    32
  0
VERTEX
  8
0
  5
41BC
 10
1487.32
 20
91.9393
 30
-2.04470e-14
  70
    32
  0
VERTEX
  8
0
  5
41BD
 10
1487.33
 20
91.9315
 30
-2.04454e-14
  70
    32
  0
VERTEX
  8
0
  5
41BE
 10
1487.33
 20
91.9237
 30
-2.04439e-14
  70
    32
  0
VERTEX
  8
0
  5
41BF
 10
1487.34
 20
91.9161
 30
-2.04423e-14
  70
    32
  0
VERTEX
  8
0
  5
41C0
 10
1487.34
 20
91.9086
 30
-2.04408e-14
  70
    32
  0
VERTEX
  8
0
  5
41C1
 10
1487.35
 20
91.9013
 30
-2.04394e-14
  70
    32
  0
VERTEX
  8
0
  5
41C2
 10
1487.35
 20
91.8940
 30
-2.04379e-14
  70
    32
  0
VERTEX
  8
0
  5
41C3
 10
1487.36
 20
91.8869
 30
-2.04365e-14
  70
    32
  0
VERTEX
  8
0
  5
41C4
 10
1487.36
 20
91.8799
 30
-2.04351e-14
  70
    32
  0
VERTEX
  8
0
  5
41C5
 10
1487.37
 20
91.8730
 30
-2.04337e-14
  70
    32
  0
VERTEX
  8
0
  5
41C6
 10
1487.37
 20
91.8663
 30
-2.04324e-14
  70
    32
  0
VERTEX
  8
0
  5
41C7
 10
1487.38
 20
91.8596
 30
-2.04310e-14
  70
    32
  0
VERTEX
  8
0
  5
41C8
 10
1487.38
 20
91.8531
 30
-2.04297e-14
  70
    32
  0
VERTEX
  8
0
  5
41C9
 10
1487.39
 20
91.8467
 30
-2.04285e-14
  70
    32
  0
VERTEX
  8
0
  5
41CA
 10
1487.39
 20
91.8405
 30
-2.04272e-14
  70
    32
  0
VERTEX
  8
0
  5
41CB
 10
1487.40
 20
91.8344
 30
-2.04260e-14
  70
    32
  0
VERTEX
  8
0
  5
41CC
 10
1487.40
 20
91.8284
 30
-2.04248e-14
  70
    32
  0
VERTEX
  8
0
  5
41CD
 10
1487.41
 20
91.8226
 30
-2.04236e-14
  70
    32
  0
VERTEX
  8
0
  5
41CE
 10
1487.42
 20
91.8168
 30
-2.04225e-14
  70
    32
  0
VERTEX
  8
0
  5
41CF
 10
1487.42
 20
91.8113
 30
-2.04214e-14
  70
    32
  0
VERTEX
  8
0
  5
41D0
 10
1487.43
 20
91.8058
 30
-2.04203e-14
  70
    32
  0
VERTEX
  8
0
  5
41D1
 10
1487.43
 20
91.8005
 30
-2.04192e-14
  70
    32
  0
VERTEX
  8
0
  5
41D2
 10
1487.44
 20
91.7953
 30
-2.04182e-14
  70
    32
  0
VERTEX
  8
0
  5
41D3
 10
1487.44
 20
91.7903
 30
-2.04172e-14
  70
    32
  0
VERTEX
  8
0
  5
41D4
 10
1487.45
 20
91.7854
 30
-2.04162e-14
  70
    32
  0
VERTEX
  8
0
  5
41D5
 10
1487.45
 20
91.7806
 30
-2.04152e-14
  70
    32
  0
VERTEX
  8
0
  5
41D6
 10
1487.46
 20
91.7760
 30
-2.04143e-14
  70
    32
  0
VERTEX
  8
0
  5
41D7
 10
1487.47
 20
91.7715
 30
-2.04134e-14
  70
    32
  0
VERTEX
  8
0
  5
41D8
 10
1487.47
 20
91.7671
 30
-2.04125e-14
  70
    32
  0
VERTEX
  8
0
  5
41D9
 10
1487.48
 20
91.7629
 30
-2.04117e-14
  70
    32
  0
VERTEX
  8
0
  5
41DA
 10
1487.48
 20
91.7589
 30
-2.04109e-14
  70
    32
  0
VERTEX
  8
0
  5
41DB
 10
1487.49
 20
91.7549
 30
-2.04101e-14
  70
    32
  0
VERTEX
  8
0
  5
41DC
 10
1487.50
 20
91.7512
 30
-2.04093e-14
  70
    32
  0
VERTEX
  8
0
  5
41DD
 10
1487.50
 20
91.7475
 30
-2.04086e-14
  70
    32
  0
VERTEX
  8
0
  5
41DE
 10
1487.51
 20
91.7440
 30
-2.04079e-14
  70
    32
  0
VERTEX
  8
0
  5
41DF
 10
1487.51
 20
91.7407
 30
-2.04072e-14
  70
    32
  0
VERTEX
  8
0
  5
41E0
 10
1487.52
 20
91.7375
 30
-2.04066e-14
  70
    32
  0
VERTEX
  8
0
  5
41E1
 10
1487.52
 20
91.7344
 30
-2.04060e-14
  70
    32
  0
VERTEX
  8
0
  5
41E2
 10
1487.53
 20
91.7315
 30
-2.04054e-14
  70
    32
  0
VERTEX
  8
0
  5
41E3
 10
1487.54
 20
91.7288
 30
-2.04049e-14
  70
    32
  0
VERTEX
  8
0
  5
41E4
 10
1487.54
 20
91.7262
 30
-2.04043e-14
  70
    32
  0
VERTEX
  8
0
  5
41E5
 10
1487.55
 20
91.7237
 30
-2.04038e-14
  70
    32
  0
VERTEX
  8
0
  5
41E6
 10
1487.55
 20
91.7214
 30
-2.04034e-14
  70
    32
  0
VERTEX
  8
0
  5
41E7
 10
1487.56
 20
91.7192
 30
-2.04029e-14
  70
    32
  0
VERTEX
  8
0
  5
41E8
 10
1487.57
 20
91.7172
 30
-2.04025e-14
  70
    32
  0
VERTEX
  8
0
  5
41E9
 10
1487.57
 20
91.7153
 30
-2.04022e-14
  70
    32
  0
VERTEX
  8
0
  5
41EA
 10
1487.58
 20
91.7136
 30
-2.04018e-14
  70
    32
  0
VERTEX
  8
0
  5
41EB
 10
1487.58
 20
91.7120
 30
-2.04015e-14
  70
    32
  0
VERTEX
  8
0
  5
41EC
 10
1487.59
 20
91.7106
 30
-2.04012e-14
  70
    32
  0
VERTEX
  8
0
  5
41ED
 10
1487.60
 20
91.7093
 30
-2.04010e-14
  70
    32
  0
VERTEX
  8
0
  5
41EE
 10
1487.60
 20
91.7082
 30
-2.04007e-14
  70
    32
  0
VERTEX
  8
0
  5
41EF
 10
1487.61
 20
91.7072
 30
-2.04005e-14
  70
    32
  0
VERTEX
  8
0
  5
41F0
 10
1487.62
 20
91.7064
 30
-2.04004e-14
  70
    32
  0
VERTEX
  8
0
  5
41F1
 10
1487.62
 20
91.7057
 30
-2.04002e-14
  70
    32
  0
VERTEX
  8
0
  5
41F2
 10
1487.63
 20
91.7052
 30
-2.04001e-14
  70
    32
  0
VERTEX
  8
0
  5
41F3
 10
1487.63
 20
91.7048
 30
-2.04001e-14
  70
    32
  0
VERTEX
  8
0
  5
41F4
 10
1487.64
 20
91.7046
 30
-2.04000e-14
  70
    32
  0
VERTEX
  8
0
  5
41F5
 10
1487.65
 20
91.7045
 30
-2.04000e-14
  70
    32
  0
SEQEND
  8
0
  5
41F6
  0
LINE
  5
4058
  8
0
  6
CONTINUOUS
 62
     3
 10
1464.8916977834810496
 20
111.704474828323896
 30
-0.0000000000000248
 11
1476.9858159523480481
 21
111.704474828323896
 31
-0.0000000000000248
210
0.0
220
1.0
230
-0.0000000000000002
  0
LINE
  5
4059
  8
0
  6
CONTINUOUS
 62
     3
 10
1476.9858159523480481
 20
111.704474828323896
 30
-0.0000000000000248
 11
1485.6460699901929274
 21
111.704474828323896
 31
-0.0000000000000248
210
0.0
220
1.0
230
-0.0000000000000002
  0
LINE
  5
405A
  8
0
  6
CONTINUOUS
 62
     3
 10
1507.565942971270033
 20
89.7044748283239102
 30
-0.0000000000000199
 11
1486.565942971270033
 21
89.7044748283239102
 31
-0.0000000000000199
210
0.0
220
1.0
230
-0.0000000000000002
  0
LINE
  5
405B
  8
0
  6
CONTINUOUS
 62
     3
 10
1507.565942971270033
 20
91.7044748283239244
 30
-0.0000000000000204
 11
1486.565942971270033
 21
91.7044748283239244
 31
-0.0000000000000204
210
0.0
220
1.0
230
-0.0000000000000002
  0
LINE
  5
405C
  8
0
  6
CONTINUOUS
 62
     3
 10
1486.565942971270033
 20
91.7044748283239244
 30
-0.0000000000000204
 11
1478.9858159523480481
 21
91.7044748283239244
 31
-0.0000000000000204
210
0.0
220
1.0
230
-0.0000000000000002
  0
POLYLINE
  5
405D
  8
0
  6
CONTINUOUS
 62
     3
 10
1477.4858159523480481
 20
92.7044748283239102
 30
-0.0000000000000206
 66
     1
 70
     8
  0
VERTEX
  8
0
  5
41F7
 10
1477.49
 20
92.7045
 30
-2.06000e-14
  70
    32
  0
VERTEX
  8
0
  5
41F8
 10
1477.49
 20
92.6677
 30
-2.05914e-14
  70
    32
  0
VERTEX
  8
0
  5
41F9
 10
1477.49
 20
92.6309
 30
-2.05828e-14
  70
    32
  0
VERTEX
  8
0
  5
41FA
 10
1477.49
 20
92.5941
 30
-2.05742e-14
  70
    32
  0
VERTEX
  8
0
  5
41FB
 10
1477.49
 20
92.5573
 30
-2.05657e-14
  70
    32
  0
VERTEX
  8
0
  5
41FC
 10
1477.49
 20
92.5205
 30
-2.05571e-14
  70
    32
  0
VERTEX
  8
0
  5
41FD
 10
1477.49
 20
92.4838
 30
-2.05485e-14
  70
    32
  0
VERTEX
  8
0
  5
41FE
 10
1477.49
 20
92.4471
 30
-2.05399e-14
  70
    32
  0
VERTEX
  8
0
  5
41FF
 10
1477.49
 20
92.4104
 30
-2.05314e-14
  70
    32
  0
VERTEX
  8
0
  5
4200
 10
1477.49
 20
92.3738
 30
-2.05228e-14
  70
    32
  0
VERTEX
  8
0
  5
4201
 10
1477.50
 20
92.3372
 30
-2.05143e-14
  70
    32
  0
VERTEX
  8
0
  5
4202
 10
1477.50
 20
92.3007
 30
-2.05058e-14
  70
    32
  0
VERTEX
  8
0
  5
4203
 10
1477.50
 20
92.2643
 30
-2.04973e-14
  70
    32
  0
VERTEX
  8
0
  5
4204
 10
1477.50
 20
92.2279
 30
-2.04888e-14
  70
    32
  0
VERTEX
  8
0
  5
4205
 10
1477.51
 20
92.1916
 30
-2.04803e-14
  70
    32
  0
VERTEX
  8
0
  5
4206
 10
1477.51
 20
92.1554
 30
-2.04719e-14
  70
    32
  0
VERTEX
  8
0
  5
4207
 10
1477.51
 20
92.1192
 30
-2.04634e-14
  70
    32
  0
VERTEX
  8
0
  5
4208
 10
1477.52
 20
92.0831
 30
-2.04550e-14
  70
    32
  0
VERTEX
  8
0
  5
4209
 10
1477.52
 20
92.0472
 30
-2.04466e-14
  70
    32
  0
VERTEX
  8
0
  5
420A
 10
1477.53
 20
92.0113
 30
-2.04383e-14
  70
    32
  0
VERTEX
  8
0
  5
420B
 10
1477.53
 20
91.9755
 30
-2.04299e-14
  70
    32
  0
VERTEX
  8
0
  5
420C
 10
1477.54
 20
91.9399
 30
-2.04216e-14
  70
    32
  0
VERTEX
  8
0
  5
420D
 10
1477.54
 20
91.9043
 30
-2.04133e-14
  70
    32
  0
VERTEX
  8
0
  5
420E
 10
1477.55
 20
91.8689
 30
-2.04050e-14
  70
    32
  0
VERTEX
  8
0
  5
420F
 10
1477.55
 20
91.8336
 30
-2.03968e-14
  70
    32
  0
VERTEX
  8
0
  5
4210
 10
1477.56
 20
91.7985
 30
-2.03886e-14
  70
    32
  0
VERTEX
  8
0
  5
4211
 10
1477.56
 20
91.7634
 30
-2.03804e-14
  70
    32
  0
VERTEX
  8
0
  5
4212
 10
1477.57
 20
91.7285
 30
-2.03723e-14
  70
    32
  0
VERTEX
  8
0
  5
4213
 10
1477.57
 20
91.6938
 30
-2.03642e-14
  70
    32
  0
VERTEX
  8
0
  5
4214
 10
1477.58
 20
91.6592
 30
-2.03561e-14
  70
    32
  0
VERTEX
  8
0
  5
4215
 10
1477.59
 20
91.6248
 30
-2.03481e-14
  70
    32
  0
VERTEX
  8
0
  5
4216
 10
1477.59
 20
91.5905
 30
-2.03401e-14
  70
    32
  0
VERTEX
  8
0
  5
4217
 10
1477.60
 20
91.5564
 30
-2.03321e-14
  70
    32
  0
VERTEX
  8
0
  5
4218
 10
1477.61
 20
91.5225
 30
-2.03242e-14
  70
    32
  0
VERTEX
  8
0
  5
4219
 10
1477.61
 20
91.4888
 30
-2.03163e-14
  70
    32
  0
VERTEX
  8
0
  5
421A
 10
1477.62
 20
91.4552
 30
-2.03085e-14
  70
    32
  0
VERTEX
  8
0
  5
421B
 10
1477.63
 20
91.4218
 30
-2.03007e-14
  70
    32
  0
VERTEX
  8
0
  5
421C
 10
1477.64
 20
91.3886
 30
-2.02930e-14
  70
    32
  0
VERTEX
  8
0
  5
421D
 10
1477.65
 20
91.3556
 30
-2.02853e-14
  70
    32
  0
VERTEX
  8
0
  5
421E
 10
1477.65
 20
91.3229
 30
-2.02776e-14
  70
    32
  0
VERTEX
  8
0
  5
421F
 10
1477.66
 20
91.2903
 30
-2.02700e-14
  70
    32
  0
VERTEX
  8
0
  5
4220
 10
1477.67
 20
91.2579
 30
-2.02625e-14
  70
    32
  0
VERTEX
  8
0
  5
4221
 10
1477.68
 20
91.2258
 30
-2.02550e-14
  70
    32
  0
VERTEX
  8
0
  5
4222
 10
1477.69
 20
91.1939
 30
-2.02475e-14
  70
    32
  0
VERTEX
  8
0
  5
4223
 10
1477.70
 20
91.1622
 30
-2.02401e-14
  70
    32
  0
VERTEX
  8
0
  5
4224
 10
1477.71
 20
91.1307
 30
-2.02328e-14
  70
    32
  0
VERTEX
  8
0
  5
4225
 10
1477.72
 20
91.0995
 30
-2.02255e-14
  70
    32
  0
VERTEX
  8
0
  5
4226
 10
1477.73
 20
91.0685
 30
-2.02183e-14
  70
    32
  0
VERTEX
  8
0
  5
4227
 10
1477.74
 20
91.0378
 30
-2.02111e-14
  70
    32
  0
VERTEX
  8
0
  5
4228
 10
1477.75
 20
91.0073
 30
-2.02040e-14
  70
    32
  0
VERTEX
  8
0
  5
4229
 10
1477.76
 20
90.9771
 30
-2.01969e-14
  70
    32
  0
VERTEX
  8
0
  5
422A
 10
1477.77
 20
90.9471
 30
-2.01899e-14
  70
    32
  0
VERTEX
  8
0
  5
422B
 10
1477.78
 20
90.9174
 30
-2.01830e-14
  70
    32
  0
VERTEX
  8
0
  5
422C
 10
1477.79
 20
90.8879
 30
-2.01761e-14
  70
    32
  0
VERTEX
  8
0
  5
422D
 10
1477.80
 20
90.8588
 30
-2.01693e-14
  70
    32
  0
VERTEX
  8
0
  5
422E
 10
1477.81
 20
90.8299
 30
-2.01626e-14
  70
    32
  0
VERTEX
  8
0
  5
422F
 10
1477.83
 20
90.8013
 30
-2.01559e-14
  70
    32
  0
VERTEX
  8
0
  5
4230
 10
1477.84
 20
90.7730
 30
-2.01493e-14
  70
    32
  0
VERTEX
  8
0
  5
4231
 10
1477.85
 20
90.7450
 30
-2.01428e-14
  70
    32
  0
VERTEX
  8
0
  5
4232
 10
1477.86
 20
90.7172
 30
-2.01363e-14
  70
    32
  0
VERTEX
  8
0
  5
4233
 10
1477.87
 20
90.6898
 30
-2.01299e-14
  70
    32
  0
VERTEX
  8
0
  5
4234
 10
1477.89
 20
90.6627
 30
-2.01236e-14
  70
    32
  0
VERTEX
  8
0
  5
4235
 10
1477.90
 20
90.6359
 30
-2.01173e-14
  70
    32
  0
VERTEX
  8
0
  5
4236
 10
1477.91
 20
90.6093
 30
-2.01111e-14
  70
    32
  0
VERTEX
  8
0
  5
4237
 10
1477.93
 20
90.5832
 30
-2.01050e-14
  70
    32
  0
VERTEX
  8
0
  5
4238
 10
1477.94
 20
90.5573
 30
-2.00990e-14
  70
    32
  0
VERTEX
  8
0
  5
4239
 10
1477.95
 20
90.5317
 30
-2.00930e-14
  70
    32
  0
VERTEX
  8
0
  5
423A
 10
1477.96
 20
90.5065
 30
-2.00871e-14
  70
    32
  0
VERTEX
  8
0
  5
423B
 10
1477.98
 20
90.4816
 30
-2.00813e-14
  70
    32
  0
VERTEX
  8
0
  5
423C
 10
1477.99
 20
90.4571
 30
-2.00756e-14
  70
    32
  0
VERTEX
  8
0
  5
423D
 10
1478.01
 20
90.4328
 30
-2.00700e-14
  70
    32
  0
VERTEX
  8
0
  5
423E
 10
1478.02
 20
90.4090
 30
-2.00644e-14
  70
    32
  0
VERTEX
  8
0
  5
423F
 10
1478.03
 20
90.3854
 30
-2.00589e-14
  70
    32
  0
VERTEX
  8
0
  5
4240
 10
1478.05
 20
90.3623
 30
-2.00535e-14
  70
    32
  0
VERTEX
  8
0
  5
4241
 10
1478.06
 20
90.3394
 30
-2.00482e-14
  70
    32
  0
VERTEX
  8
0
  5
4242
 10
1478.08
 20
90.3170
 30
-2.00429e-14
  70
    32
  0
VERTEX
  8
0
  5
4243
 10
1478.09
 20
90.2949
 30
-2.00378e-14
  70
    32
  0
VERTEX
  8
0
  5
4244
 10
1478.11
 20
90.2731
 30
-2.00327e-14
  70
    32
  0
VERTEX
  8
0
  5
4245
 10
1478.12
 20
90.2517
 30
-2.00277e-14
  70
    32
  0
VERTEX
  8
0
  5
4246
 10
1478.14
 20
90.2307
 30
-2.00228e-14
  70
    32
  0
VERTEX
  8
0
  5
4247
 10
1478.15
 20
90.2101
 30
-2.00180e-14
  70
    32
  0
VERTEX
  8
0
  5
4248
 10
1478.17
 20
90.1898
 30
-2.00132e-14
  70
    32
  0
VERTEX
  8
0
  5
4249
 10
1478.18
 20
90.1699
 30
-2.00086e-14
  70
    32
  0
VERTEX
  8
0
  5
424A
 10
1478.20
 20
90.1504
 30
-2.00041e-14
  70
    32
  0
VERTEX
  8
0
  5
424B
 10
1478.21
 20
90.1313
 30
-1.99996e-14
  70
    32
  0
VERTEX
  8
0
  5
424C
 10
1478.23
 20
90.1126
 30
-1.99952e-14
  70
    32
  0
VERTEX
  8
0
  5
424D
 10
1478.25
 20
90.0942
 30
-1.99909e-14
  70
    32
  0
VERTEX
  8
0
  5
424E
 10
1478.26
 20
90.0763
 30
-1.99868e-14
  70
    32
  0
VERTEX
  8
0
  5
424F
 10
1478.28
 20
90.0587
 30
-1.99827e-14
  70
    32
  0
VERTEX
  8
0
  5
4250
 10
1478.30
 20
90.0416
 30
-1.99787e-14
  70
    32
  0
VERTEX
  8
0
  5
4251
 10
1478.31
 20
90.0248
 30
-1.99747e-14
  70
    32
  0
VERTEX
  8
0
  5
4252
 10
1478.33
 20
90.0085
 30
-1.99709e-14
  70
    32
  0
VERTEX
  8
0
  5
4253
 10
1478.34
 20
89.9925
 30
-1.99672e-14
  70
    32
  0
VERTEX
  8
0
  5
4254
 10
1478.36
 20
89.9770
 30
-1.99636e-14
  70
    32
  0
VERTEX
  8
0
  5
4255
 10
1478.38
 20
89.9618
 30
-1.99601e-14
  70
    32
  0
VERTEX
  8
0
  5
4256
 10
1478.39
 20
89.9471
 30
-1.99566e-14
  70
    32
  0
VERTEX
  8
0
  5
4257
 10
1478.41
 20
89.9328
 30
-1.99533e-14
  70
    32
  0
VERTEX
  8
0
  5
4258
 10
1478.43
 20
89.9190
 30
-1.99500e-14
  70
    32
  0
VERTEX
  8
0
  5
4259
 10
1478.45
 20
89.9055
 30
-1.99469e-14
  70
    32
  0
VERTEX
  8
0
  5
425A
 10
1478.46
 20
89.8925
 30
-1.99439e-14
  70
    32
  0
VERTEX
  8
0
  5
425B
 10
1478.48
 20
89.8798
 30
-1.99409e-14
  70
    32
  0
VERTEX
  8
0
  5
425C
 10
1478.50
 20
89.8677
 30
-1.99381e-14
  70
    32
  0
VERTEX
  8
0
  5
425D
 10
1478.52
 20
89.8559
 30
-1.99353e-14
  70
    32
  0
VERTEX
  8
0
  5
425E
 10
1478.53
 20
89.8446
 30
-1.99327e-14
  70
    32
  0
VERTEX
  8
0
  5
425F
 10
1478.55
 20
89.8337
 30
-1.99301e-14
  70
    32
  0
VERTEX
  8
0
  5
4260
 10
1478.57
 20
89.8232
 30
-1.99277e-14
  70
    32
  0
VERTEX
  8
0
  5
4261
 10
1478.59
 20
89.8131
 30
-1.99254e-14
  70
    32
  0
VERTEX
  8
0
  5
4262
 10
1478.60
 20
89.8035
 30
-1.99231e-14
  70
    32
  0
VERTEX
  8
0
  5
4263
 10
1478.62
 20
89.7944
 30
-1.99210e-14
  70
    32
  0
VERTEX
  8
0
  5
4264
 10
1478.64
 20
89.7857
 30
-1.99189e-14
  70
    32
  0
VERTEX
  8
0
  5
4265
 10
1478.66
 20
89.7774
 30
-1.99170e-14
  70
    32
  0
VERTEX
  8
0
  5
4266
 10
1478.68
 20
89.7695
 30
-1.99152e-14
  70
    32
  0
VERTEX
  8
0
  5
4267
 10
1478.69
 20
89.7621
 30
-1.99135e-14
  70
    32
  0
VERTEX
  8
0
  5
4268
 10
1478.71
 20
89.7552
 30
-1.99118e-14
  70
    32
  0
VERTEX
  8
0
  5
4269
 10
1478.73
 20
89.7486
 30
-1.99103e-14
  70
    32
  0
VERTEX
  8
0
  5
426A
 10
1478.75
 20
89.7426
 30
-1.99089e-14
  70
    32
  0
VERTEX
  8
0
  5
426B
 10
1478.77
 20
89.7369
 30
-1.99076e-14
  70
    32
  0
VERTEX
  8
0
  5
426C
 10
1478.78
 20
89.7318
 30
-1.99064e-14
  70
    32
  0
VERTEX
  8
0
  5
426D
 10
1478.80
 20
89.7270
 30
-1.99053e-14
  70
    32
  0
VERTEX
  8
0
  5
426E
 10
1478.82
 20
89.7228
 30
-1.99043e-14
  70
    32
  0
VERTEX
  8
0
  5
426F
 10
1478.84
 20
89.7189
 30
-1.99034e-14
  70
    32
  0
VERTEX
  8
0
  5
4270
 10
1478.86
 20
89.7155
 30
-1.99026e-14
  70
    32
  0
VERTEX
  8
0
  5
4271
 10
1478.88
 20
89.7126
 30
-1.99019e-14
  70
    32
  0
VERTEX
  8
0
  5
4272
 10
1478.89
 20
89.7101
 30
-1.99013e-14
  70
    32
  0
VERTEX
  8
0
  5
4273
 10
1478.91
 20
89.7081
 30
-1.99008e-14
  70
    32
  0
VERTEX
  8
0
  5
4274
 10
1478.93
 20
89.7065
 30
-1.99005e-14
  70
    32
  0
VERTEX
  8
0
  5
4275
 10
1478.95
 20
89.7054
 30
-1.99002e-14
  70
    32
  0
VERTEX
  8
0
  5
4276
 10
1478.97
 20
89.7047
 30
-1.99001e-14
  70
    32
  0
VERTEX
  8
0
  5
4277
 10
1478.99
 20
89.7045
 30
-1.99000e-14
  70
    32
  0
SEQEND
  8
0
  5
4278
  0
LINE
  5
405E
  8
0
  6
CONTINUOUS
 62
     3
 10
1477.4858159523480481
 20
108.704474828323896
 30
-0.0000000000000241
 11
1477.4858159523480481
 21
92.7044748283239102
 31
-0.0000000000000206
210
0.0
220
1.0
230
-0.0000000000000002
  0
POLYLINE
  5
405F
  8
0
  6
CONTINUOUS
 62
     3
 10
1478.9858159523480481
 20
91.7044748283239102
 30
-0.0000000000000204
 66
     1
 70
     8
  0
VERTEX
  8
0
  5
4279
 10
1478.99
 20
91.7045
 30
-2.04000e-14
  70
    32
  0
VERTEX
  8
0
  5
427A
 10
1478.98
 20
91.7046
 30
-2.04000e-14
  70
    32
  0
VERTEX
  8
0
  5
427B
 10
1478.97
 20
91.7048
 30
-2.04001e-14
  70
    32
  0
VERTEX
  8
0
  5
427C
 10
1478.97
 20
91.7052
 30
-2.04001e-14
  70
    32
  0
VERTEX
  8
0
  5
427D
 10
1478.96
 20
91.7057
 30
-2.04002e-14
  70
    32
  0
VERTEX
  8
0
  5
427E
 10
1478.96
 20
91.7064
 30
-2.04004e-14
  70
    32
  0
VERTEX
  8
0
  5
427F
 10
1478.95
 20
91.7072
 30
-2.04005e-14
  70
    32
  0
VERTEX
  8
0
  5
4280
 10
1478.94
 20
91.7082
 30
-2.04007e-14
  70
    32
  0
VERTEX
  8
0
  5
4281
 10
1478.94
 20
91.7093
 30
-2.04010e-14
  70
    32
  0
VERTEX
  8
0
  5
4282
 10
1478.93
 20
91.7106
 30
-2.04012e-14
  70
    32
  0
VERTEX
  8
0
  5
4283
 10
1478.92
 20
91.7120
 30
-2.04015e-14
  70
    32
  0
VERTEX
  8
0
  5
4284
 10
1478.92
 20
91.7136
 30
-2.04018e-14
  70
    32
  0
VERTEX
  8
0
  5
4285
 10
1478.91
 20
91.7153
 30
-2.04022e-14
  70
    32
  0
VERTEX
  8
0
  5
4286
 10
1478.91
 20
91.7172
 30
-2.04025e-14
  70
    32
  0
VERTEX
  8
0
  5
4287
 10
1478.90
 20
91.7192
 30
-2.04029e-14
  70
    32
  0
VERTEX
  8
0
  5
4288
 10
1478.89
 20
91.7214
 30
-2.04034e-14
  70
    32
  0
VERTEX
  8
0
  5
4289
 10
1478.89
 20
91.7237
 30
-2.04038e-14
  70
    32
  0
VERTEX
  8
0
  5
428A
 10
1478.88
 20
91.7262
 30
-2.04043e-14
  70
    32
  0
VERTEX
  8
0
  5
428B
 10
1478.88
 20
91.7288
 30
-2.04049e-14
  70
    32
  0
VERTEX
  8
0
  5
428C
 10
1478.87
 20
91.7315
 30
-2.04054e-14
  70
    32
  0
VERTEX
  8
0
  5
428D
 10
1478.86
 20
91.7344
 30
-2.04060e-14
  70
    32
  0
VERTEX
  8
0
  5
428E
 10
1478.86
 20
91.7375
 30
-2.04066e-14
  70
    32
  0
VERTEX
  8
0
  5
428F
 10
1478.85
 20
91.7407
 30
-2.04072e-14
  70
    32
  0
VERTEX
  8
0
  5
4290
 10
1478.85
 20
91.7440
 30
-2.04079e-14
  70
    32
  0
VERTEX
  8
0
  5
4291
 10
1478.84
 20
91.7475
 30
-2.04086e-14
  70
    32
  0
VERTEX
  8
0
  5
4292
 10
1478.83
 20
91.7512
 30
-2.04093e-14
  70
    32
  0
VERTEX
  8
0
  5
4293
 10
1478.83
 20
91.7549
 30
-2.04101e-14
  70
    32
  0
VERTEX
  8
0
  5
4294
 10
1478.82
 20
91.7589
 30
-2.04109e-14
  70
    32
  0
VERTEX
  8
0
  5
4295
 10
1478.82
 20
91.7629
 30
-2.04117e-14
  70
    32
  0
VERTEX
  8
0
  5
4296
 10
1478.81
 20
91.7671
 30
-2.04125e-14
  70
    32
  0
VERTEX
  8
0
  5
4297
 10
1478.81
 20
91.7715
 30
-2.04134e-14
  70
    32
  0
VERTEX
  8
0
  5
4298
 10
1478.80
 20
91.7760
 30
-2.04143e-14
  70
    32
  0
VERTEX
  8
0
  5
4299
 10
1478.79
 20
91.7806
 30
-2.04152e-14
  70
    32
  0
VERTEX
  8
0
  5
429A
 10
1478.79
 20
91.7854
 30
-2.04162e-14
  70
    32
  0
VERTEX
  8
0
  5
429B
 10
1478.78
 20
91.7903
 30
-2.04172e-14
  70
    32
  0
VERTEX
  8
0
  5
429C
 10
1478.78
 20
91.7953
 30
-2.04182e-14
  70
    32
  0
VERTEX
  8
0
  5
429D
 10
1478.77
 20
91.8005
 30
-2.04192e-14
  70
    32
  0
VERTEX
  8
0
  5
429E
 10
1478.77
 20
91.8058
 30
-2.04203e-14
  70
    32
  0
VERTEX
  8
0
  5
429F
 10
1478.76
 20
91.8113
 30
-2.04214e-14
  70
    32
  0
VERTEX
  8
0
  5
42A0
 10
1478.76
 20
91.8168
 30
-2.04225e-14
  70
    32
  0
VERTEX
  8
0
  5
42A1
 10
1478.75
 20
91.8226
 30
-2.04236e-14
  70
    32
  0
VERTEX
  8
0
  5
42A2
 10
1478.74
 20
91.8284
 30
-2.04248e-14
  70
    32
  0
VERTEX
  8
0
  5
42A3
 10
1478.74
 20
91.8344
 30
-2.04260e-14
  70
    32
  0
VERTEX
  8
0
  5
42A4
 10
1478.73
 20
91.8405
 30
-2.04272e-14
  70
    32
  0
VERTEX
  8
0
  5
42A5
 10
1478.73
 20
91.8467
 30
-2.04285e-14
  70
    32
  0
VERTEX
  8
0
  5
42A6
 10
1478.72
 20
91.8531
 30
-2.04297e-14
  70
    32
  0
VERTEX
  8
0
  5
42A7
 10
1478.72
 20
91.8596
 30
-2.04310e-14
  70
    32
  0
VERTEX
  8
0
  5
42A8
 10
1478.71
 20
91.8663
 30
-2.04324e-14
  70
    32
  0
VERTEX
  8
0
  5
42A9
 10
1478.71
 20
91.8730
 30
-2.04337e-14
  70
    32
  0
VERTEX
  8
0
  5
42AA
 10
1478.70
 20
91.8799
 30
-2.04351e-14
  70
    32
  0
VERTEX
  8
0
  5
42AB
 10
1478.70
 20
91.8869
 30
-2.04365e-14
  70
    32
  0
VERTEX
  8
0
  5
42AC
 10
1478.69
 20
91.8940
 30
-2.04379e-14
  70
    32
  0
VERTEX
  8
0
  5
42AD
 10
1478.69
 20
91.9013
 30
-2.04394e-14
  70
    32
  0
VERTEX
  8
0
  5
42AE
 10
1478.68
 20
91.9086
 30
-2.04408e-14
  70
    32
  0
VERTEX
  8
0
  5
42AF
 10
1478.68
 20
91.9161
 30
-2.04423e-14
  70
    32
  0
VERTEX
  8
0
  5
42B0
 10
1478.67
 20
91.9237
 30
-2.04439e-14
  70
    32
  0
VERTEX
  8
0
  5
42B1
 10
1478.67
 20
91.9315
 30
-2.04454e-14
  70
    32
  0
VERTEX
  8
0
  5
42B2
 10
1478.66
 20
91.9393
 30
-2.04470e-14
  70
    32
  0
VERTEX
  8
0
  5
42B3
 10
1478.66
 20
91.9473
 30
-2.04486e-14
  70
    32
  0
VERTEX
  8
0
  5
42B4
 10
1478.65
 20
91.9553
 30
-2.04502e-14
  70
    32
  0
VERTEX
  8
0
  5
42B5
 10
1478.65
 20
91.9635
 30
-2.04518e-14
  70
    32
  0
VERTEX
  8
0
  5
42B6
 10
1478.65
 20
91.9718
 30
-2.04535e-14
  70
    32
  0
VERTEX
  8
0
  5
42B7
 10
1478.64
 20
91.9802
 30
-2.04552e-14
  70
    32
  0
VERTEX
  8
0
  5
42B8
 10
1478.64
 20
91.9887
 30
-2.04569e-14
  70
    32
  0
VERTEX
  8
0
  5
42B9
 10
1478.63
 20
91.9974
 30
-2.04586e-14
  70
    32
  0
VERTEX
  8
0
  5
42BA
 10
1478.63
 20
92.0061
 30
-2.04603e-14
  70
    32
  0
VERTEX
  8
0
  5
42BB
 10
1478.62
 20
92.0149
 30
-2.04621e-14
  70
    32
  0
VERTEX
  8
0
  5
42BC
 10
1478.62
 20
92.0239
 30
-2.04639e-14
  70
    32
  0
VERTEX
  8
0
  5
42BD
 10
1478.62
 20
92.0329
 30
-2.04657e-14
  70
    32
  0
VERTEX
  8
0
  5
42BE
 10
1478.61
 20
92.0421
 30
-2.04675e-14
  70
    32
  0
VERTEX
  8
0
  5
42BF
 10
1478.61
 20
92.0513
 30
-2.04694e-14
  70
    32
  0
VERTEX
  8
0
  5
42C0
 10
1478.60
 20
92.0606
 30
-2.04712e-14
  70
    32
  0
VERTEX
  8
0
  5
42C1
 10
1478.60
 20
92.0701
 30
-2.04731e-14
  70
    32
  0
VERTEX
  8
0
  5
42C2
 10
1478.60
 20
92.0796
 30
-2.04750e-14
  70
    32
  0
VERTEX
  8
0
  5
42C3
 10
1478.59
 20
92.0892
 30
-2.04770e-14
  70
    32
  0
VERTEX
  8
0
  5
42C4
 10
1478.59
 20
92.0990
 30
-2.04789e-14
  70
    32
  0
VERTEX
  8
0
  5
42C5
 10
1478.58
 20
92.1088
 30
-2.04809e-14
  70
    32
  0
VERTEX
  8
0
  5
42C6
 10
1478.58
 20
92.1187
 30
-2.04828e-14
  70
    32
  0
VERTEX
  8
0
  5
42C7
 10
1478.58
 20
92.1287
 30
-2.04848e-14
  70
    32
  0
VERTEX
  8
0
  5
42C8
 10
1478.57
 20
92.1387
 30
-2.04869e-14
  70
    32
  0
VERTEX
  8
0
  5
42C9
 10
1478.57
 20
92.1489
 30
-2.04889e-14
  70
    32
  0
VERTEX
  8
0
  5
42CA
 10
1478.57
 20
92.1591
 30
-2.04909e-14
  70
    32
  0
VERTEX
  8
0
  5
42CB
 10
1478.56
 20
92.1695
 30
-2.04930e-14
  70
    32
  0
VERTEX
  8
0
  5
42CC
 10
1478.56
 20
92.1799
 30
-2.04951e-14
  70
    32
  0
VERTEX
  8
0
  5
42CD
 10
1478.56
 20
92.1904
 30
-2.04972e-14
  70
    32
  0
VERTEX
  8
0
  5
42CE
 10
1478.55
 20
92.2009
 30
-2.04993e-14
  70
    32
  0
VERTEX
  8
0
  5
42CF
 10
1478.55
 20
92.2116
 30
-2.05014e-14
  70
    32
  0
VERTEX
  8
0
  5
42D0
 10
1478.55
 20
92.2223
 30
-2.05036e-14
  70
    32
  0
VERTEX
  8
0
  5
42D1
 10
1478.54
 20
92.2331
 30
-2.05057e-14
  70
    32
  0
VERTEX
  8
0
  5
42D2
 10
1478.54
 20
92.2439
 30
-2.05079e-14
  70
    32
  0
VERTEX
  8
0
  5
42D3
 10
1478.54
 20
92.2549
 30
-2.05101e-14
  70
    32
  0
VERTEX
  8
0
  5
42D4
 10
1478.54
 20
92.2659
 30
-2.05123e-14
  70
    32
  0
VERTEX
  8
0
  5
42D5
 10
1478.53
 20
92.2769
 30
-2.05145e-14
  70
    32
  0
VERTEX
  8
0
  5
42D6
 10
1478.53
 20
92.2880
 30
-2.05167e-14
  70
    32
  0
VERTEX
  8
0
  5
42D7
 10
1478.53
 20
92.2992
 30
-2.05190e-14
  70
    32
  0
VERTEX
  8
0
  5
42D8
 10
1478.53
 20
92.3105
 30
-2.05212e-14
  70
    32
  0
VERTEX
  8
0
  5
42D9
 10
1478.52
 20
92.3218
 30
-2.05235e-14
  70
    32
  0
VERTEX
  8
0
  5
42DA
 10
1478.52
 20
92.3332
 30
-2.05257e-14
  70
    32
  0
VERTEX
  8
0
  5
42DB
 10
1478.52
 20
92.3446
 30
-2.05280e-14
  70
    32
  0
VERTEX
  8
0
  5
42DC
 10
1478.52
 20
92.3561
 30
-2.05303e-14
  70
    32
  0
VERTEX
  8
0
  5
42DD
 10
1478.52
 20
92.3676
 30
-2.05326e-14
  70
    32
  0
VERTEX
  8
0
  5
42DE
 10
1478.51
 20
92.3792
 30
-2.05349e-14
  70
    32
  0
VERTEX
  8
0
  5
42DF
 10
1478.51
 20
92.3908
 30
-2.05373e-14
  70
    32
  0
VERTEX
  8
0
  5
42E0
 10
1478.51
 20
92.4025
 30
-2.05396e-14
  70
    32
  0
VERTEX
  8
0
  5
42E1
 10
1478.51
 20
92.4142
 30
-2.05419e-14
  70
    32
  0
VERTEX
  8
0
  5
42E2
 10
1478.51
 20
92.4260
 30
-2.05443e-14
  70
    32
  0
VERTEX
  8
0
  5
42E3
 10
1478.50
 20
92.4378
 30
-2.05467e-14
  70
    32
  0
VERTEX
  8
0
  5
42E4
 10
1478.50
 20
92.4496
 30
-2.05490e-14
  70
    32
  0
VERTEX
  8
0
  5
42E5
 10
1478.50
 20
92.4615
 30
-2.05514e-14
  70
    32
  0
VERTEX
  8
0
  5
42E6
 10
1478.50
 20
92.4734
 30
-2.05538e-14
  70
    32
  0
VERTEX
  8
0
  5
42E7
 10
1478.50
 20
92.4854
 30
-2.05562e-14
  70
    32
  0
VERTEX
  8
0
  5
42E8
 10
1478.50
 20
92.4974
 30
-2.05586e-14
  70
    32
  0
VERTEX
  8
0
  5
42E9
 10
1478.50
 20
92.5094
 30
-2.05610e-14
  70
    32
  0
VERTEX
  8
0
  5
42EA
 10
1478.49
 20
92.5214
 30
-2.05634e-14
  70
    32
  0
VERTEX
  8
0
  5
42EB
 10
1478.49
 20
92.5335
 30
-2.05658e-14
  70
    32
  0
VERTEX
  8
0
  5
42EC
 10
1478.49
 20
92.5456
 30
-2.05682e-14
  70
    32
  0
VERTEX
  8
0
  5
42ED
 10
1478.49
 20
92.5577
 30
-2.05707e-14
  70
    32
  0
VERTEX
  8
0
  5
42EE
 10
1478.49
 20
92.5699
 30
-2.05731e-14
  70
    32
  0
VERTEX
  8
0
  5
42EF
 10
1478.49
 20
92.5821
 30
-2.05755e-14
  70
    32
  0
VERTEX
  8
0
  5
42F0
 10
1478.49
 20
92.5943
 30
-2.05780e-14
  70
    32
  0
VERTEX
  8
0
  5
42F1
 10
1478.49
 20
92.6065
 30
-2.05804e-14
  70
    32
  0
VERTEX
  8
0
  5
42F2
 10
1478.49
 20
92.6187
 30
-2.05828e-14
  70
    32
  0
VERTEX
  8
0
  5
42F3
 10
1478.49
 20
92.6309
 30
-2.05853e-14
  70
    32
  0
VERTEX
  8
0
  5
42F4
 10
1478.49
 20
92.6432
 30
-2.05877e-14
  70
    32
  0
VERTEX
  8
0
  5
42F5
 10
1478.49
 20
92.6554
 30
-2.05902e-14
  70
    32
  0
VERTEX
  8
0
  5
42F6
 10
1478.49
 20
92.6677
 30
-2.05926e-14
  70
    32
  0
VERTEX
  8
0
  5
42F7
 10
1478.49
 20
92.6799
 30
-2.05951e-14
  70
    32
  0
VERTEX
  8
0
  5
42F8
 10
1478.49
 20
92.6922
 30
-2.05975e-14
  70
    32
  0
VERTEX
  8
0
  5
42F9
 10
1478.49
 20
92.7045
 30
-2.06000e-14
  70
    32
  0
SEQEND
  8
0
  5
42FA
  0
LINE
  5
4060
  8
0
  6
CONTINUOUS
 62
     3
 10
1478.9858159523480481
 20
89.7044748283239102
 30
-0.0000000000000199
 11
1486.565942971270033
 21
89.7044748283239102
 31
-0.0000000000000199
210
0.0
220
1.0
230
-0.0000000000000002
  0
LINE
  5
4061
  8
0
  6
CONTINUOUS
 62
     3
 10
1478.4858159523480481
 20
92.7044748283239102
 30
-0.0000000000000206
 11
1478.4858159523480481
 21
108.704474828323896
 31
-0.0000000000000241
210
0.0
220
1.0
230
-0.0000000000000002
  0
POLYLINE
  5
4062
  8
0
  6
CONTINUOUS
 62
     3
 10
1478.4858159523480481
 20
108.7044748283238675
 30
-0.0000000000000241
 66
     1
 70
     8
  0
VERTEX
  8
0
  5
42FB
 10
1478.49
 20
108.704
 30
-2.41000e-14
  70
    32
  0
VERTEX
  8
0
  5
42FC
 10
1478.49
 20
108.741
 30
-2.41086e-14
  70
    32
  0
VERTEX
  8
0
  5
42FD
 10
1478.49
 20
108.778
 30
-2.41172e-14
  70
    32
  0
VERTEX
  8
0
  5
42FE
 10
1478.48
 20
108.815
 30
-2.41258e-14
  70
    32
  0
VERTEX
  8
0
  5
42FF
 10
1478.48
 20
108.852
 30
-2.41343e-14
  70
    32
  0
VERTEX
  8
0
  5
4300
 10
1478.48
 20
108.888
 30
-2.41429e-14
  70
    32
  0
VERTEX
  8
0
  5
4301
 10
1478.48
 20
108.925
 30
-2.41515e-14
  70
    32
  0
VERTEX
  8
0
  5
4302
 10
1478.48
 20
108.962
 30
-2.41601e-14
  70
    32
  0
VERTEX
  8
0
  5
4303
 10
1478.48
 20
108.999
 30
-2.41686e-14
  70
    32
  0
VERTEX
  8
0
  5
4304
 10
1478.48
 20
109.035
 30
-2.41772e-14
  70
    32
  0
VERTEX
  8
0
  5
4305
 10
1478.47
 20
109.072
 30
-2.41857e-14
  70
    32
  0
VERTEX
  8
0
  5
4306
 10
1478.47
 20
109.108
 30
-2.41942e-14
  70
    32
  0
VERTEX
  8
0
  5
4307
 10
1478.47
 20
109.145
 30
-2.42027e-14
  70
    32
  0
VERTEX
  8
0
  5
4308
 10
1478.47
 20
109.181
 30
-2.42112e-14
  70
    32
  0
VERTEX
  8
0
  5
4309
 10
1478.46
 20
109.217
 30
-2.42197e-14
  70
    32
  0
VERTEX
  8
0
  5
430A
 10
1478.46
 20
109.254
 30
-2.42281e-14
  70
    32
  0
VERTEX
  8
0
  5
430B
 10
1478.46
 20
109.290
 30
-2.42366e-14
  70
    32
  0
VERTEX
  8
0
  5
430C
 10
1478.45
 20
109.326
 30
-2.42450e-14
  70
    32
  0
VERTEX
  8
0
  5
430D
 10
1478.45
 20
109.362
 30
-2.42534e-14
  70
    32
  0
VERTEX
  8
0
  5
430E
 10
1478.45
 20
109.398
 30
-2.42617e-14
  70
    32
  0
VERTEX
  8
0
  5
430F
 10
1478.44
 20
109.433
 30
-2.42701e-14
  70
    32
  0
VERTEX
  8
0
  5
4310
 10
1478.44
 20
109.469
 30
-2.42784e-14
  70
    32
  0
VERTEX
  8
0
  5
4311
 10
1478.43
 20
109.505
 30
-2.42867e-14
  70
    32
  0
VERTEX
  8
0
  5
4312
 10
1478.43
 20
109.540
 30
-2.42950e-14
  70
    32
  0
VERTEX
  8
0
  5
4313
 10
1478.42
 20
109.575
 30
-2.43032e-14
  70
    32
  0
VERTEX
  8
0
  5
4314
 10
1478.42
 20
109.610
 30
-2.43114e-14
  70
    32
  0
VERTEX
  8
0
  5
4315
 10
1478.41
 20
109.646
 30
-2.43196e-14
  70
    32
  0
VERTEX
  8
0
  5
4316
 10
1478.40
 20
109.680
 30
-2.43277e-14
  70
    32
  0
VERTEX
  8
0
  5
4317
 10
1478.40
 20
109.715
 30
-2.43358e-14
  70
    32
  0
VERTEX
  8
0
  5
4318
 10
1478.39
 20
109.750
 30
-2.43439e-14
  70
    32
  0
VERTEX
  8
0
  5
4319
 10
1478.39
 20
109.784
 30
-2.43519e-14
  70
    32
  0
VERTEX
  8
0
  5
431A
 10
1478.38
 20
109.818
 30
-2.43599e-14
  70
    32
  0
VERTEX
  8
0
  5
431B
 10
1478.37
 20
109.853
 30
-2.43679e-14
  70
    32
  0
VERTEX
  8
0
  5
431C
 10
1478.36
 20
109.886
 30
-2.43758e-14
  70
    32
  0
VERTEX
  8
0
  5
431D
 10
1478.36
 20
109.920
 30
-2.43837e-14
  70
    32
  0
VERTEX
  8
0
  5
431E
 10
1478.35
 20
109.954
 30
-2.43915e-14
  70
    32
  0
VERTEX
  8
0
  5
431F
 10
1478.34
 20
109.987
 30
-2.43993e-14
  70
    32
  0
VERTEX
  8
0
  5
4320
 10
1478.33
 20
110.020
 30
-2.44070e-14
  70
    32
  0
VERTEX
  8
0
  5
4321
 10
1478.33
 20
110.053
 30
-2.44147e-14
  70
    32
  0
VERTEX
  8
0
  5
4322
 10
1478.32
 20
110.086
 30
-2.44224e-14
  70
    32
  0
VERTEX
  8
0
  5
4323
 10
1478.31
 20
110.119
 30
-2.44300e-14
  70
    32
  0
VERTEX
  8
0
  5
4324
 10
1478.30
 20
110.151
 30
-2.44375e-14
  70
    32
  0
VERTEX
  8
0
  5
4325
 10
1478.29
 20
110.183
 30
-2.44450e-14
  70
    32
  0
VERTEX
  8
0
  5
4326
 10
1478.28
 20
110.215
 30
-2.44525e-14
  70
    32
  0
VERTEX
  8
0
  5
4327
 10
1478.27
 20
110.247
 30
-2.44599e-14
  70
    32
  0
VERTEX
  8
0
  5
4328
 10
1478.26
 20
110.278
 30
-2.44672e-14
  70
    32
  0
VERTEX
  8
0
  5
4329
 10
1478.25
 20
110.309
 30
-2.44745e-14
  70
    32
  0
VERTEX
  8
0
  5
432A
 10
1478.24
 20
110.340
 30
-2.44817e-14
  70
    32
  0
VERTEX
  8
0
  5
432B
 10
1478.23
 20
110.371
 30
-2.44889e-14
  70
    32
  0
VERTEX
  8
0
  5
432C
 10
1478.22
 20
110.402
 30
-2.44960e-14
  70
    32
  0
VERTEX
  8
0
  5
432D
 10
1478.21
 20
110.432
 30
-2.45031e-14
  70
    32
  0
VERTEX
  8
0
  5
432E
 10
1478.20
 20
110.462
 30
-2.45101e-14
  70
    32
  0
VERTEX
  8
0
  5
432F
 10
1478.19
 20
110.492
 30
-2.45170e-14
  70
    32
  0
VERTEX
  8
0
  5
4330
 10
1478.18
 20
110.521
 30
-2.45239e-14
  70
    32
  0
VERTEX
  8
0
  5
4331
 10
1478.17
 20
110.550
 30
-2.45307e-14
  70
    32
  0
VERTEX
  8
0
  5
4332
 10
1478.16
 20
110.579
 30
-2.45374e-14
  70
    32
  0
VERTEX
  8
0
  5
4333
 10
1478.15
 20
110.608
 30
-2.45441e-14
  70
    32
  0
VERTEX
  8
0
  5
4334
 10
1478.13
 20
110.636
 30
-2.45507e-14
  70
    32
  0
VERTEX
  8
0
  5
4335
 10
1478.12
 20
110.664
 30
-2.45572e-14
  70
    32
  0
VERTEX
  8
0
  5
4336
 10
1478.11
 20
110.692
 30
-2.45637e-14
  70
    32
  0
VERTEX
  8
0
  5
4337
 10
1478.10
 20
110.719
 30
-2.45701e-14
  70
    32
  0
VERTEX
  8
0
  5
4338
 10
1478.08
 20
110.746
 30
-2.45764e-14
  70
    32
  0
VERTEX
  8
0
  5
4339
 10
1478.07
 20
110.773
 30
-2.45827e-14
  70
    32
  0
VERTEX
  8
0
  5
433A
 10
1478.06
 20
110.800
 30
-2.45889e-14
  70
    32
  0
VERTEX
  8
0
  5
433B
 10
1478.05
 20
110.826
 30
-2.45950e-14
  70
    32
  0
VERTEX
  8
0
  5
433C
 10
1478.03
 20
110.852
 30
-2.46010e-14
  70
    32
  0
VERTEX
  8
0
  5
433D
 10
1478.02
 20
110.877
 30
-2.46070e-14
  70
    32
  0
VERTEX
  8
0
  5
433E
 10
1478.01
 20
110.902
 30
-2.46129e-14
  70
    32
  0
VERTEX
  8
0
  5
433F
 10
1477.99
 20
110.927
 30
-2.46187e-14
  70
    32
  0
VERTEX
  8
0
  5
4340
 10
1477.98
 20
110.952
 30
-2.46244e-14
  70
    32
  0
VERTEX
  8
0
  5
4341
 10
1477.97
 20
110.976
 30
-2.46300e-14
  70
    32
  0
VERTEX
  8
0
  5
4342
 10
1477.95
 20
111.000
 30
-2.46356e-14
  70
    32
  0
VERTEX
  8
0
  5
4343
 10
1477.94
 20
111.024
 30
-2.46411e-14
  70
    32
  0
VERTEX
  8
0
  5
4344
 10
1477.92
 20
111.047
 30
-2.46465e-14
  70
    32
  0
VERTEX
  8
0
  5
4345
 10
1477.91
 20
111.070
 30
-2.46518e-14
  70
    32
  0
VERTEX
  8
0
  5
4346
 10
1477.89
 20
111.092
 30
-2.46571e-14
  70
    32
  0
VERTEX
  8
0
  5
4347
 10
1477.88
 20
111.114
 30
-2.46622e-14
  70
    32
  0
VERTEX
  8
0
  5
4348
 10
1477.86
 20
111.136
 30
-2.46673e-14
  70
    32
  0
VERTEX
  8
0
  5
4349
 10
1477.85
 20
111.157
 30
-2.46723e-14
  70
    32
  0
VERTEX
  8
0
  5
434A
 10
1477.83
 20
111.178
 30
-2.46772e-14
  70
    32
  0
VERTEX
  8
0
  5
434B
 10
1477.82
 20
111.199
 30
-2.46820e-14
  70
    32
  0
VERTEX
  8
0
  5
434C
 10
1477.80
 20
111.219
 30
-2.46868e-14
  70
    32
  0
VERTEX
  8
0
  5
434D
 10
1477.79
 20
111.239
 30
-2.46914e-14
  70
    32
  0
VERTEX
  8
0
  5
434E
 10
1477.77
 20
111.259
 30
-2.46959e-14
  70
    32
  0
VERTEX
  8
0
  5
434F
 10
1477.76
 20
111.278
 30
-2.47004e-14
  70
    32
  0
VERTEX
  8
0
  5
4350
 10
1477.74
 20
111.296
 30
-2.47048e-14
  70
    32
  0
VERTEX
  8
0
  5
4351
 10
1477.73
 20
111.315
 30
-2.47091e-14
  70
    32
  0
VERTEX
  8
0
  5
4352
 10
1477.71
 20
111.333
 30
-2.47132e-14
  70
    32
  0
VERTEX
  8
0
  5
4353
 10
1477.69
 20
111.350
 30
-2.47173e-14
  70
    32
  0
VERTEX
  8
0
  5
4354
 10
1477.68
 20
111.367
 30
-2.47213e-14
  70
    32
  0
VERTEX
  8
0
  5
4355
 10
1477.66
 20
111.384
 30
-2.47253e-14
  70
    32
  0
VERTEX
  8
0
  5
4356
 10
1477.64
 20
111.400
 30
-2.47291e-14
  70
    32
  0
VERTEX
  8
0
  5
4357
 10
1477.63
 20
111.416
 30
-2.47328e-14
  70
    32
  0
VERTEX
  8
0
  5
4358
 10
1477.61
 20
111.432
 30
-2.47364e-14
  70
    32
  0
VERTEX
  8
0
  5
4359
 10
1477.59
 20
111.447
 30
-2.47399e-14
  70
    32
  0
VERTEX
  8
0
  5
435A
 10
1477.58
 20
111.462
 30
-2.47434e-14
  70
    32
  0
VERTEX
  8
0
  5
435B
 10
1477.56
 20
111.476
 30
-2.47467e-14
  70
    32
  0
VERTEX
  8
0
  5
435C
 10
1477.54
 20
111.490
 30
-2.47500e-14
  70
    32
  0
VERTEX
  8
0
  5
435D
 10
1477.53
 20
111.503
 30
-2.47531e-14
  70
    32
  0
VERTEX
  8
0
  5
435E
 10
1477.51
 20
111.516
 30
-2.47561e-14
  70
    32
  0
VERTEX
  8
0
  5
435F
 10
1477.49
 20
111.529
 30
-2.47591e-14
  70
    32
  0
VERTEX
  8
0
  5
4360
 10
1477.47
 20
111.541
 30
-2.47619e-14
  70
    32
  0
VERTEX
  8
0
  5
4361
 10
1477.46
 20
111.553
 30
-2.47647e-14
  70
    32
  0
VERTEX
  8
0
  5
4362
 10
1477.44
 20
111.564
 30
-2.47673e-14
  70
    32
  0
VERTEX
  8
0
  5
4363
 10
1477.42
 20
111.575
 30
-2.47699e-14
  70
    32
  0
VERTEX
  8
0
  5
4364
 10
1477.40
 20
111.586
 30
-2.47723e-14
  70
    32
  0
VERTEX
  8
0
  5
4365
 10
1477.39
 20
111.596
 30
-2.47746e-14
  70
    32
  0
VERTEX
  8
0
  5
4366
 10
1477.37
 20
111.605
 30
-2.47769e-14
  70
    32
  0
VERTEX
  8
0
  5
4367
 10
1477.35
 20
111.615
 30
-2.47790e-14
  70
    32
  0
VERTEX
  8
0
  5
4368
 10
1477.33
 20
111.623
 30
-2.47811e-14
  70
    32
  0
VERTEX
  8
0
  5
4369
 10
1477.31
 20
111.632
 30
-2.47830e-14
  70
    32
  0
VERTEX
  8
0
  5
436A
 10
1477.30
 20
111.639
 30
-2.47848e-14
  70
    32
  0
VERTEX
  8
0
  5
436B
 10
1477.28
 20
111.647
 30
-2.47865e-14
  70
    32
  0
VERTEX
  8
0
  5
436C
 10
1477.26
 20
111.654
 30
-2.47882e-14
  70
    32
  0
VERTEX
  8
0
  5
436D
 10
1477.24
 20
111.660
 30
-2.47897e-14
  70
    32
  0
VERTEX
  8
0
  5
436E
 10
1477.22
 20
111.666
 30
-2.47911e-14
  70
    32
  0
VERTEX
  8
0
  5
436F
 10
1477.21
 20
111.672
 30
-2.47924e-14
  70
    32
  0
VERTEX
  8
0
  5
4370
 10
1477.19
 20
111.677
 30
-2.47936e-14
  70
    32
  0
VERTEX
  8
0
  5
4371
 10
1477.17
 20
111.682
 30
-2.47947e-14
  70
    32
  0
VERTEX
  8
0
  5
4372
 10
1477.15
 20
111.686
 30
-2.47957e-14
  70
    32
  0
VERTEX
  8
0
  5
4373
 10
1477.13
 20
111.690
 30
-2.47966e-14
  70
    32
  0
VERTEX
  8
0
  5
4374
 10
1477.11
 20
111.693
 30
-2.47974e-14
  70
    32
  0
VERTEX
  8
0
  5
4375
 10
1477.10
 20
111.696
 30
-2.47981e-14
  70
    32
  0
VERTEX
  8
0
  5
4376
 10
1477.08
 20
111.699
 30
-2.47987e-14
  70
    32
  0
VERTEX
  8
0
  5
4377
 10
1477.06
 20
111.701
 30
-2.47992e-14
  70
    32
  0
VERTEX
  8
0
  5
4378
 10
1477.04
 20
111.702
 30
-2.47995e-14
  70
    32
  0
VERTEX
  8
0
  5
4379
 10
1477.02
 20
111.704
 30
-2.47998e-14
  70
    32
  0
VERTEX
  8
0
  5
437A
 10
1477.00
 20
111.704
 30
-2.47999e-14
  70
    32
  0
VERTEX
  8
0
  5
437B
 10
1476.99
 20
111.704
 30
-2.48000e-14
  70
    32
  0
SEQEND
  8
0
  5
437C
  0
POLYLINE
  5
4063
  8
0
  6
CONTINUOUS
 62
     3
 10
1476.9858159523480481
 20
109.7044748283239244
 30
-0.0000000000000243
 66
     1
 70
     8
  0
VERTEX
  8
0
  5
437D
 10
1476.99
 20
109.704
 30
-2.43000e-14
  70
    32
  0
VERTEX
  8
0
  5
437E
 10
1476.99
 20
109.704
 30
-2.43000e-14
  70
    32
  0
VERTEX
  8
0
  5
437F
 10
1477.00
 20
109.704
 30
-2.42999e-14
  70
    32
  0
VERTEX
  8
0
  5
4380
 10
1477.00
 20
109.704
 30
-2.42999e-14
  70
    32
  0
VERTEX
  8
0
  5
4381
 10
1477.01
 20
109.703
 30
-2.42998e-14
  70
    32
  0
VERTEX
  8
0
  5
4382
 10
1477.02
 20
109.703
 30
-2.42996e-14
  70
    32
  0
VERTEX
  8
0
  5
4383
 10
1477.02
 20
109.702
 30
-2.42995e-14
  70
    32
  0
VERTEX
  8
0
  5
4384
 10
1477.03
 20
109.701
 30
-2.42993e-14
  70
    32
  0
VERTEX
  8
0
  5
4385
 10
1477.03
 20
109.700
 30
-2.42990e-14
  70
    32
  0
VERTEX
  8
0
  5
4386
 10
1477.04
 20
109.698
 30
-2.42988e-14
  70
    32
  0
VERTEX
  8
0
  5
4387
 10
1477.05
 20
109.697
 30
-2.42985e-14
  70
    32
  0
VERTEX
  8
0
  5
4388
 10
1477.05
 20
109.695
 30
-2.42982e-14
  70
    32
  0
VERTEX
  8
0
  5
4389
 10
1477.06
 20
109.694
 30
-2.42978e-14
  70
    32
  0
VERTEX
  8
0
  5
438A
 10
1477.07
 20
109.692
 30
-2.42975e-14
  70
    32
  0
VERTEX
  8
0
  5
438B
 10
1477.07
 20
109.690
 30
-2.42971e-14
  70
    32
  0
VERTEX
  8
0
  5
438C
 10
1477.08
 20
109.688
 30
-2.42966e-14
  70
    32
  0
VERTEX
  8
0
  5
438D
 10
1477.08
 20
109.685
 30
-2.42962e-14
  70
    32
  0
VERTEX
  8
0
  5
438E
 10
1477.09
 20
109.683
 30
-2.42957e-14
  70
    32
  0
VERTEX
  8
0
  5
438F
 10
1477.10
 20
109.680
 30
-2.42951e-14
  70
    32
  0
VERTEX
  8
0
  5
4390
 10
1477.10
 20
109.677
 30
-2.42946e-14
  70
    32
  0
VERTEX
  8
0
  5
4391
 10
1477.11
 20
109.675
 30
-2.42940e-14
  70
    32
  0
VERTEX
  8
0
  5
4392
 10
1477.11
 20
109.671
 30
-2.42934e-14
  70
    32
  0
VERTEX
  8
0
  5
4393
 10
1477.12
 20
109.668
 30
-2.42928e-14
  70
    32
  0
VERTEX
  8
0
  5
4394
 10
1477.13
 20
109.665
 30
-2.42921e-14
  70
    32
  0
VERTEX
  8
0
  5
4395
 10
1477.13
 20
109.661
 30
-2.42914e-14
  70
    32
  0
VERTEX
  8
0
  5
4396
 10
1477.14
 20
109.658
 30
-2.42907e-14
  70
    32
  0
VERTEX
  8
0
  5
4397
 10
1477.14
 20
109.654
 30
-2.42899e-14
  70
    32
  0
VERTEX
  8
0
  5
4398
 10
1477.15
 20
109.650
 30
-2.42891e-14
  70
    32
  0
VERTEX
  8
0
  5
4399
 10
1477.15
 20
109.646
 30
-2.42883e-14
  70
    32
  0
VERTEX
  8
0
  5
439A
 10
1477.16
 20
109.642
 30
-2.42875e-14
  70
    32
  0
VERTEX
  8
0
  5
439B
 10
1477.17
 20
109.637
 30
-2.42866e-14
  70
    32
  0
VERTEX
  8
0
  5
439C
 10
1477.17
 20
109.633
 30
-2.42857e-14
  70
    32
  0
VERTEX
  8
0
  5
439D
 10
1477.18
 20
109.628
 30
-2.42848e-14
  70
    32
  0
VERTEX
  8
0
  5
439E
 10
1477.18
 20
109.624
 30
-2.42838e-14
  70
    32
  0
VERTEX
  8
0
  5
439F
 10
1477.19
 20
109.619
 30
-2.42828e-14
  70
    32
  0
VERTEX
  8
0
  5
43A0
 10
1477.19
 20
109.614
 30
-2.42818e-14
  70
    32
  0
VERTEX
  8
0
  5
43A1
 10
1477.20
 20
109.608
 30
-2.42808e-14
  70
    32
  0
VERTEX
  8
0
  5
43A2
 10
1477.21
 20
109.603
 30
-2.42797e-14
  70
    32
  0
VERTEX
  8
0
  5
43A3
 10
1477.21
 20
109.598
 30
-2.42786e-14
  70
    32
  0
VERTEX
  8
0
  5
43A4
 10
1477.22
 20
109.592
 30
-2.42775e-14
  70
    32
  0
VERTEX
  8
0
  5
43A5
 10
1477.22
 20
109.586
 30
-2.42764e-14
  70
    32
  0
VERTEX
  8
0
  5
43A6
 10
1477.23
 20
109.581
 30
-2.42752e-14
  70
    32
  0
VERTEX
  8
0
  5
43A7
 10
1477.23
 20
109.575
 30
-2.42740e-14
  70
    32
  0
VERTEX
  8
0
  5
43A8
 10
1477.24
 20
109.568
 30
-2.42728e-14
  70
    32
  0
VERTEX
  8
0
  5
43A9
 10
1477.24
 20
109.562
 30
-2.42715e-14
  70
    32
  0
VERTEX
  8
0
  5
43AA
 10
1477.25
 20
109.556
 30
-2.42703e-14
  70
    32
  0
VERTEX
  8
0
  5
43AB
 10
1477.25
 20
109.549
 30
-2.42690e-14
  70
    32
  0
VERTEX
  8
0
  5
43AC
 10
1477.26
 20
109.543
 30
-2.42676e-14
  70
    32
  0
VERTEX
  8
0
  5
43AD
 10
1477.26
 20
109.536
 30
-2.42663e-14
  70
    32
  0
VERTEX
  8
0
  5
43AE
 10
1477.27
 20
109.529
 30
-2.42649e-14
  70
    32
  0
VERTEX
  8
0
  5
43AF
 10
1477.27
 20
109.522
 30
-2.42635e-14
  70
    32
  0
VERTEX
  8
0
  5
43B0
 10
1477.28
 20
109.515
 30
-2.42621e-14
  70
    32
  0
VERTEX
  8
0
  5
43B1
 10
1477.28
 20
109.508
 30
-2.42606e-14
  70
    32
  0
VERTEX
  8
0
  5
43B2
 10
1477.29
 20
109.500
 30
-2.42592e-14
  70
    32
  0
VERTEX
  8
0
  5
43B3
 10
1477.29
 20
109.493
 30
-2.42577e-14
  70
    32
  0
VERTEX
  8
0
  5
43B4
 10
1477.30
 20
109.485
 30
-2.42561e-14
  70
    32
  0
VERTEX
  8
0
  5
43B5
 10
1477.30
 20
109.477
 30
-2.42546e-14
  70
    32
  0
VERTEX
  8
0
  5
43B6
 10
1477.31
 20
109.470
 30
-2.42530e-14
  70
    32
  0
VERTEX
  8
0
  5
43B7
 10
1477.31
 20
109.462
 30
-2.42514e-14
  70
    32
  0
VERTEX
  8
0
  5
43B8
 10
1477.32
 20
109.454
 30
-2.42498e-14
  70
    32
  0
VERTEX
  8
0
  5
43B9
 10
1477.32
 20
109.445
 30
-2.42482e-14
  70
    32
  0
VERTEX
  8
0
  5
43BA
 10
1477.33
 20
109.437
 30
-2.42465e-14
  70
    32
  0
VERTEX
  8
0
  5
43BB
 10
1477.33
 20
109.429
 30
-2.42448e-14
  70
    32
  0
VERTEX
  8
0
  5
43BC
 10
1477.34
 20
109.420
 30
-2.42431e-14
  70
    32
  0
VERTEX
  8
0
  5
43BD
 10
1477.34
 20
109.412
 30
-2.42414e-14
  70
    32
  0
VERTEX
  8
0
  5
43BE
 10
1477.34
 20
109.403
 30
-2.42397e-14
  70
    32
  0
VERTEX
  8
0
  5
43BF
 10
1477.35
 20
109.394
 30
-2.42379e-14
  70
    32
  0
VERTEX
  8
0
  5
43C0
 10
1477.35
 20
109.385
 30
-2.42361e-14
  70
    32
  0
VERTEX
  8
0
  5
43C1
 10
1477.36
 20
109.376
 30
-2.42343e-14
  70
    32
  0
VERTEX
  8
0
  5
43C2
 10
1477.36
 20
109.367
 30
-2.42325e-14
  70
    32
  0
VERTEX
  8
0
  5
43C3
 10
1477.36
 20
109.358
 30
-2.42306e-14
  70
    32
  0
VERTEX
  8
0
  5
43C4
 10
1477.37
 20
109.348
 30
-2.42288e-14
  70
    32
  0
VERTEX
  8
0
  5
43C5
 10
1477.37
 20
109.339
 30
-2.42269e-14
  70
    32
  0
VERTEX
  8
0
  5
43C6
 10
1477.38
 20
109.329
 30
-2.42250e-14
  70
    32
  0
VERTEX
  8
0
  5
43C7
 10
1477.38
 20
109.320
 30
-2.42230e-14
  70
    32
  0
VERTEX
  8
0
  5
43C8
 10
1477.38
 20
109.310
 30
-2.42211e-14
  70
    32
  0
VERTEX
  8
0
  5
43C9
 10
1477.39
 20
109.300
 30
-2.42191e-14
  70
    32
  0
VERTEX
  8
0
  5
43CA
 10
1477.39
 20
109.290
 30
-2.42172e-14
  70
    32
  0
VERTEX
  8
0
  5
43CB
 10
1477.39
 20
109.280
 30
-2.42152e-14
  70
    32
  0
VERTEX
  8
0
  5
43CC
 10
1477.40
 20
109.270
 30
-2.42131e-14
  70
    32
  0
VERTEX
  8
0
  5
43CD
 10
1477.40
 20
109.260
 30
-2.42111e-14
  70
    32
  0
VERTEX
  8
0
  5
43CE
 10
1477.40
 20
109.250
 30
-2.42091e-14
  70
    32
  0
VERTEX
  8
0
  5
43CF
 10
1477.41
 20
109.239
 30
-2.42070e-14
  70
    32
  0
VERTEX
  8
0
  5
43D0
 10
1477.41
 20
109.229
 30
-2.42049e-14
  70
    32
  0
VERTEX
  8
0
  5
43D1
 10
1477.41
 20
109.219
 30
-2.42028e-14
  70
    32
  0
VERTEX
  8
0
  5
43D2
 10
1477.42
 20
109.208
 30
-2.42007e-14
  70
    32
  0
VERTEX
  8
0
  5
43D3
 10
1477.42
 20
109.197
 30
-2.41986e-14
  70
    32
  0
VERTEX
  8
0
  5
43D4
 10
1477.42
 20
109.187
 30
-2.41964e-14
  70
    32
  0
VERTEX
  8
0
  5
43D5
 10
1477.43
 20
109.176
 30
-2.41943e-14
  70
    32
  0
VERTEX
  8
0
  5
43D6
 10
1477.43
 20
109.165
 30
-2.41921e-14
  70
    32
  0
VERTEX
  8
0
  5
43D7
 10
1477.43
 20
109.154
 30
-2.41899e-14
  70
    32
  0
VERTEX
  8
0
  5
43D8
 10
1477.44
 20
109.143
 30
-2.41877e-14
  70
    32
  0
VERTEX
  8
0
  5
43D9
 10
1477.44
 20
109.132
 30
-2.41855e-14
  70
    32
  0
VERTEX
  8
0
  5
43DA
 10
1477.44
 20
109.121
 30
-2.41833e-14
  70
    32
  0
VERTEX
  8
0
  5
43DB
 10
1477.44
 20
109.110
 30
-2.41810e-14
  70
    32
  0
VERTEX
  8
0
  5
43DC
 10
1477.45
 20
109.098
 30
-2.41788e-14
  70
    32
  0
VERTEX
  8
0
  5
43DD
 10
1477.45
 20
109.087
 30
-2.41765e-14
  70
    32
  0
VERTEX
  8
0
  5
43DE
 10
1477.45
 20
109.076
 30
-2.41743e-14
  70
    32
  0
VERTEX
  8
0
  5
43DF
 10
1477.45
 20
109.064
 30
-2.41720e-14
  70
    32
  0
VERTEX
  8
0
  5
43E0
 10
1477.45
 20
109.053
 30
-2.41697e-14
  70
    32
  0
VERTEX
  8
0
  5
43E1
 10
1477.46
 20
109.041
 30
-2.41674e-14
  70
    32
  0
VERTEX
  8
0
  5
43E2
 10
1477.46
 20
109.030
 30
-2.41651e-14
  70
    32
  0
VERTEX
  8
0
  5
43E3
 10
1477.46
 20
109.018
 30
-2.41627e-14
  70
    32
  0
VERTEX
  8
0
  5
43E4
 10
1477.46
 20
109.006
 30
-2.41604e-14
  70
    32
  0
VERTEX
  8
0
  5
43E5
 10
1477.46
 20
108.995
 30
-2.41581e-14
  70
    32
  0
VERTEX
  8
0
  5
43E6
 10
1477.47
 20
108.983
 30
-2.41557e-14
  70
    32
  0
VERTEX
  8
0
  5
43E7
 10
1477.47
 20
108.971
 30
-2.41533e-14
  70
    32
  0
VERTEX
  8
0
  5
43E8
 10
1477.47
 20
108.959
 30
-2.41510e-14
  70
    32
  0
VERTEX
  8
0
  5
43E9
 10
1477.47
 20
108.947
 30
-2.41486e-14
  70
    32
  0
VERTEX
  8
0
  5
43EA
 10
1477.47
 20
108.936
 30
-2.41462e-14
  70
    32
  0
VERTEX
  8
0
  5
43EB
 10
1477.47
 20
108.924
 30
-2.41438e-14
  70
    32
  0
VERTEX
  8
0
  5
43EC
 10
1477.47
 20
108.912
 30
-2.41414e-14
  70
    32
  0
VERTEX
  8
0
  5
43ED
 10
1477.48
 20
108.900
 30
-2.41390e-14
  70
    32
  0
VERTEX
  8
0
  5
43EE
 10
1477.48
 20
108.888
 30
-2.41366e-14
  70
    32
  0
VERTEX
  8
0
  5
43EF
 10
1477.48
 20
108.875
 30
-2.41342e-14
  70
    32
  0
VERTEX
  8
0
  5
43F0
 10
1477.48
 20
108.863
 30
-2.41318e-14
  70
    32
  0
VERTEX
  8
0
  5
43F1
 10
1477.48
 20
108.851
 30
-2.41293e-14
  70
    32
  0
VERTEX
  8
0
  5
43F2
 10
1477.48
 20
108.839
 30
-2.41269e-14
  70
    32
  0
VERTEX
  8
0
  5
43F3
 10
1477.48
 20
108.827
 30
-2.41245e-14
  70
    32
  0
VERTEX
  8
0
  5
43F4
 10
1477.48
 20
108.815
 30
-2.41220e-14
  70
    32
  0
VERTEX
  8
0
  5
43F5
 10
1477.48
 20
108.802
 30
-2.41196e-14
  70
    32
  0
VERTEX
  8
0
  5
43F6
 10
1477.48
 20
108.790
 30
-2.41172e-14
  70
    32
  0
VERTEX
  8
0
  5
43F7
 10
1477.48
 20
108.778
 30
-2.41147e-14
  70
    32
  0
VERTEX
  8
0
  5
43F8
 10
1477.48
 20
108.766
 30
-2.41123e-14
  70
    32
  0
VERTEX
  8
0
  5
43F9
 10
1477.49
 20
108.754
 30
-2.41098e-14
  70
    32
  0
VERTEX
  8
0
  5
43FA
 10
1477.49
 20
108.741
 30
-2.41074e-14
  70
    32
  0
VERTEX
  8
0
  5
43FB
 10
1477.49
 20
108.729
 30
-2.41049e-14
  70
    32
  0
VERTEX
  8
0
  5
43FC
 10
1477.49
 20
108.717
 30
-2.41025e-14
  70
    32
  0
VERTEX
  8
0
  5
43FD
 10
1477.49
 20
108.704
 30
-2.41000e-14
  70
    32
  0
SEQEND
  8
0
  5
43FE
  0
LINE
  5
4064
  8
0
  6
CONTINUOUS
 62
     3
 10
1457.4850305210900387
 20
109.704474828323896
 30
-0.0000000000000244
 11
1476.9858159523480481
 21
109.704474828323896
 31
-0.0000000000000244
210
0.0
220
1.0
230
-0.0000000000000002
  0
LINE
  5
4065
  8
0
  6
CONTINUOUS
 62
     3
 10
1457.4850305210900387
 20
109.704474828323896
 30
-0.0000000000000244
 11
1457.4850305210900387
 21
111.704474828323896
 31
-0.0000000000000248
210
0.0
220
1.0
230
-0.0000000000000002
  0
LINE
  5
4066
  8
0
  6
CONTINUOUS
 62
     3
 10
1486.565942971270033
 20
89.7044748283239102
 30
-0.0000000000000199
 11
1486.565942971270033
 21
91.7044748283239244
 31
-0.0000000000000204
210
0.0
220
1.0
230
-0.0000000000000002
  0
LINE
  5
4067
  8
0
  6
CONTINUOUS
 62
     3
 10
1507.565942971270033
 20
89.7044748283239102
 30
-0.0000000000000199
 11
1507.565942971270033
 21
91.7044748283239244
 31
-0.0000000000000204
210
0.0
220
1.0
230
-0.0000000000000002
  0
LINE
  5
4068
  8
0
  6
CONTINUOUS
 62
     3
 10
1485.6460699901929274
 20
111.7044748283235975
 30
-0.0000000000000248
 11
1502.5659429712709425
 21
111.7044748283235975
 31
-0.0000000000000248
210
0.0
220
1.0
230
-0.0000000000000002
  0
LINE
  5
4069
  8
0
  6
CONTINUOUS
 62
     3
 10
1369.7541793090069859
 20
111.7044748283235975
 30
-0.0000000000000248
 11
1464.8916977834810496
 21
111.7044748283235975
 31
-0.0000000000000248
210
0.0
220
1.0
230
-0.0000000000000002
  0
LINE
  5
406A
  8
0
  6
CONTINUOUS
 62
     3
 10
1502.5659429712709425
 20
115.7044748283235975
 30
-0.0000000000000257
 11
1369.5659429712709425
 21
115.7044748283235975
 31
-0.0000000000000257
210
0.0
220
1.0
230
-0.0000000000000002
  0
LINE
  5
406B
  8
0
  6
CONTINUOUS
 62
     3
 10
1502.5659429712709425
 20
115.7044748283235975
 30
-0.0000000000000257
 11
1502.5659429712709425
 21
111.7044748283235975
 31
-0.0000000000000248
210
0.0
220
1.0
230
-0.0000000000000002
  0
LINE
  5
406C
  8
0
  6
CONTINUOUS
 62
     3
 10
1369.5659429712709425
 20
115.7044748283235975
 30
-0.0000000000000257
 11
1369.5659429712709425
 21
111.7044748283235975
 31
-0.0000000000000248
210
0.0
220
1.0
230
-0.0000000000000002
  0
LINE
  5
406D
  8
0
  6
VERDECKT
 62
     1
 10
1411.4919485797229299
 20
49.8352084424451576
 30
-0.0000000000000111
 11
1460.6399373628189551
 21
49.8352084424451576
 31
-0.0000000000000111
210
0.0
220
1.0
230
-0.0000000000000002
  0
LINE
  5
406E
  8
0
  6
VERDECKT
 62
     1
 10
1411.4919485797229299
 20
49.8352084424451718
 30
-0.0000000000000111
 11
1411.0849694808121058
 21
54.4870008291293288
 31
-0.0000000000000121
210
0.0
220
1.0
230
-0.0000000000000002
  0
LINE
  5
406F
  8
0
  6
VERDECKT
 62
     1
 10
1460.6399373628189551
 20
49.8352084424451718
 30
-0.0000000000000111
 11
1461.0469164617300066
 21
54.4870008291293288
 31
-0.0000000000000121
210
0.0
220
1.0
230
-0.0000000000000002
  0
ARC
  5
4070
  8
0
  6
VERDECKT
 62
     1
 10
-1416.0659429711479333
 20
54.9227795428635801
 30
0.0
 40
4.9999999998765361
210
0.0
220
-0.0000000000000002
230
-1.0
 50
354.999999999922693
 51
0.0000000000482045
  0
ARC
  5
4071
  8
0
  6
VERDECKT
 62
     1
 10
-1456.0659429713950885
 20
54.9227795428636014
 30
0.0
 40
4.9999999998769891
210
0.0
220
-0.0000000000000002
230
-1.0
 50
179.9999999999519957
 51
185.0000000000769944
  0
LINE
  5
4072
  8
0
  6
VERDECKT
 62
     1
 10
1460.6399373628189551
 20
49.8352084424451789
 30
-0.0000000000000111
 11
1462.1342294099570154
 21
49.7044748283236899
 31
-0.000000000000011
210
0.0
220
1.0
230
-0.0000000000000002
  0
LINE
  5
4073
  8
0
  6
VERDECKT
 62
     1
 10
1411.4919485797229299
 20
49.8352084424451789
 30
-0.0000000000000111
 11
1409.9976565325860065
 21
49.7044748283236899
 31
-0.000000000000011
210
0.0
220
1.0
230
-0.0000000000000002
  0
LINE
  5
4074
  8
0
  6
VERDECKT
 62
     1
 10
1461.0659429712720794
 20
111.7044748283235975
 30
-0.0000000000000248
 11
1461.0659429712720794
 21
54.9227795428677865
 31
-0.0000000000000122
210
0.0
220
1.0
230
-0.0000000000000002
  0
LINE
  5
4075
  8
0
  6
VERDECKT
 62
     1
 10
1411.0659429712709425
 20
111.7044748283235975
 30
-0.0000000000000248
 11
1411.0659429712709425
 21
54.9227795428677865
 31
-0.0000000000000122
210
0.0
220
1.0
230
-0.0000000000000002
  0
LINE
  5
4076
  8
0
  6
VERDECKT
 62
     1
 10
1462.5659429712709425
 20
111.7044748283235975
 30
-0.0000000000000248
 11
1462.5659429712709425
 21
109.704474828323896
 31
-0.0000000000000244
210
0.0
220
1.0
230
-0.0000000000000002
  0
LINE
  5
4077
  8
0
  6
VERDECKT
 62
     1
 10
1308.8962487374030843
 20
89.7044748283239102
 30
-0.0000000000000199
 11
1308.8962487374030843
 21
91.7044748283239244
 31
-0.0000000000000204
210
0.0
220
1.0
230
-0.0000000000000002
  0
LINE
  5
4078
  8
0
  6
VERDECKT
 62
     1
 10
1318.8962487374030843
 20
89.7044748283239102
 30
-0.0000000000000199
 11
1318.8962487374030843
 21
91.7044748283239244
 31
-0.0000000000000204
210
0.0
220
1.0
230
-0.0000000000000002
  0
LINE
  5
4079
  8
0
  6
VERDECKT
 62
     1
 10
1466.1452845589340086
 20
111.704474828323896
 30
-0.0000000000000248
 11
1466.1452845589340086
 21
109.704474828323896
 31
-0.0000000000000244
210
0.0
220
1.0
230
-0.0000000000000002
  0
POLYLINE
  5
407A
  8
0
  6
VERDECKT
 62
     1
 10
1487.6460699901929274
 20
89.7044748283239386
 30
-0.0000000000000199
 66
     1
 70
     8
  0
VERTEX
  8
0
  5
43FF
 10
1487.65
 20
89.7045
 30
-1.99000e-14
  70
    32
  0
VERTEX
  8
0
  5
4400
 10
1487.63
 20
89.7047
 30
-1.99001e-14
  70
    32
  0
VERTEX
  8
0
  5
4401
 10
1487.61
 20
89.7054
 30
-1.99002e-14
  70
    32
  0
VERTEX
  8
0
  5
4402
 10
1487.59
 20
89.7065
 30
-1.99005e-14
  70
    32
  0
VERTEX
  8
0
  5
4403
 10
1487.57
 20
89.7081
 30
-1.99008e-14
  70
    32
  0
VERTEX
  8
0
  5
4404
 10
1487.55
 20
89.7101
 30
-1.99013e-14
  70
    32
  0
VERTEX
  8
0
  5
4405
 10
1487.54
 20
89.7126
 30
-1.99019e-14
  70
    32
  0
VERTEX
  8
0
  5
4406
 10
1487.52
 20
89.7155
 30
-1.99026e-14
  70
    32
  0
VERTEX
  8
0
  5
4407
 10
1487.50
 20
89.7189
 30
-1.99034e-14
  70
    32
  0
VERTEX
  8
0
  5
4408
 10
1487.48
 20
89.7228
 30
-1.99043e-14
  70
    32
  0
VERTEX
  8
0
  5
4409
 10
1487.46
 20
89.7270
 30
-1.99053e-14
  70
    32
  0
VERTEX
  8
0
  5
440A
 10
1487.44
 20
89.7318
 30
-1.99064e-14
  70
    32
  0
VERTEX
  8
0
  5
440B
 10
1487.43
 20
89.7369
 30
-1.99076e-14
  70
    32
  0
VERTEX
  8
0
  5
440C
 10
1487.41
 20
89.7426
 30
-1.99089e-14
  70
    32
  0
VERTEX
  8
0
  5
440D
 10
1487.39
 20
89.7486
 30
-1.99103e-14
  70
    32
  0
VERTEX
  8
0
  5
440E
 10
1487.37
 20
89.7552
 30
-1.99118e-14
  70
    32
  0
VERTEX
  8
0
  5
440F
 10
1487.35
 20
89.7621
 30
-1.99135e-14
  70
    32
  0
VERTEX
  8
0
  5
4410
 10
1487.34
 20
89.7695
 30
-1.99152e-14
  70
    32
  0
VERTEX
  8
0
  5
4411
 10
1487.32
 20
89.7774
 30
-1.99170e-14
  70
    32
  0
VERTEX
  8
0
  5
4412
 10
1487.30
 20
89.7857
 30
-1.99189e-14
  70
    32
  0
VERTEX
  8
0
  5
4413
 10
1487.28
 20
89.7944
 30
-1.99210e-14
  70
    32
  0
VERTEX
  8
0
  5
4414
 10
1487.26
 20
89.8035
 30
-1.99231e-14
  70
    32
  0
VERTEX
  8
0
  5
4415
 10
1487.25
 20
89.8131
 30
-1.99254e-14
  70
    32
  0
VERTEX
  8
0
  5
4416
 10
1487.23
 20
89.8232
 30
-1.99277e-14
  70
    32
  0
VERTEX
  8
0
  5
4417
 10
1487.21
 20
89.8337
 30
-1.99301e-14
  70
    32
  0
VERTEX
  8
0
  5
4418
 10
1487.19
 20
89.8446
 30
-1.99327e-14
  70
    32
  0
VERTEX
  8
0
  5
4419
 10
1487.18
 20
89.8559
 30
-1.99353e-14
  70
    32
  0
VERTEX
  8
0
  5
441A
 10
1487.16
 20
89.8677
 30
-1.99381e-14
  70
    32
  0
VERTEX
  8
0
  5
441B
 10
1487.14
 20
89.8798
 30
-1.99409e-14
  70
    32
  0
VERTEX
  8
0
  5
441C
 10
1487.12
 20
89.8925
 30
-1.99439e-14
  70
    32
  0
VERTEX
  8
0
  5
441D
 10
1487.11
 20
89.9055
 30
-1.99469e-14
  70
    32
  0
VERTEX
  8
0
  5
441E
 10
1487.09
 20
89.9190
 30
-1.99500e-14
  70
    32
  0
VERTEX
  8
0
  5
441F
 10
1487.07
 20
89.9328
 30
-1.99533e-14
  70
    32
  0
VERTEX
  8
0
  5
4420
 10
1487.06
 20
89.9471
 30
-1.99566e-14
  70
    32
  0
VERTEX
  8
0
  5
4421
 10
1487.04
 20
89.9618
 30
-1.99601e-14
  70
    32
  0
VERTEX
  8
0
  5
4422
 10
1487.02
 20
89.9770
 30
-1.99636e-14
  70
    32
  0
VERTEX
  8
0
  5
4423
 10
1487.00
 20
89.9925
 30
-1.99672e-14
  70
    32
  0
VERTEX
  8
0
  5
4424
 10
1486.99
 20
90.0085
 30
-1.99709e-14
  70
    32
  0
VERTEX
  8
0
  5
4425
 10
1486.97
 20
90.0248
 30
-1.99747e-14
  70
    32
  0
VERTEX
  8
0
  5
4426
 10
1486.96
 20
90.0416
 30
-1.99787e-14
  70
    32
  0
VERTEX
  8
0
  5
4427
 10
1486.94
 20
90.0587
 30
-1.99827e-14
  70
    32
  0
VERTEX
  8
0
  5
4428
 10
1486.92
 20
90.0763
 30
-1.99868e-14
  70
    32
  0
VERTEX
  8
0
  5
4429
 10
1486.91
 20
90.0942
 30
-1.99909e-14
  70
    32
  0
VERTEX
  8
0
  5
442A
 10
1486.89
 20
90.1126
 30
-1.99952e-14
  70
    32
  0
VERTEX
  8
0
  5
442B
 10
1486.87
 20
90.1313
 30
-1.99996e-14
  70
    32
  0
VERTEX
  8
0
  5
442C
 10
1486.86
 20
90.1504
 30
-2.00041e-14
  70
    32
  0
VERTEX
  8
0
  5
442D
 10
1486.84
 20
90.1699
 30
-2.00086e-14
  70
    32
  0
VERTEX
  8
0
  5
442E
 10
1486.83
 20
90.1898
 30
-2.00132e-14
  70
    32
  0
VERTEX
  8
0
  5
442F
 10
1486.81
 20
90.2101
 30
-2.00180e-14
  70
    32
  0
VERTEX
  8
0
  5
4430
 10
1486.80
 20
90.2307
 30
-2.00228e-14
  70
    32
  0
VERTEX
  8
0
  5
4431
 10
1486.78
 20
90.2517
 30
-2.00277e-14
  70
    32
  0
VERTEX
  8
0
  5
4432
 10
1486.77
 20
90.2731
 30
-2.00327e-14
  70
    32
  0
VERTEX
  8
0
  5
4433
 10
1486.75
 20
90.2949
 30
-2.00378e-14
  70
    32
  0
VERTEX
  8
0
  5
4434
 10
1486.74
 20
90.3170
 30
-2.00429e-14
  70
    32
  0
VERTEX
  8
0
  5
4435
 10
1486.72
 20
90.3394
 30
-2.00482e-14
  70
    32
  0
VERTEX
  8
0
  5
4436
 10
1486.71
 20
90.3623
 30
-2.00535e-14
  70
    32
  0
VERTEX
  8
0
  5
4437
 10
1486.69
 20
90.3854
 30
-2.00589e-14
  70
    32
  0
VERTEX
  8
0
  5
4438
 10
1486.68
 20
90.4090
 30
-2.00644e-14
  70
    32
  0
VERTEX
  8
0
  5
4439
 10
1486.67
 20
90.4328
 30
-2.00700e-14
  70
    32
  0
VERTEX
  8
0
  5
443A
 10
1486.65
 20
90.4571
 30
-2.00756e-14
  70
    32
  0
VERTEX
  8
0
  5
443B
 10
1486.64
 20
90.4816
 30
-2.00813e-14
  70
    32
  0
VERTEX
  8
0
  5
443C
 10
1486.63
 20
90.5065
 30
-2.00871e-14
  70
    32
  0
VERTEX
  8
0
  5
443D
 10
1486.61
 20
90.5317
 30
-2.00930e-14
  70
    32
  0
VERTEX
  8
0
  5
443E
 10
1486.60
 20
90.5573
 30
-2.00990e-14
  70
    32
  0
VERTEX
  8
0
  5
443F
 10
1486.59
 20
90.5832
 30
-2.01050e-14
  70
    32
  0
VERTEX
  8
0
  5
4440
 10
1486.57
 20
90.6093
 30
-2.01111e-14
  70
    32
  0
VERTEX
  8
0
  5
4441
 10
1486.56
 20
90.6359
 30
-2.01173e-14
  70
    32
  0
VERTEX
  8
0
  5
4442
 10
1486.55
 20
90.6627
 30
-2.01236e-14
  70
    32
  0
VERTEX
  8
0
  5
4443
 10
1486.53
 20
90.6898
 30
-2.01299e-14
  70
    32
  0
VERTEX
  8
0
  5
4444
 10
1486.52
 20
90.7172
 30
-2.01363e-14
  70
    32
  0
VERTEX
  8
0
  5
4445
 10
1486.51
 20
90.7450
 30
-2.01428e-14
  70
    32
  0
VERTEX
  8
0
  5
4446
 10
1486.50
 20
90.7730
 30
-2.01493e-14
  70
    32
  0
VERTEX
  8
0
  5
4447
 10
1486.49
 20
90.8013
 30
-2.01559e-14
  70
    32
  0
VERTEX
  8
0
  5
4448
 10
1486.47
 20
90.8299
 30
-2.01626e-14
  70
    32
  0
VERTEX
  8
0
  5
4449
 10
1486.46
 20
90.8588
 30
-2.01693e-14
  70
    32
  0
VERTEX
  8
0
  5
444A
 10
1486.45
 20
90.8879
 30
-2.01761e-14
  70
    32
  0
VERTEX
  8
0
  5
444B
 10
1486.44
 20
90.9174
 30
-2.01830e-14
  70
    32
  0
VERTEX
  8
0
  5
444C
 10
1486.43
 20
90.9471
 30
-2.01899e-14
  70
    32
  0
VERTEX
  8
0
  5
444D
 10
1486.42
 20
90.9771
 30
-2.01969e-14
  70
    32
  0
VERTEX
  8
0
  5
444E
 10
1486.41
 20
91.0073
 30
-2.02040e-14
  70
    32
  0
VERTEX
  8
0
  5
444F
 10
1486.40
 20
91.0378
 30
-2.02111e-14
  70
    32
  0
VERTEX
  8
0
  5
4450
 10
1486.39
 20
91.0685
 30
-2.02183e-14
  70
    32
  0
VERTEX
  8
0
  5
4451
 10
1486.38
 20
91.0995
 30
-2.02255e-14
  70
    32
  0
VERTEX
  8
0
  5
4452
 10
1486.37
 20
91.1307
 30
-2.02328e-14
  70
    32
  0
VERTEX
  8
0
  5
4453
 10
1486.36
 20
91.1622
 30
-2.02401e-14
  70
    32
  0
VERTEX
  8
0
  5
4454
 10
1486.35
 20
91.1939
 30
-2.02475e-14
  70
    32
  0
VERTEX
  8
0
  5
4455
 10
1486.34
 20
91.2258
 30
-2.02550e-14
  70
    32
  0
VERTEX
  8
0
  5
4456
 10
1486.33
 20
91.2579
 30
-2.02625e-14
  70
    32
  0
VERTEX
  8
0
  5
4457
 10
1486.32
 20
91.2903
 30
-2.02700e-14
  70
    32
  0
VERTEX
  8
0
  5
4458
 10
1486.31
 20
91.3229
 30
-2.02776e-14
  70
    32
  0
VERTEX
  8
0
  5
4459
 10
1486.31
 20
91.3556
 30
-2.02853e-14
  70
    32
  0
VERTEX
  8
0
  5
445A
 10
1486.30
 20
91.3886
 30
-2.02930e-14
  70
    32
  0
VERTEX
  8
0
  5
445B
 10
1486.29
 20
91.4218
 30
-2.03007e-14
  70
    32
  0
VERTEX
  8
0
  5
445C
 10
1486.28
 20
91.4552
 30
-2.03085e-14
  70
    32
  0
VERTEX
  8
0
  5
445D
 10
1486.27
 20
91.4888
 30
-2.03163e-14
  70
    32
  0
VERTEX
  8
0
  5
445E
 10
1486.27
 20
91.5225
 30
-2.03242e-14
  70
    32
  0
VERTEX
  8
0
  5
445F
 10
1486.26
 20
91.5564
 30
-2.03321e-14
  70
    32
  0
VERTEX
  8
0
  5
4460
 10
1486.25
 20
91.5905
 30
-2.03401e-14
  70
    32
  0
VERTEX
  8
0
  5
4461
 10
1486.25
 20
91.6248
 30
-2.03481e-14
  70
    32
  0
VERTEX
  8
0
  5
4462
 10
1486.24
 20
91.6592
 30
-2.03561e-14
  70
    32
  0
VERTEX
  8
0
  5
4463
 10
1486.23
 20
91.6938
 30
-2.03642e-14
  70
    32
  0
VERTEX
  8
0
  5
4464
 10
1486.23
 20
91.7285
 30
-2.03723e-14
  70
    32
  0
VERTEX
  8
0
  5
4465
 10
1486.22
 20
91.7634
 30
-2.03804e-14
  70
    32
  0
VERTEX
  8
0
  5
4466
 10
1486.22
 20
91.7985
 30
-2.03886e-14
  70
    32
  0
VERTEX
  8
0
  5
4467
 10
1486.21
 20
91.8336
 30
-2.03968e-14
  70
    32
  0
VERTEX
  8
0
  5
4468
 10
1486.21
 20
91.8689
 30
-2.04050e-14
  70
    32
  0
VERTEX
  8
0
  5
4469
 10
1486.20
 20
91.9043
 30
-2.04133e-14
  70
    32
  0
VERTEX
  8
0
  5
446A
 10
1486.20
 20
91.9399
 30
-2.04216e-14
  70
    32
  0
VERTEX
  8
0
  5
446B
 10
1486.19
 20
91.9755
 30
-2.04299e-14
  70
    32
  0
VERTEX
  8
0
  5
446C
 10
1486.19
 20
92.0113
 30
-2.04383e-14
  70
    32
  0
VERTEX
  8
0
  5
446D
 10
1486.18
 20
92.0472
 30
-2.04466e-14
  70
    32
  0
VERTEX
  8
0
  5
446E
 10
1486.18
 20
92.0831
 30
-2.04550e-14
  70
    32
  0
VERTEX
  8
0
  5
446F
 10
1486.17
 20
92.1192
 30
-2.04634e-14
  70
    32
  0
VERTEX
  8
0
  5
4470
 10
1486.17
 20
92.1554
 30
-2.04719e-14
  70
    32
  0
VERTEX
  8
0
  5
4471
 10
1486.17
 20
92.1916
 30
-2.04803e-14
  70
    32
  0
VERTEX
  8
0
  5
4472
 10
1486.17
 20
92.2279
 30
-2.04888e-14
  70
    32
  0
VERTEX
  8
0
  5
4473
 10
1486.16
 20
92.2643
 30
-2.04973e-14
  70
    32
  0
VERTEX
  8
0
  5
4474
 10
1486.16
 20
92.3007
 30
-2.05058e-14
  70
    32
  0
VERTEX
  8
0
  5
4475
 10
1486.16
 20
92.3372
 30
-2.05143e-14
  70
    32
  0
VERTEX
  8
0
  5
4476
 10
1486.16
 20
92.3738
 30
-2.05228e-14
  70
    32
  0
VERTEX
  8
0
  5
4477
 10
1486.15
 20
92.4104
 30
-2.05314e-14
  70
    32
  0
VERTEX
  8
0
  5
4478
 10
1486.15
 20
92.4471
 30
-2.05399e-14
  70
    32
  0
VERTEX
  8
0
  5
4479
 10
1486.15
 20
92.4838
 30
-2.05485e-14
  70
    32
  0
VERTEX
  8
0
  5
447A
 10
1486.15
 20
92.5205
 30
-2.05571e-14
  70
    32
  0
VERTEX
  8
0
  5
447B
 10
1486.15
 20
92.5573
 30
-2.05657e-14
  70
    32
  0
VERTEX
  8
0
  5
447C
 10
1486.15
 20
92.5941
 30
-2.05742e-14
  70
    32
  0
VERTEX
  8
0
  5
447D
 10
1486.15
 20
92.6309
 30
-2.05828e-14
  70
    32
  0
VERTEX
  8
0
  5
447E
 10
1486.15
 20
92.6677
 30
-2.05914e-14
  70
    32
  0
VERTEX
  8
0
  5
447F
 10
1486.15
 20
92.7045
 30
-2.06000e-14
  70
    32
  0
SEQEND
  8
0
  5
4480
  0
LINE
  5
407B
  8
0
  6
VERDECKT
 62
     1
 10
1486.1460699901929274
 20
92.7044748283239102
 30
-0.0000000000000206
 11
1486.1460699901929274
 21
108.704474828323896
 31
-0.0000000000000241
210
0.0
220
1.0
230
-0.0000000000000002
  0
POLYLINE
  5
407C
  8
0
  6
VERDECKT
 62
     1
 10
1486.1460699901929274
 20
108.7044748283239244
 30
-0.0000000000000241
 66
     1
 70
     8
  0
VERTEX
  8
0
  5
4481
 10
1486.15
 20
108.704
 30
-2.41000e-14
  70
    32
  0
VERTEX
  8
0
  5
4482
 10
1486.15
 20
108.717
 30
-2.41025e-14
  70
    32
  0
VERTEX
  8
0
  5
4483
 10
1486.15
 20
108.729
 30
-2.41049e-14
  70
    32
  0
VERTEX
  8
0
  5
4484
 10
1486.15
 20
108.741
 30
-2.41074e-14
  70
    32
  0
VERTEX
  8
0
  5
4485
 10
1486.15
 20
108.754
 30
-2.41098e-14
  70
    32
  0
VERTEX
  8
0
  5
4486
 10
1486.15
 20
108.766
 30
-2.41123e-14
  70
    32
  0
VERTEX
  8
0
  5
4487
 10
1486.14
 20
108.778
 30
-2.41147e-14
  70
    32
  0
VERTEX
  8
0
  5
4488
 10
1486.14
 20
108.790
 30
-2.41172e-14
  70
    32
  0
VERTEX
  8
0
  5
4489
 10
1486.14
 20
108.802
 30
-2.41196e-14
  70
    32
  0
VERTEX
  8
0
  5
448A
 10
1486.14
 20
108.815
 30
-2.41220e-14
  70
    32
  0
VERTEX
  8
0
  5
448B
 10
1486.14
 20
108.827
 30
-2.41245e-14
  70
    32
  0
VERTEX
  8
0
  5
448C
 10
1486.14
 20
108.839
 30
-2.41269e-14
  70
    32
  0
VERTEX
  8
0
  5
448D
 10
1486.14
 20
108.851
 30
-2.41293e-14
  70
    32
  0
VERTEX
  8
0
  5
448E
 10
1486.14
 20
108.863
 30
-2.41318e-14
  70
    32
  0
VERTEX
  8
0
  5
448F
 10
1486.14
 20
108.875
 30
-2.41342e-14
  70
    32
  0
VERTEX
  8
0
  5
4490
 10
1486.14
 20
108.888
 30
-2.41366e-14
  70
    32
  0
VERTEX
  8
0
  5
4491
 10
1486.14
 20
108.900
 30
-2.41390e-14
  70
    32
  0
VERTEX
  8
0
  5
4492
 10
1486.14
 20
108.912
 30
-2.41414e-14
  70
    32
  0
VERTEX
  8
0
  5
4493
 10
1486.13
 20
108.924
 30
-2.41438e-14
  70
    32
  0
VERTEX
  8
0
  5
4494
 10
1486.13
 20
108.936
 30
-2.41462e-14
  70
    32
  0
VERTEX
  8
0
  5
4495
 10
1486.13
 20
108.947
 30
-2.41486e-14
  70
    32
  0
VERTEX
  8
0
  5
4496
 10
1486.13
 20
108.959
 30
-2.41510e-14
  70
    32
  0
VERTEX
  8
0
  5
4497
 10
1486.13
 20
108.971
 30
-2.41533e-14
  70
    32
  0
VERTEX
  8
0
  5
4498
 10
1486.13
 20
108.983
 30
-2.41557e-14
  70
    32
  0
VERTEX
  8
0
  5
4499
 10
1486.12
 20
108.995
 30
-2.41581e-14
  70
    32
  0
VERTEX
  8
0
  5
449A
 10
1486.12
 20
109.006
 30
-2.41604e-14
  70
    32
  0
VERTEX
  8
0
  5
449B
 10
1486.12
 20
109.018
 30
-2.41627e-14
  70
    32
  0
VERTEX
  8
0
  5
449C
 10
1486.12
 20
109.030
 30
-2.41651e-14
  70
    32
  0
VERTEX
  8
0
  5
449D
 10
1486.12
 20
109.041
 30
-2.41674e-14
  70
    32
  0
VERTEX
  8
0
  5
449E
 10
1486.11
 20
109.053
 30
-2.41697e-14
  70
    32
  0
VERTEX
  8
0
  5
449F
 10
1486.11
 20
109.064
 30
-2.41720e-14
  70
    32
  0
VERTEX
  8
0
  5
44A0
 10
1486.11
 20
109.076
 30
-2.41743e-14
  70
    32
  0
VERTEX
  8
0
  5
44A1
 10
1486.11
 20
109.087
 30
-2.41765e-14
  70
    32
  0
VERTEX
  8
0
  5
44A2
 10
1486.11
 20
109.098
 30
-2.41788e-14
  70
    32
  0
VERTEX
  8
0
  5
44A3
 10
1486.10
 20
109.110
 30
-2.41810e-14
  70
    32
  0
VERTEX
  8
0
  5
44A4
 10
1486.10
 20
109.121
 30
-2.41833e-14
  70
    32
  0
VERTEX
  8
0
  5
44A5
 10
1486.10
 20
109.132
 30
-2.41855e-14
  70
    32
  0
VERTEX
  8
0
  5
44A6
 10
1486.10
 20
109.143
 30
-2.41877e-14
  70
    32
  0
VERTEX
  8
0
  5
44A7
 10
1486.09
 20
109.154
 30
-2.41899e-14
  70
    32
  0
VERTEX
  8
0
  5
44A8
 10
1486.09
 20
109.165
 30
-2.41921e-14
  70
    32
  0
VERTEX
  8
0
  5
44A9
 10
1486.09
 20
109.176
 30
-2.41943e-14
  70
    32
  0
VERTEX
  8
0
  5
44AA
 10
1486.08
 20
109.187
 30
-2.41964e-14
  70
    32
  0
VERTEX
  8
0
  5
44AB
 10
1486.08
 20
109.197
 30
-2.41986e-14
  70
    32
  0
VERTEX
  8
0
  5
44AC
 10
1486.08
 20
109.208
 30
-2.42007e-14
  70
    32
  0
VERTEX
  8
0
  5
44AD
 10
1486.07
 20
109.219
 30
-2.42028e-14
  70
    32
  0
VERTEX
  8
0
  5
44AE
 10
1486.07
 20
109.229
 30
-2.42049e-14
  70
    32
  0
VERTEX
  8
0
  5
44AF
 10
1486.07
 20
109.239
 30
-2.42070e-14
  70
    32
  0
VERTEX
  8
0
  5
44B0
 10
1486.07
 20
109.250
 30
-2.42091e-14
  70
    32
  0
VERTEX
  8
0
  5
44B1
 10
1486.06
 20
109.260
 30
-2.42111e-14
  70
    32
  0
VERTEX
  8
0
  5
44B2
 10
1486.06
 20
109.270
 30
-2.42131e-14
  70
    32
  0
VERTEX
  8
0
  5
44B3
 10
1486.05
 20
109.280
 30
-2.42152e-14
  70
    32
  0
VERTEX
  8
0
  5
44B4
 10
1486.05
 20
109.290
 30
-2.42172e-14
  70
    32
  0
VERTEX
  8
0
  5
44B5
 10
1486.05
 20
109.300
 30
-2.42191e-14
  70
    32
  0
VERTEX
  8
0
  5
44B6
 10
1486.04
 20
109.310
 30
-2.42211e-14
  70
    32
  0
VERTEX
  8
0
  5
44B7
 10
1486.04
 20
109.320
 30
-2.42230e-14
  70
    32
  0
VERTEX
  8
0
  5
44B8
 10
1486.04
 20
109.329
 30
-2.42250e-14
  70
    32
  0
VERTEX
  8
0
  5
44B9
 10
1486.03
 20
109.339
 30
-2.42269e-14
  70
    32
  0
VERTEX
  8
0
  5
44BA
 10
1486.03
 20
109.348
 30
-2.42288e-14
  70
    32
  0
VERTEX
  8
0
  5
44BB
 10
1486.02
 20
109.358
 30
-2.42306e-14
  70
    32
  0
VERTEX
  8
0
  5
44BC
 10
1486.02
 20
109.367
 30
-2.42325e-14
  70
    32
  0
VERTEX
  8
0
  5
44BD
 10
1486.02
 20
109.376
 30
-2.42343e-14
  70
    32
  0
VERTEX
  8
0
  5
44BE
 10
1486.01
 20
109.385
 30
-2.42361e-14
  70
    32
  0
VERTEX
  8
0
  5
44BF
 10
1486.01
 20
109.394
 30
-2.42379e-14
  70
    32
  0
VERTEX
  8
0
  5
44C0
 10
1486.00
 20
109.403
 30
-2.42397e-14
  70
    32
  0
VERTEX
  8
0
  5
44C1
 10
1486.00
 20
109.412
 30
-2.42414e-14
  70
    32
  0
VERTEX
  8
0
  5
44C2
 10
1486.00
 20
109.420
 30
-2.42431e-14
  70
    32
  0
VERTEX
  8
0
  5
44C3
 10
1485.99
 20
109.429
 30
-2.42448e-14
  70
    32
  0
VERTEX
  8
0
  5
44C4
 10
1485.99
 20
109.437
 30
-2.42465e-14
  70
    32
  0
VERTEX
  8
0
  5
44C5
 10
1485.98
 20
109.445
 30
-2.42482e-14
  70
    32
  0
VERTEX
  8
0
  5
44C6
 10
1485.98
 20
109.454
 30
-2.42498e-14
  70
    32
  0
VERTEX
  8
0
  5
44C7
 10
1485.97
 20
109.462
 30
-2.42514e-14
  70
    32
  0
VERTEX
  8
0
  5
44C8
 10
1485.97
 20
109.470
 30
-2.42530e-14
  70
    32
  0
VERTEX
  8
0
  5
44C9
 10
1485.96
 20
109.477
 30
-2.42546e-14
  70
    32
  0
VERTEX
  8
0
  5
44CA
 10
1485.96
 20
109.485
 30
-2.42561e-14
  70
    32
  0
VERTEX
  8
0
  5
44CB
 10
1485.95
 20
109.493
 30
-2.42577e-14
  70
    32
  0
VERTEX
  8
0
  5
44CC
 10
1485.95
 20
109.500
 30
-2.42592e-14
  70
    32
  0
VERTEX
  8
0
  5
44CD
 10
1485.94
 20
109.508
 30
-2.42606e-14
  70
    32
  0
VERTEX
  8
0
  5
44CE
 10
1485.94
 20
109.515
 30
-2.42621e-14
  70
    32
  0
VERTEX
  8
0
  5
44CF
 10
1485.93
 20
109.522
 30
-2.42635e-14
  70
    32
  0
VERTEX
  8
0
  5
44D0
 10
1485.93
 20
109.529
 30
-2.42649e-14
  70
    32
  0
VERTEX
  8
0
  5
44D1
 10
1485.92
 20
109.536
 30
-2.42663e-14
  70
    32
  0
VERTEX
  8
0
  5
44D2
 10
1485.92
 20
109.543
 30
-2.42676e-14
  70
    32
  0
VERTEX
  8
0
  5
44D3
 10
1485.91
 20
109.549
 30
-2.42690e-14
  70
    32
  0
VERTEX
  8
0
  5
44D4
 10
1485.91
 20
109.556
 30
-2.42703e-14
  70
    32
  0
VERTEX
  8
0
  5
44D5
 10
1485.90
 20
109.562
 30
-2.42715e-14
  70
    32
  0
VERTEX
  8
0
  5
44D6
 10
1485.90
 20
109.568
 30
-2.42728e-14
  70
    32
  0
VERTEX
  8
0
  5
44D7
 10
1485.89
 20
109.575
 30
-2.42740e-14
  70
    32
  0
VERTEX
  8
0
  5
44D8
 10
1485.89
 20
109.581
 30
-2.42752e-14
  70
    32
  0
VERTEX
  8
0
  5
44D9
 10
1485.88
 20
109.586
 30
-2.42764e-14
  70
    32
  0
VERTEX
  8
0
  5
44DA
 10
1485.88
 20
109.592
 30
-2.42775e-14
  70
    32
  0
VERTEX
  8
0
  5
44DB
 10
1485.87
 20
109.598
 30
-2.42786e-14
  70
    32
  0
VERTEX
  8
0
  5
44DC
 10
1485.87
 20
109.603
 30
-2.42797e-14
  70
    32
  0
VERTEX
  8
0
  5
44DD
 10
1485.86
 20
109.608
 30
-2.42808e-14
  70
    32
  0
VERTEX
  8
0
  5
44DE
 10
1485.85
 20
109.614
 30
-2.42818e-14
  70
    32
  0
VERTEX
  8
0
  5
44DF
 10
1485.85
 20
109.619
 30
-2.42828e-14
  70
    32
  0
VERTEX
  8
0
  5
44E0
 10
1485.84
 20
109.624
 30
-2.42838e-14
  70
    32
  0
VERTEX
  8
0
  5
44E1
 10
1485.84
 20
109.628
 30
-2.42848e-14
  70
    32
  0
VERTEX
  8
0
  5
44E2
 10
1485.83
 20
109.633
 30
-2.42857e-14
  70
    32
  0
VERTEX
  8
0
  5
44E3
 10
1485.83
 20
109.637
 30
-2.42866e-14
  70
    32
  0
VERTEX
  8
0
  5
44E4
 10
1485.82
 20
109.642
 30
-2.42875e-14
  70
    32
  0
VERTEX
  8
0
  5
44E5
 10
1485.81
 20
109.646
 30
-2.42883e-14
  70
    32
  0
VERTEX
  8
0
  5
44E6
 10
1485.81
 20
109.650
 30
-2.42891e-14
  70
    32
  0
VERTEX
  8
0
  5
44E7
 10
1485.80
 20
109.654
 30
-2.42899e-14
  70
    32
  0
VERTEX
  8
0
  5
44E8
 10
1485.80
 20
109.658
 30
-2.42907e-14
  70
    32
  0
VERTEX
  8
0
  5
44E9
 10
1485.79
 20
109.661
 30
-2.42914e-14
  70
    32
  0
VERTEX
  8
0
  5
44EA
 10
1485.79
 20
109.665
 30
-2.42921e-14
  70
    32
  0
VERTEX
  8
0
  5
44EB
 10
1485.78
 20
109.668
 30
-2.42928e-14
  70
    32
  0
VERTEX
  8
0
  5
44EC
 10
1485.77
 20
109.671
 30
-2.42934e-14
  70
    32
  0
VERTEX
  8
0
  5
44ED
 10
1485.77
 20
109.675
 30
-2.42940e-14
  70
    32
  0
VERTEX
  8
0
  5
44EE
 10
1485.76
 20
109.677
 30
-2.42946e-14
  70
    32
  0
VERTEX
  8
0
  5
44EF
 10
1485.76
 20
109.680
 30
-2.42951e-14
  70
    32
  0
VERTEX
  8
0
  5
44F0
 10
1485.75
 20
109.683
 30
-2.42957e-14
  70
    32
  0
VERTEX
  8
0
  5
44F1
 10
1485.74
 20
109.685
 30
-2.42962e-14
  70
    32
  0
VERTEX
  8
0
  5
44F2
 10
1485.74
 20
109.688
 30
-2.42966e-14
  70
    32
  0
VERTEX
  8
0
  5
44F3
 10
1485.73
 20
109.690
 30
-2.42971e-14
  70
    32
  0
VERTEX
  8
0
  5
44F4
 10
1485.73
 20
109.692
 30
-2.42975e-14
  70
    32
  0
VERTEX
  8
0
  5
44F5
 10
1485.72
 20
109.694
 30
-2.42978e-14
  70
    32
  0
VERTEX
  8
0
  5
44F6
 10
1485.71
 20
109.695
 30
-2.42982e-14
  70
    32
  0
VERTEX
  8
0
  5
44F7
 10
1485.71
 20
109.697
 30
-2.42985e-14
  70
    32
  0
VERTEX
  8
0
  5
44F8
 10
1485.70
 20
109.698
 30
-2.42988e-14
  70
    32
  0
VERTEX
  8
0
  5
44F9
 10
1485.70
 20
109.700
 30
-2.42990e-14
  70
    32
  0
VERTEX
  8
0
  5
44FA
 10
1485.69
 20
109.701
 30
-2.42993e-14
  70
    32
  0
VERTEX
  8
0
  5
44FB
 10
1485.68
 20
109.702
 30
-2.42995e-14
  70
    32
  0
VERTEX
  8
0
  5
44FC
 10
1485.68
 20
109.703
 30
-2.42996e-14
  70
    32
  0
VERTEX
  8
0
  5
44FD
 10
1485.67
 20
109.703
 30
-2.42998e-14
  70
    32
  0
VERTEX
  8
0
  5
44FE
 10
1485.66
 20
109.704
 30
-2.42999e-14
  70
    32
  0
VERTEX
  8
0
  5
44FF
 10
1485.66
 20
109.704
 30
-2.42999e-14
  70
    32
  0
VERTEX
  8
0
  5
4500
 10
1485.65
 20
109.704
 30
-2.43000e-14
  70
    32
  0
VERTEX
  8
0
  5
4501
 10
1485.65
 20
109.704
 30
-2.43000e-14
  70
    32
  0
SEQEND
  8
0
  5
4502
  0
LINE
  5
407D
  8
0
  6
VERDECKT
 62
     1
 10
1476.9858159523480481
 20
109.704474828323896
 30
-0.0000000000000244
 11
1485.6460699901929274
 21
109.704474828323896
 31
-0.0000000000000244
210
0.0
220
1.0
230
-0.0000000000000002
  0
LINE
  5
407E
  8
0
  6
VERDECKT
 62
     1
 10
1491.8962487374019474
 20
89.7044748283239102
 30
-0.0000000000000199
 11
1491.8962487374019474
 21
91.7044748283239244
 31
-0.0000000000000204
210
0.0
220
1.0
230
-0.0000000000000002
  0
LINE
  5
407F
  8
0
  6
VERDECKT
 62
     1
 10
1501.8962487374019474
 20
89.7044748283239102
 30
-0.0000000000000199
 11
1501.8962487374019474
 21
91.7044748283239244
 31
-0.0000000000000204
210
0.0
220
1.0
230
-0.0000000000000002
  0
LINE
  5
4080
  8
0
  6
VERDECKT
 62
     1
 10
1487.5873058367599242
 20
89.7044748283239102
 30
-0.0000000000000199
 11
1487.5873058367599242
 21
91.7044748283239244
 31
-0.0000000000000204
210
0.0
220
1.0
230
-0.0000000000000002
  0
LINE
  5
4081
  8
0
  6
VERDECKT
 62
     1
 10
1461.0659429712709425
 20
115.7044748283235975
 30
-0.0000000000000257
 11
1461.0659429712709425
 21
111.7044748283235975
 31
-0.0000000000000248
210
0.0
220
1.0
230
-0.0000000000000002
  0
LINE
  5
4082
  8
0
  6
VERDECKT
 62
     1
 10
1411.0659429712709425
 20
115.7044748283235975
 30
-0.0000000000000257
 11
1411.0659429712709425
 21
111.7044748283235975
 31
-0.0000000000000248
210
0.0
220
1.0
230
-0.0000000000000002
  0
ENDBLK
  5
4084
  8
0
  0
ENDSEC
  0
SECTION
  2
ENTITIES
  0
TEXT
  5
8E
  8
VOLL
 10
78.076754716981128
 20
31.025947764705851
 30
0.0
 40
1.8
  1

  7
GREEKS
  0
TEXT
  5
3F8
  8
VOLL
 10
232.4453170281487075
 20
256.6053843457785888
 30
0.0
 40
1.8
  1

  7
GREEKS
  0
TEXT
  5
563
  8
VOLL
 10
913.1561717060659475
 20
555.6970385008603444
 30
0.0
 40
1.8
  1

  7
GREEKS
  0
TEXT
  5
564
  8
VOLL
 10
1034.558940375246948
 20
763.0174465461228692
 30
0.0
 40
1.8
  1

  7
GREEKS
  0
TEXT
  5
565
  8
VOLL
 10
1361.1668700541220005
 20
761.7708785228222723
 30
0.0
 40
1.8
  1

  7
GREEKS
  0
TEXT
  5
566
  8
VOLL
 10
1365.1575717418750173
 20
585.890452438626312
 30
0.0
 40
1.8
  1

  7
GREEKS
  0
TEXT
  5
56A
  8
VOLL
 10
544.7523358960730775
 20
380.7091754046019787
 30
0.0
 40
9.0
  1

  7
GREEKS
  0
TEXT
  5
97F
  8
TEXT
 62
     1
 10
474.2567872507045195
 20
560.3452306383181849
 30
0.0
 40
7.0
  1

 41
0.8
  7
GREEKS
  0
TEXT
  5
11C9
  8
VOLL
 10
1863.3881352428109039
 20
188.636250982501906
 30
0.0
 40
3.6000000000000001
  1

  7
GREEKS
  0
TEXT
  5
11CA
  8
VOLL
 10
2106.1936725811729048
 20
603.2770670730269558
 30
0.0
 40
3.6000000000000001
  1

  7
GREEKS
  0
TEXT
  5
11CB
  8
VOLL
 10
2765.8600945100129138
 20
236.0982190048405016
 30
0.0
 40
3.6000000000000001
  1

  7
GREEKS
  0
TEXT
  5
11CC
  8
VOLL
 10
2758.1955414813378411
 20
213.6905715479188075
 30
0.0
 40
3.6000000000000001
  1

  7
GREEKS
  0
INSERT
  5
19D0
  8
ADSK_ASSOC_ENTITY_BACKUPS
  2
*S1
 10
0.0
 20
0.0
 30
0.0
  0
INSERT
  5
403B
  8
0
  2
A$CF7D0897F
 10
1596.502548985454041
 20
-54.3387297341088171
 30
-62.2812036223646004
  0
INSERT
  5
4085
  8
0
  2
A$CDED11CF7
 10
1596.502548985454041
 20
247.4896241326252095
 30
-62.2812036223641599
  0
VIEWPORT
  5
14A6
 67
     1
  8
0
 10
204.6480864123797971
 20
142.3991607884441066
 30
0.0
 40
533.8638859178814755
 41
299.049422726727812
 68
     1
 69
     1
1001
ACAD
1000
MVIEW
1002
{
1070
    16
1010
0.0
1020
0.0
1030
0.0
1010
0.0
1020
0.0
1030
1.0
1040
0.0
1040
299.049422726727812
1040
204.6480864123797971
1040
142.3991607884441066
1040
50.0
1040
0.0
1040
0.0
1070
     0
1070
  1500
1070
     1
1070
     1
1070
     0
1070
     0
1070
     0
1070
     0
1040
0.0
1040
0.0
1040
0.0
1040
10.0
1040
10.0
1040
10.0
1040
10.0
1070
     0
1002
{
1002
}
1002
}
  0
ENDSEC
  0
EOF
