  0
SECTION
  2
HEADER
  9
$ACADVER
  1
AC1009
  9
$INSBASE
 10
0.0
 20
0.0
 30
0.0
  9
$EXTMIN
 10
57.7071067811865319
 20
20.1429443359375
 30
-114.4260177612303977
  9
$EXTMAX
 10
365.609344482421875
 20
20.1429451041372189
 30
136.8501129150390057
  9
$LIMMIN
 10
0.0
 20
0.0
  9
$LIMMAX
 10
419.9999999999998863
 20
594.0
  9
$ORTHOMODE
 70
     1
  9
$REGENMODE
 70
     1
  9
$FILLMODE
 70
     1
  9
$QTEXTMODE
 70
     0
  9
$MIRRTEXT
 70
     1
  9
$DRAGMODE
 70
     2
  9
$LTSCALE
 40
20.0
  9
$OSMODE
 70
  1535
  9
$ATTMODE
 70
     1
  9
$TEXTSIZE
 40
3.5
  9
$TRACEWID
 40
0.5
  9
$TEXTSTYLE
  7
STANDARD
  9
$CLAYER
  8
STEMPEL
  9
$CELTYPE
  6
BYLAYER
  9
$CECOLOR
 62
   256
  9
$DIMSCALE
 40
1.0
  9
$DIMASZ
 40
3.5
  9
$DIMEXO
 40
1.0
  9
$DIMDLI
 40
0.38
  9
$DIMRND
 40
0.0
  9
$DIMDLE
 40
0.0
  9
$DIMEXE
 40
1.0
  9
$DIMTP
 40
0.0
  9
$DIMTM
 40
0.000000001
  9
$DIMTXT
 40
3.5
  9
$DIMCEN
 40
0.09
  9
$DIMTSZ
 40
0.0
  9
$DIMTOL
 70
     0
  9
$DIMLIM
 70
     0
  9
$DIMTIH
 70
     0
  9
$DIMTOH
 70
     0
  9
$DIMSE1
 70
     0
  9
$DIMSE2
 70
     0
  9
$DIMTAD
 70
     1
  9
$DIMZIN
 70
     8
  9
$DIMBLK
  1

  9
$DIMASO
 70
     1
  9
$DIMSHO
 70
     0
  9
$DIMPOST
  1

  9
$DIMAPOST
  1

  9
$DIMALT
 70
     0
  9
$DIMALTD
 70
     2
  9
$DIMALTF
 40
25.3999999999999986
  9
$DIMLFAC
 40
1.0
  9
$DIMTOFL
 70
     1
  9
$DIMTVP
 40
0.0
  9
$DIMTIX
 70
     0
  9
$DIMSOXD
 70
     0
  9
$DIMSAH
 70
     0
  9
$DIMBLK1
  1

  9
$DIMBLK2
  1

  9
$DIMSTYLE
  2
LORO
  9
$DIMCLRD
 70
     0
  9
$DIMCLRE
 70
     0
  9
$DIMCLRT
 70
     1
  9
$DIMTFAC
 40
0.5
  9
$DIMGAP
 40
1.5
  9
$LUNITS
 70
     2
  9
$LUPREC
 70
     2
  9
$SKETCHINC
 40
1.0
  9
$FILLETRAD
 40
0.0
  9
$AUNITS
 70
     0
  9
$AUPREC
 70
     0
  9
$MENU
  1
ACAD
  9
$ELEVATION
 40
0.0
  9
$PELEVATION
 40
0.0
  9
$THICKNESS
 40
0.0
  9
$LIMCHECK
 70
     0
  9
$BLIPMODE
 70
     0
  9
$CHAMFERA
 40
2.0
  9
$CHAMFERB
 40
2.0
  9
$SKPOLY
 70
     0
  9
$TDCREATE
 40
2455397.8646990740671754
  9
$TDUPDATE
 40
2460700.3680902780033648
  9
$TDINDWG
 40
2.4247494675999999
  9
$TDUSRTIMER
 40
2.4247494675999999
  9
$USRTIMER
 70
     1
  9
$ANGBASE
 50
0.0
  9
$ANGDIR
 70
     0
  9
$PDMODE
 70
     0
  9
$PDSIZE
 40
0.0
  9
$PLINEWID
 40
0.0
  9
$COORDS
 70
     1
  9
$SPLFRAME
 70
     0
  9
$SPLINETYPE
 70
     6
  9
$SPLINESEGS
 70
     8
  9
$ATTDIA
 70
     1
  9
$ATTREQ
 70
     1
  9
$HANDLING
 70
     1
  9
$HANDSEED
  5
25091
  9
$SURFTAB1
 70
     6
  9
$SURFTAB2
 70
     6
  9
$SURFTYPE
 70
     6
  9
$SURFU
 70
     6
  9
$SURFV
 70
     6
  9
$UCSNAME
  2

  9
$UCSORG
 10
0.0
 20
0.0
 30
0.0
  9
$UCSXDIR
 10
1.0
 20
0.0
 30
0.0
  9
$UCSYDIR
 10
0.0
 20
1.0
 30
0.0
  9
$PUCSNAME
  2

  9
$PUCSORG
 10
0.0
 20
0.0
 30
0.0
  9
$PUCSXDIR
 10
1.0
 20
0.0
 30
0.0
  9
$PUCSYDIR
 10
0.0
 20
1.0
 30
0.0
  9
$USERI1
 70
     0
  9
$USERI2
 70
     0
  9
$USERI3
 70
     0
  9
$USERI4
 70
     0
  9
$USERI5
 70
     0
  9
$USERR1
 40
0.0
  9
$USERR2
 40
0.0
  9
$USERR3
 40
0.0
  9
$USERR4
 40
0.0
  9
$USERR5
 40
0.0
  9
$WORLDVIEW
 70
     1
  9
$SHADEDGE
 70
     3
  9
$SHADEDIF
 70
    70
  9
$TILEMODE
 70
     1
  9
$MAXACTVP
 70
    16
  9
$PLIMCHECK
 70
     0
  9
$PEXTMIN
 10
1.0000000000000000E+20
 20
1.0000000000000000E+20
 30
1.0000000000000000E+20
  9
$PEXTMAX
 10
-1.0000000000000000E+20
 20
-1.0000000000000000E+20
 30
-1.0000000000000000E+20
  9
$PLIMMIN
 10
-296.75
 20
-296.7447509765623863
  9
$PLIMMAX
 10
123.25
 20
0.2552490234375568
  9
$UNITMODE
 70
     0
  9
$VISRETAIN
 70
     0
  9
$PLINEGEN
 70
     0
  9
$PSLTSCALE
 70
     0
  0
ENDSEC
  0
SECTION
  2
TABLES
  0
TABLE
  2
VPORT
 70
     1
  0
VPORT
  2
*ACTIVE
 70
     0
 10
0.0
 20
0.0
 11
1.0
 21
1.0
 12
40.1977237357890473
 22
14.6173218157350906
 13
0.0
 23
0.0
 14
1.0
 24
1.0
 15
10.0
 25
10.0
 16
0.0
 26
-1033.1613960668310028
 36
0.0
 17
171.4605022773945109
 27
-43.3494186401367116
 37
-3.405274238830799
 40
252.5803320465616082
 41
1.9004329004328999
 42
49.9999999999997513
 43
0.0
 44
0.0
 50
0.0
 51
0.0
 71
     0
 72
  1500
 73
     1
 74
     0
 75
     1
 76
     0
 77
     0
 78
     0
  0
ENDTAB
  0
TABLE
  2
LTYPE
 70
     3
  0
LTYPE
  2
CONTINUOUS
 70
     0
  3
Solid line
 72
    65
 73
     0
 40
0.0
  0
LTYPE
  2
STRICHPUNKT
 70
     0
  3
__ . __ . __ . __ . __ . __ . __ . __ . __ . __
 72
    65
 73
     4
 40
1.0
 49
0.5
 49
-0.25
 49
0.0
 49
-0.25
  0
LTYPE
  2
VERDECKT
 70
     0
  3
Verdeckt __ __ __ __ __ __ __ __ __ __ __ __ __
 72
    65
 73
     2
 40
0.375
 49
0.25
 49
-0.125
  0
ENDTAB
  0
TABLE
  2
LAYER
 70
     8
  0
LAYER
  2
0
 70
     0
 62
     7
  6
CONTINUOUS
  0
LAYER
  2
VOLL
 70
     0
 62
     1
  6
CONTINUOUS
  0
LAYER
  2
STEMPEL
 70
     0
 62
     3
  6
CONTINUOUS
  0
LAYER
  2
DEFPOINTS
 70
     0
 62
     7
  6
CONTINUOUS
  0
LAYER
  2
ADSK_ASSOC_ENTITY_BACKUPS
 70
     1
 62
    -7
  6
CONTINUOUS
  0
ENDTAB
  0
TABLE
  2
STYLE
 70
     3
  0
STYLE
  2
STANDARD
 70
     0
 40
0.0
 41
0.8
 50
0.0
 71
     0
 42
3.5
  3
simplex.shx
  4

  0
STYLE
  2
GREEKS
 70
     0
 40
0.0
 41
0.8
 50
0.0
 71
     0
 42
2.5
  3
SIMPLEX.shx
  4

  0
ENDTAB
  0
TABLE
  2
VIEW
 70
     0
  0
ENDTAB
  0
TABLE
  2
UCS
 70
     0
  0
ENDTAB
  0
TABLE
  2
APPID
 70
    30
  0
APPID
  2
ACAD
 70
     0
  0
APPID
  2
ACAD_NAV_VCDISPLAY
 70
     0
  0
APPID
  2
ACAD_MLEADERVER
 70
     0
  0
APPID
  2
ACAD_EXEMPT_FROM_CAD_STANDARDS
 70
     0
  0
APPID
  2
ACAD_PSEXT
 70
     0
  0
APPID
  2
ACAECLAYERSTANDARD
 70
     0
  0
APPID
  2
ACAD_DSTYLE_DIMJAG
 70
     0
  0
APPID
  2
ACAD_DSTYLE_DIMTALN
 70
     0
  0
APPID
  2
ACCMTRANSPARENCY
 70
     0
  0
APPID
  2
ACADANNOMONITORALERTICONDI
 70
     0
  0
APPID
  2
ACAD_DSTYLE_DIMRADIAL_EXTENSION
 70
     0
  0
APPID
  2
GRADIENTCOLOR1ACI
 70
     0
  0
APPID
  2
GRADIENTCOLOR2ACI
 70
     0
  0
APPID
  2
ACAD_OBJECT_CHANGE_GUID
 70
     0
  0
APPID
  2
ACSYNERGY
 70
     0
  0
APPID
  2
SYNERGY_BODY_TBR_ID
 70
     0
  0
APPID
  2
ACAD_VIEW_EDGE_ID
 70
     0
  0
APPID
  2
ACAD_DIMASSOC_CALC_DIMLFAC
 70
     0
  0
APPID
  2
ACAD_DIMASSOC_DIMLFAC
 70
     0
  0
APPID
  2
ACAD_DIMASSOC_OVERRIDDEN_D
 70
     0
  0
APPID
  2
ACSYNERGYSKETCH
 70
     0
  0
APPID
  2
ACAD_MODELDOC_XFORM
 70
     0
  0
APPID
  2
ACDBDYNAMICBLOCKGUID
 70
     0
  0
APPID
  2
ACAD_DSTYLE_DIMBREAK
 70
     0
  0
APPID
  2
ACADANNOPO
 70
     0
  0
APPID
  2
ACAD_STEPID
 70
     0
  0
APPID
  2
SYNERGY_EXCLUDED_FROM_SNAPSHOT
 70
     0
  0
APPID
  2
ACAD_TC
 70
     0
  0
APPID
  2
ACADANNOTATIVE
 70
     0
  0
APPID
  2
PLOTTRANSPARENCY
 70
     0
  0
ENDTAB
  0
TABLE
  2
DIMSTYLE
 70
     2
  0
DIMSTYLE
  2
LORO
 70
     0
  3

  4

  5

  6

  7

 40
1.0
 41
3.5
 42
1.0
 43
0.38
 44
1.0
 45
0.0
 46
0.0
 47
0.0
 48
0.000000001
140
3.5
141
0.09
142
0.0
143
25.3999999999999986
144
1.0
145
0.0
146
0.5
147
1.5
 71
     0
 72
     0
 73
     0
 74
     0
 75
     0
 76
     0
 77
     1
 78
     8
170
     0
171
     2
172
     1
173
     0
174
     0
175
     0
176
     0
177
     0
178
     1
  0
DIMSTYLE
  2
STANDARD
 70
     0
  3

  4

  5

  6

  7

 40
1.0
 41
0.18
 42
0.0625
 43
0.38
 44
0.18
 45
0.0
 46
0.0
 47
0.0
 48
0.0
140
0.18
141
0.09
142
0.0
143
25.3999999999999986
144
1.0
145
0.0
146
1.0
147
0.09
 71
     0
 72
     0
 73
     1
 74
     1
 75
     0
 76
     0
 77
     0
 78
     0
170
     0
171
     2
172
     0
173
     0
174
     0
175
     0
176
     0
177
     0
178
     0
  0
ENDTAB
  0
ENDSEC
  0
SECTION
  2
BLOCKS
  0
BLOCK
  8
0
  2
$MODEL_SPACE
 70
     0
 10
0.0
 20
0.0
 30
0.0
  3
$MODEL_SPACE
  1

  0
ENDBLK
  5
36
  8
0
  0
BLOCK
 67
     1
  8
0
  2
$PAPER_SPACE
 70
     0
 10
0.0
 20
0.0
 30
0.0
  3
$PAPER_SPACE
  1

  0
ENDBLK
  5
34
 67
     1
  8
0
  0
BLOCK
  8
0
  2
*S0
 70
     1
 10
0.0
 20
0.0
 30
0.0
  3
*S0
  1

  0
ENDBLK
  5
18BD
  8
0
  0
BLOCK
  8
0
  2
A$C761BF35B
 70
     0
 10
0.0
 20
0.0
 30
0.0
  3
A$C761BF35B
  1

  0
LINE
  5
24882
  8
0
  6
CONTINUOUS
 62
     3
 10
122.6093353124146006
 20
13.4472127898217408
 30
-0.000000000000003
 11
122.6093353124146006
 21
39.5097694721921187
 31
-0.0000000000000088
210
0.0000000000000002
220
1.0
230
-0.0000000000000002
  0
LINE
  5
24883
  8
0
  6
CONTINUOUS
 62
     3
 10
122.6093353124146006
 20
39.5097694721921329
 30
-0.0000000000000088
 11
122.6093353124146006
 21
65.5723261545625036
 31
-0.0000000000000146
210
0.0000000000000002
220
1.0
230
-0.0000000000000002
  0
LINE
  5
24884
  8
0
  6
CONTINUOUS
 62
     3
 10
77.6093353124145153
 20
15.4368017330122598
 30
-0.0000000000000034
 11
77.6093353124145153
 21
13.0097694721921204
 31
-0.0000000000000029
210
0.0000000000000002
220
1.0
230
-0.0000000000000002
  0
LINE
  5
24885
  8
0
  6
CONTINUOUS
 62
     3
 10
122.6093353124146006
 20
13.4472127898217408
 30
-0.000000000000003
 11
117.6528301122536959
 21
13.0135747741003698
 31
-0.0000000000000029
210
0.0000000000000002
220
1.0
230
-0.0000000000000002
  0
LINE
  5
24886
  8
0
  6
CONTINUOUS
 62
     3
 10
122.6093353124146006
 20
65.5723261545625036
 30
-0.0000000000000146
 11
117.6528301122536959
 21
66.0059641702838746
 31
-0.0000000000000147
210
0.0000000000000002
220
1.0
230
-0.0000000000000002
  0
ARC
  5
24887
  8
0
  6
CONTINUOUS
 62
     3
 10
-117.5656743695059987
 20
14.0097694721924597
 30
0.0
 40
1.0000000000003471
210
0.0
220
-0.0000000000000002
230
-1.0
 50
265.00000000000108
 51
269.9999999999992042
  0
ARC
  5
24888
  8
0
  6
CONTINUOUS
 62
     3
 10
-117.5656743695060982
 20
65.009769472195515
 30
0.0
 40
0.9999999999966179
210
0.0
220
-0.0000000000000002
230
-1.0
 50
89.9999999999943157
 51
95.0000000000110418
  0
LINE
  5
24889
  8
0
  6
CONTINUOUS
 62
     3
 10
77.6093353124145295
 20
66.0097694721921471
 30
-0.0000000000000147
 11
117.5656743695059987
 21
66.0097694721921329
 31
-0.0000000000000147
210
0.0000000000000002
220
1.0
230
-0.0000000000000002
  0
LINE
  5
2488A
  8
0
  6
CONTINUOUS
 62
     3
 10
77.6093353124145153
 20
13.0097694721921204
 30
-0.0000000000000029
 11
117.5656743695059987
 21
13.0097694721921098
 31
-0.0000000000000029
210
0.0000000000000002
220
1.0
230
-0.0000000000000002
  0
LINE
  5
2488B
  8
0
  6
CONTINUOUS
 62
     3
 10
19.7071067811865284
 20
0.0000000000030222
 30
0.0
 11
20.5071067811865291
 21
0.0000000000030067
 31
0.0
210
0.0000000000000002
220
1.0
230
-0.0000000000000002
  0
LINE
  5
2488C
  8
0
  6
CONTINUOUS
 62
     3
 10
20.5071067811865291
 20
1.500000000003135
 30
-0.0000000000000003
 11
19.7071067811865284
 21
1.5000000000031211
 31
-0.0000000000000003
210
0.0000000000000002
220
1.0
230
-0.0000000000000002
  0
LINE
  5
2488D
  8
0
  6
CONTINUOUS
 62
     3
 10
20.5071067811865291
 20
1.500000000001092
 30
-0.0000000000000003
 11
20.5071067811865291
 21
0.0000000000009782
 31
0.0
210
0.0000000000000002
220
1.0
230
-0.0000000000000002
  0
LINE
  5
2488E
  8
0
  6
CONTINUOUS
 62
     3
 10
18.7071067811865284
 20
1.5000000000000879
 30
-0.0000000000000003
 11
19.7071067811865284
 21
1.5000000000001259
 31
-0.0000000000000003
210
0.0000000000000002
220
1.0
230
-0.0000000000000002
  0
LINE
  5
2488F
  8
0
  6
CONTINUOUS
 62
     3
 10
19.7071067811865284
 20
0.0000000000000125
 30
0.0
 11
18.7071067811865284
 21
-0.0000000000000259
 31
0.0
210
0.0000000000000002
220
1.0
230
-0.0000000000000002
  0
LINE
  5
24890
  8
0
  6
CONTINUOUS
 62
     3
 10
19.7071067811865284
 20
0.0000000000000125
 30
0.0
 11
19.7071067811865284
 21
1.5000000000001259
 31
-0.0000000000000003
210
0.0000000000000002
220
1.0
230
-0.0000000000000002
  0
LINE
  5
24891
  8
0
  6
CONTINUOUS
 62
     3
 10
18.7071067811865284
 20
-0.0000000000000259
 30
0.0
 11
0.7071067811865355
 21
-0.0000000000000219
 31
0.0
210
0.0000000000000002
220
1.0
230
-0.0000000000000002
  0
LINE
  5
24892
  8
0
  6
CONTINUOUS
 62
     3
 10
0.7071067811865355
 20
-0.0000000000000219
 30
0.0
 11
-0.2928932188134645
 21
0.0000000000000169
 31
0.0
210
0.0000000000000002
220
1.0
230
-0.0000000000000002
  0
LINE
  5
24893
  8
0
  6
CONTINUOUS
 62
     3
 10
21.5071067811865291
 20
0.0000000000008719
 30
0.0
 11
41.2071067811865035
 21
0.0000000000008675
 31
0.0
210
0.0000000000000002
220
1.0
230
-0.0000000000000002
  0
LINE
  5
24894
  8
0
  6
CONTINUOUS
 62
     3
 10
21.5071067811865291
 20
0.0000000000009394
 30
0.0
 11
20.5071067811865291
 21
0.0000000000009782
 31
0.0
210
0.0000000000000002
220
1.0
230
-0.0000000000000002
  0
LINE
  5
24895
  8
0
  6
CONTINUOUS
 62
     3
 10
-0.2928932188134642
 20
1.500000000000131
 30
-0.0000000000000003
 11
0.7071067811865359
 21
1.5000000000000919
 31
-0.0000000000000003
210
0.0000000000000002
220
1.0
230
-0.0000000000000002
  0
LINE
  5
24896
  8
0
  6
CONTINUOUS
 62
     3
 10
-0.2928932188134642
 20
1.500000000000131
 30
-0.0000000000000003
 11
-0.2928932188134645
 21
0.0000000000022192
 31
0.0
210
0.0000000000000002
220
1.0
230
-0.0000000000000002
  0
LINE
  5
24897
  8
0
  6
CONTINUOUS
 62
     3
 10
20.5071067811865291
 20
1.500000000001092
 30
-0.0000000000000003
 11
21.5071067811865291
 21
1.5000000000010529
 31
-0.0000000000000003
210
0.0000000000000002
220
1.0
230
-0.0000000000000002
  0
LINE
  5
24898
  8
0
  6
CONTINUOUS
 62
     3
 10
41.2071067811865035
 20
1.5000000000008029
 30
-0.0000000000000003
 11
21.5071067811865291
 21
1.500000000000808
 31
-0.0000000000000003
210
0.0000000000000002
220
1.0
230
-0.0000000000000002
  0
LINE
  5
24899
  8
0
  6
CONTINUOUS
 62
     3
 10
0.7071067811865359
 20
1.5000000000000919
 30
-0.0000000000000003
 11
18.7071067811865284
 21
1.5000000000000879
 31
-0.0000000000000003
210
0.0000000000000002
220
1.0
230
-0.0000000000000002
  0
ARC
  5
2489A
  8
0
  6
CONTINUOUS
 62
     3
 10
41.207106781186539
 20
5.000000000002002
 30
-0.0000000000000011
 40
5.0000000000000018
 50
270.0
 51
359.9999999999998863
  0
LINE
  5
2489B
  8
0
  6
CONTINUOUS
 62
     3
 10
46.207106781186468
 20
5.0000000000019478
 30
-0.0000000000000011
 11
46.2071067811866527
 21
30.7445442376330185
 31
-0.0000000000000068
210
0.0000000000000002
220
1.0
230
-0.0000000000000002
  0
ARC
  5
2489C
  8
0
  6
CONTINUOUS
 62
     3
 10
-47.7071067811866882
 20
30.7445442376330291
 30
0.0
 40
1.5000000000000211
210
0.0
220
-0.0000000000000002
230
-1.0
 50
359.9999999999997158
 51
128.0000000000001137
  0
ARC
  5
2489D
  8
0
  6
CONTINUOUS
 62
     3
 10
47.7071067811866669
 20
30.7445442376330504
 30
-0.0000000000000068
 40
2.9999999999999858
 50
111.9999999999993037
 51
180.0000000000001137
  0
LINE
  5
2489E
  8
0
  6
CONTINUOUS
 62
     3
 10
44.7071067811866882
 20
30.7445442376330291
 30
-0.0000000000000068
 11
44.7071067811865532
 21
5.0000000000019664
 31
-0.0000000000000011
210
0.0000000000000002
220
1.0
230
-0.0000000000000002
  0
ARC
  5
2489F
  8
0
  6
CONTINUOUS
 62
     3
 10
-41.2071067811865532
 20
5.0000000000019948
 30
0.0
 40
3.4999999999999858
210
0.0
220
-0.0000000000000002
230
-1.0
 50
180.0000000000003126
 51
270.0000000000006253
  0
LINE
  5
248A0
  8
0
  6
CONTINUOUS
 62
     3
 10
74.6093353124169738
 20
13.7127406874688393
 30
-0.000000000000003
 11
74.6093353124169596
 21
15.4368017330122402
 31
-0.0000000000000034
210
0.0000000000000002
220
1.0
230
-0.0000000000000002
  0
LINE
  5
248A1
  8
0
  6
CONTINUOUS
 62
     3
 10
74.6093353124145153
 20
13.7127406874688393
 30
-0.000000000000003
 11
47.360305353765952
 21
35.0020161304120805
 31
-0.0000000000000078
210
0.0000000000000002
220
1.0
230
-0.0000000000000002
  0
LINE
  5
248A2
  8
0
  6
CONTINUOUS
 62
     3
 10
74.6093353124145295
 20
35.0020161304123079
 30
-0.0000000000000078
 11
47.360305353765952
 21
35.0020161304120805
 31
-0.0000000000000078
210
0.0000000000000002
220
1.0
230
-0.0000000000000002
  0
ARC
  5
248A3
  8
0
  6
CONTINUOUS
 62
     3
 10
74.6093353124145295
 20
15.4368017330123095
 30
-0.0000000000000034
 40
1.5000000000000471
 50
232.0000000000003979
 51
257.0796920200206159
  0
ARC
  5
248A4
  8
0
  6
CONTINUOUS
 62
     3
 10
74.6093353124145153
 20
15.4368017330122704
 30
-0.0000000000000034
 40
1.5000000000000091
 50
270.0000000000939053
 51
359.9999999999997158
  0
ARC
  5
248A5
  8
0
  6
CONTINUOUS
 62
     3
 10
-74.6093353124145153
 20
15.4368017330122402
 30
0.0
 40
2.9999999999999858
210
0.0
220
-0.0000000000000002
230
-1.0
 50
179.9999999999996021
 51
308.0000000000005116
  0
LINE
  5
248A6
  8
0
  6
CONTINUOUS
 62
     3
 10
72.7623508864375452
 20
13.0727694721921193
 30
-0.0000000000000029
 11
73.6858430994260374
 21
14.2547856026021993
 31
-0.0000000000000032
210
0.0000000000000002
220
1.0
230
-0.0000000000000002
  0
LINE
  5
248A7
  8
0
  6
CONTINUOUS
 62
     3
 10
73.6858430994260374
 20
14.2547856026021993
 30
-0.0000000000000032
 11
47.1305989941752088
 21
35.0020161304120805
 31
-0.0000000000000078
210
0.0000000000000002
220
1.0
230
-0.0000000000000002
  0
LINE
  5
248A8
  8
0
  6
CONTINUOUS
 62
     3
 10
47.1305989941752088
 20
35.0020161304120805
 30
-0.0000000000000078
 11
46.2071067811867167
 21
33.8200000000019898
 31
-0.0000000000000075
210
0.0000000000000002
220
1.0
230
-0.0000000000000002
  0
LINE
  5
248A9
  8
0
  6
CONTINUOUS
 62
     3
 10
46.2071067811867024
 20
33.8200000000019969
 30
-0.0000000000000075
 11
72.762350886437531
 21
13.0727694721921193
 31
-0.0000000000000029
210
0.0000000000000002
220
1.0
230
-0.0000000000000002
  0
LINE
  5
248AA
  8
0
  6
CONTINUOUS
 62
     3
 10
74.6093353124141316
 20
15.4368017330123006
 30
-0.0000000000000034
 11
77.6093353124145153
 21
15.4368017330122704
 31
-0.0000000000000034
210
0.0000000000000002
220
1.0
230
-0.0000000000000002
  0
LINE
  5
248AB
  8
0
  6
CONTINUOUS
 62
     3
 10
77.6093353124145295
 20
35.0020161304120521
 30
-0.0000000000000078
 11
77.6093353124145153
 21
15.4368017330122704
 31
-0.0000000000000034
210
0.0000000000000002
220
1.0
230
-0.0000000000000002
  0
LINE
  5
248AC
  8
0
  6
CONTINUOUS
 62
     3
 10
74.6093353124141458
 20
35.0020161304120876
 30
-0.0000000000000078
 11
77.6093353124145295
 21
35.0020161304120521
 31
-0.0000000000000078
210
0.0000000000000002
220
1.0
230
-0.0000000000000002
  0
LINE
  5
248AD
  8
0
  6
CONTINUOUS
 62
     3
 10
76.1093353124145295
 20
43.402737641902462
 30
-0.0000000000000096
 11
76.1093353124145295
 21
35.0020161304120379
 31
-0.0000000000000078
210
0.0000000000000002
220
1.0
230
-0.0000000000000002
  0
LINE
  5
248AE
  8
0
  6
CONTINUOUS
 62
     3
 10
77.6093353124145295
 20
35.0020161304120379
 30
-0.0000000000000078
 11
77.6093353124145295
 21
43.4027376419024691
 31
-0.0000000000000096
210
0.0000000000000002
220
1.0
230
-0.0000000000000002
  0
LINE
  5
248AF
  8
0
  6
CONTINUOUS
 62
     3
 10
76.1093353124145153
 20
43.4027376419024833
 30
-0.0000000000000096
 11
76.1093353124145295
 21
70.7858902082743953
 31
-0.0000000000000157
210
0.0000000000000002
220
1.0
230
-0.0000000000000002
  0
LINE
  5
248B0
  8
0
  6
CONTINUOUS
 62
     3
 10
77.6093353124145295
 20
70.7858902082743953
 30
-0.0000000000000157
 11
77.6093353124145153
 21
43.4027376419024833
 31
-0.0000000000000096
210
0.0000000000000002
220
1.0
230
-0.0000000000000002
  0
LINE
  5
248B1
  8
0
  6
CONTINUOUS
 62
     3
 10
76.1093353124145295
 20
70.7858902082744521
 30
-0.0000000000000157
 11
77.6093353124145295
 21
70.7858902082744521
 31
-0.0000000000000157
210
0.0000000000000002
220
1.0
230
-0.0000000000000002
  0
LINE
  5
248B2
  8
0
  6
CONTINUOUS
 62
     3
 10
47.6093353124145082
 20
74.2858902082744095
 30
-0.0000000000000165
 11
49.6093353124145082
 21
74.2858902082744095
 31
-0.0000000000000165
210
0.0000000000000002
220
1.0
230
-0.0000000000000002
  0
LINE
  5
248B3
  8
0
  6
CONTINUOUS
 62
     3
 10
47.6093353124145082
 20
74.2858902082744095
 30
-0.0000000000000165
 11
47.6093353124145082
 21
72.7858902082744095
 31
-0.0000000000000162
210
0.0000000000000002
220
1.0
230
-0.0000000000000002
  0
LINE
  5
248B4
  8
0
  6
CONTINUOUS
 62
     3
 10
49.6093353124145082
 20
72.7858902082744095
 30
-0.0000000000000162
 11
47.6093353124145082
 21
72.7858902082744095
 31
-0.0000000000000162
210
0.0000000000000002
220
1.0
230
-0.0000000000000002
  0
LINE
  5
248B5
  8
0
  6
CONTINUOUS
 62
     3
 10
77.6093353124145438
 20
70.7858902082744095
 30
-0.0000000000000157
 11
77.6093353124145438
 21
71.2858902082743953
 31
-0.0000000000000158
210
0.0000000000000002
220
1.0
230
-0.0000000000000002
  0
ARC
  5
248B6
  8
0
  6
CONTINUOUS
 62
     3
 10
74.6093353124145295
 20
71.2858902082743953
 30
-0.0000000000000158
 40
3.0
 50
0.0
 51
89.9999999999999858
  0
LINE
  5
248B7
  8
0
  6
CONTINUOUS
 62
     3
 10
74.6093353124145295
 20
74.2858902082744095
 30
-0.0000000000000165
 11
49.6093353124145082
 21
74.2858902082744237
 31
-0.0000000000000165
210
0.0000000000000002
220
1.0
230
-0.0000000000000002
  0
LINE
  5
248B8
  8
0
  6
CONTINUOUS
 62
     3
 10
74.6093353124145295
 20
72.7858902082744095
 30
-0.0000000000000162
 11
49.6093353124145082
 21
72.7858902082744237
 31
-0.0000000000000162
210
0.0000000000000002
220
1.0
230
-0.0000000000000002
  0
ARC
  5
248B9
  8
0
  6
CONTINUOUS
 62
     3
 10
-74.6093353124145011
 20
71.2858902082743811
 30
0.0
 40
1.500000000000028
210
0.0
220
-0.0000000000000002
230
-1.0
 50
90.00000000000108
 51
179.9999999999988916
  0
LINE
  5
248BA
  8
0
  6
CONTINUOUS
 62
     3
 10
76.1093353124145295
 20
71.2858902082743953
 30
-0.0000000000000158
 11
76.1093353124145295
 21
70.7858902082744095
 31
-0.0000000000000157
210
0.0000000000000002
220
1.0
230
-0.0000000000000002
  0
LINE
  5
248BB
  8
0
  6
VERDECKT
 62
     1
 10
122.5221795696669034
 20
14.4434074879134897
 30
-0.0000000000000032
 11
122.5221795696669034
 21
39.5097694721921187
 31
-0.0000000000000088
210
0.0000000000000002
220
1.0
230
-0.0000000000000002
  0
LINE
  5
248BC
  8
0
  6
VERDECKT
 62
     1
 10
122.5221795696669034
 20
39.5097694721921329
 30
-0.0000000000000088
 11
122.5221795696669034
 21
64.5761314564707476
 31
-0.0000000000000143
210
0.0000000000000002
220
1.0
230
-0.0000000000000002
  0
ARC
  5
248BD
  8
0
  6
VERDECKT
 62
     1
 10
-117.5220134265974963
 20
15.0097694721924597
 30
0.0
 40
1.0000000000003471
210
0.0
220
-0.0000000000000002
230
-1.0
 50
265.00000000000108
 51
269.9999999999992042
  0
ARC
  5
248BE
  8
0
  6
VERDECKT
 62
     1
 10
-117.5220134265975958
 20
64.009769472195515
 30
0.0
 40
0.9999999999966179
210
0.0
220
-0.0000000000000002
230
-1.0
 50
89.9999999999943157
 51
95.0000000000110418
  0
LINE
  5
248BF
  8
0
  6
VERDECKT
 62
     1
 10
122.5221795696669034
 20
14.4434074879134897
 30
-0.0000000000000032
 11
117.609169169345094
 21
14.0135747741003591
 31
-0.0000000000000031
210
0.0000000000000002
220
1.0
230
-0.0000000000000002
  0
LINE
  5
248C0
  8
0
  6
VERDECKT
 62
     1
 10
122.5221795696669034
 20
64.5761314564707476
 30
-0.0000000000000143
 11
117.6091691693451935
 21
65.0059641702838746
 31
-0.0000000000000144
210
0.0000000000000002
220
1.0
230
-0.0000000000000002
  0
LINE
  5
248C1
  8
0
  6
VERDECKT
 62
     1
 10
77.6093353124145295
 20
65.0097694721921471
 30
-0.0000000000000144
 11
117.5220134265974963
 21
65.0097694721921329
 31
-0.0000000000000144
210
0.0000000000000002
220
1.0
230
-0.0000000000000002
  0
LINE
  5
248C2
  8
0
  6
VERDECKT
 62
     1
 10
77.6093353124145153
 20
14.0097694721921204
 30
-0.0000000000000031
 11
117.5220134265974963
 21
14.0097694721921098
 31
-0.0000000000000031
210
0.0000000000000002
220
1.0
230
-0.0000000000000002
  0
LINE
  5
248C3
  8
0
  6
VERDECKT
 62
     1
 10
122.5221795696669034
 20
64.5761314564707476
 30
-0.0000000000000143
 11
122.6093353124146006
 21
65.5723261545625036
 31
-0.0000000000000146
210
0.0000000000000002
220
1.0
230
-0.0000000000000002
  0
LINE
  5
248C4
  8
0
  6
VERDECKT
 62
     1
 10
122.5221795696669034
 20
14.4434074879134897
 30
-0.0000000000000032
 11
122.6093353124146006
 21
13.4472127898217408
 31
-0.000000000000003
210
0.0000000000000002
220
1.0
230
-0.0000000000000002
  0
ARC
  5
248C5
  8
0
  6
VERDECKT
 62
     1
 10
47.7071067811867024
 20
30.7445442376330114
 30
-0.0000000000000068
 40
3.0000000000000302
 50
52.00000000000027
 51
111.9999999999997016
  0
LINE
  5
248C6
  8
0
  6
VERDECKT
 62
     1
 10
5.1450348834628521
 20
1.5000000000020861
 30
-0.0000000000000003
 11
5.1450348834628521
 21
0.0000000000022177
 31
0.0
210
0.0000000000000002
220
1.0
230
-0.0000000000000002
  0
LINE
  5
248C7
  8
0
  6
VERDECKT
 62
     1
 10
14.2691786789102206
 20
1.5000000000020841
 30
-0.0000000000000003
 11
14.2691786789102206
 21
0.0000000000022157
 31
0.0
210
0.0000000000000002
220
1.0
230
-0.0000000000000002
  0
ARC
  5
248C8
  8
0
  6
VERDECKT
 62
     1
 10
74.6093353124145153
 20
15.4368017330123006
 30
-0.0000000000000034
 40
1.5000000000000411
 50
257.0796920200211275
 51
270.000000000094019
  0
LINE
  5
248C9
  8
0
  6
VERDECKT
 62
     1
 10
76.1093353124145153
 20
15.4368017330122598
 30
-0.0000000000000034
 11
76.1093353124145295
 21
35.0020161304120521
 31
-0.0000000000000078
210
0.0000000000000002
220
1.0
230
-0.0000000000000002
  0
LINE
  5
248CA
  8
0
  6
VERDECKT
 62
     1
 10
49.2216070593802186
 20
31.4648142615488702
 30
-0.000000000000007
 11
50.1450992723687179
 21
32.6468303919589502
 31
-0.0000000000000072
210
0.0000000000000002
220
1.0
230
-0.0000000000000002
  0
LINE
  5
248CB
  8
0
  6
VERDECKT
 62
     1
 10
43.2071067811865106
 20
0.4174243050461343
 30
-0.0000000000000001
 11
43.2071067811865177
 21
2.1277186767329579
 31
-0.0000000000000005
210
0.0000000000000002
220
1.0
230
-0.0000000000000002
  0
LINE
  5
248CC
  8
0
  6
VERDECKT
 62
     1
 10
46.2071067811865674
 20
8.2445442376330131
 30
-0.0000000000000018
 11
44.7071067811865674
 21
8.2445442376330238
 31
-0.0000000000000018
210
0.0000000000000002
220
1.0
230
-0.0000000000000002
  0
LINE
  5
248CD
  8
0
  6
VERDECKT
 62
     1
 10
46.2071067811866314
 20
23.2445442376330185
 30
-0.0000000000000052
 11
44.7071067811866172
 21
23.2445442376330291
 31
-0.0000000000000052
210
0.0000000000000002
220
1.0
230
-0.0000000000000002
  0
LINE
  5
248CE
  8
0
  6
VERDECKT
 62
     1
 10
46.2071067811865674
 20
13.2445442376330202
 30
-0.0000000000000029
 11
44.7071067811865888
 21
13.2445442376330291
 31
-0.0000000000000029
210
0.0000000000000002
220
1.0
230
-0.0000000000000002
  0
LINE
  5
248CF
  8
0
  6
VERDECKT
 62
     1
 10
29.7071067811865284
 20
1.500000000002063
 30
-0.0000000000000003
 11
29.7071067811865106
 21
0.0000000000020686
 31
0.0
210
0.0000000000000002
220
1.0
230
-0.0000000000000002
  0
LINE
  5
248D0
  8
0
  6
VERDECKT
 62
     1
 10
39.7071067811865319
 20
1.5000000000020151
 30
-0.0000000000000003
 11
39.7071067811865177
 21
0.0000000000020113
 31
0.0
210
0.0000000000000002
220
1.0
230
-0.0000000000000002
  0
LINE
  5
248D1
  8
0
  6
VERDECKT
 62
     1
 10
75.6093353124145011
 20
14.0097694721920796
 30
-0.0000000000000031
 11
75.6093353124145011
 21
14.3187677442623595
 31
-0.0000000000000032
210
0.0000000000000002
220
1.0
230
-0.0000000000000002
  0
LINE
  5
248D2
  8
0
  6
VERDECKT
 62
     1
 10
76.1093353124145011
 20
65.0097694721921044
 30
-0.0000000000000144
 11
77.6093353124145295
 21
65.0097694721921044
 31
-0.0000000000000144
210
0.0000000000000002
220
1.0
230
-0.0000000000000002
  0
LINE
  5
248D3
  8
0
  6
VERDECKT
 62
     1
 10
75.6093353124145153
 20
14.0097694721920902
 30
-0.0000000000000031
 11
77.2481947112037801
 21
14.0097694721920902
 31
-0.0000000000000031
210
0.0000000000000002
220
1.0
230
-0.0000000000000002
  0
ENDBLK
  5
248D5
  8
0
  0
BLOCK
  8
0
  2
A$CC3ED7830
 70
     0
 10
0.0
 20
0.0
 30
0.0
  3
A$CC3ED7830
  1

  0
LINE
  5
248D9
  8
0
  6
CONTINUOUS
 62
     3
 10
83.7696634635525754
 20
122.6093353124146006
 30
0.0
 11
31.6445500988118091
 21
122.6093353124146006
 31
0.0
  0
LINE
  5
248DA
  8
0
  6
CONTINUOUS
 62
     3
 10
83.7696634635525612
 20
122.6093353124146006
 30
0.0
 11
84.2033014792739181
 21
117.6528301122536959
 31
0.0
  0
LINE
  5
248DB
  8
0
  6
CONTINUOUS
 62
     3
 10
31.6445500988118091
 20
122.6093353124146006
 30
0.0
 11
31.2109120830904416
 21
117.6528301122536959
 31
0.0
  0
ARC
  5
248DC
  8
0
  6
CONTINUOUS
 62
     3
 10
83.2071067811855585
 20
117.5656743695060982
 30
0.0
 40
0.9999999999966322
 50
359.9999999999943157
 51
5.0000000000109353
  0
ARC
  5
248DD
  8
0
  6
CONTINUOUS
 62
     3
 10
32.2071067811806628
 20
117.5656743695060982
 30
0.0
 40
0.9999999999984865
 50
174.9999999999959073
 51
180.0000000000032117
  0
LINE
  5
248DE
  8
0
  6
CONTINUOUS
 62
     3
 10
31.2071067811821798
 20
77.6093353124145153
 30
0.0
 11
31.2071067811821798
 21
117.5656743695059987
 31
0.0
  0
LINE
  5
248DF
  8
0
  6
CONTINUOUS
 62
     3
 10
84.2071067811821905
 20
77.6093353124145153
 30
0.0
 11
84.2071067811821905
 21
117.5656743695059987
 31
0.0
  0
ARC
  5
248E0
  8
0
  6
CONTINUOUS
 62
     3
 10
76.1071067811829778
 20
20.1071067811865412
 30
0.0
 40
0.3999999999999986
 50
90.0
 51
270.0
  0
LINE
  5
248E1
  8
0
  6
CONTINUOUS
 62
     3
 10
76.1071067811829778
 20
20.5071067811865291
 30
0.0
 11
89.7071067811829863
 21
20.5071067811865291
 31
0.0
  0
LINE
  5
248E2
  8
0
  6
CONTINUOUS
 62
     3
 10
39.3071067811820924
 20
19.7071067811865284
 30
0.0
 11
0.7071067811865249
 21
19.7071067811865284
 31
0.0
  0
ARC
  5
248E3
  8
0
  6
CONTINUOUS
 62
     3
 10
39.3071067811820924
 20
20.1071067811865412
 30
0.0
 40
0.3999999999999986
 50
270.0
 51
89.9999999999999858
  0
ARC
  5
248E4
  8
0
  6
CONTINUOUS
 62
     3
 10
114.7071067811784957
 20
18.7071067811865284
 30
0.0
 40
1.0000000000000031
 50
0.0000000000003562
 51
90.0
  0
LINE
  5
248E5
  8
0
  6
CONTINUOUS
 62
     3
 10
114.7071067811784957
 20
19.7071067811865284
 30
0.0
 11
76.1071067811829778
 21
19.7071067811865284
 31
0.0
  0
ARC
  5
248E6
  8
0
  6
CONTINUOUS
 62
     3
 10
114.7071067811784957
 20
0.7071067811865357
 30
0.0
 40
1.0
 50
270.0
 51
0.0
  0
LINE
  5
248E7
  8
0
  6
CONTINUOUS
 62
     3
 10
0.7071067811865249
 20
-0.2928932188134645
 30
0.0
 11
114.7071067811784957
 21
-0.2928932188134645
 31
0.0
  0
ARC
  5
248E8
  8
0
  6
CONTINUOUS
 62
     3
 10
89.7071067811829721
 20
21.5071067811865397
 30
0.0
 40
1.0000000000000031
 50
270.0000000000002274
 51
359.9999999999997726
  0
LINE
  5
248E9
  8
0
  6
CONTINUOUS
 62
     3
 10
90.7071067811829863
 20
41.2071067811865035
 30
0.0
 11
90.7071067811829863
 21
21.5071067811865291
 31
0.0
  0
LINE
  5
248EA
  8
0
  6
CONTINUOUS
 62
     3
 10
24.707106781182091
 20
41.2071067811865035
 30
0.0
 11
24.707106781182091
 21
21.5071067811865291
 31
0.0
  0
ARC
  5
248EB
  8
0
  6
CONTINUOUS
 62
     3
 10
25.7071067811820804
 20
21.5071067811865184
 30
0.0
 40
0.9999999999999928
 50
179.9999999999988063
 51
270.0
  0
LINE
  5
248EC
  8
0
  6
CONTINUOUS
 62
     3
 10
25.707106781182091
 20
20.5071067811865291
 30
0.0
 11
39.3071067811820924
 21
20.5071067811865291
 31
0.0
  0
ARC
  5
248ED
  8
0
  6
CONTINUOUS
 62
     3
 10
0.7071067811865106
 20
18.707106781186539
 30
0.0
 40
0.9999999999999857
 50
89.9999999999992042
 51
180.0000000000003979
  0
LINE
  5
248EE
  8
0
  6
CONTINUOUS
 62
     3
 10
-0.2928932188134752
 20
0.7071067811865355
 30
0.0
 11
-0.2928932188134752
 21
18.7071067811865284
 31
0.0
  0
ARC
  5
248EF
  8
0
  6
CONTINUOUS
 62
     3
 10
0.7071067811865106
 20
0.7071067811865259
 30
0.0
 40
0.9999999999999905
 50
179.9999999999986073
 51
270.0
  0
LINE
  5
248F0
  8
0
  6
CONTINUOUS
 62
     3
 10
115.7071067811784957
 20
0.7071067811865355
 30
0.0
 11
115.7071067811784957
 21
18.7071067811865284
 31
0.0
  0
LINE
  5
248F1
  8
0
  6
CONTINUOUS
 62
     3
 10
30.4571067811824001
 20
39.7071067811865319
 30
0.0
 11
30.4571067811824001
 21
29.7071067811865213
 31
0.0
  0
LINE
  5
248F2
  8
0
  6
CONTINUOUS
 62
     3
 10
51.9571067811824108
 20
39.7071067811865319
 30
0.0
 11
30.4571067811823895
 21
39.7071067811865319
 31
0.0
  0
LINE
  5
248F3
  8
0
  6
CONTINUOUS
 62
     3
 10
51.9571067811824108
 20
29.7071067811865284
 30
0.0
 11
51.9571067811824108
 21
39.7071067811865319
 31
0.0
  0
LINE
  5
248F4
  8
0
  6
CONTINUOUS
 62
     3
 10
30.4571067811823895
 20
29.7071067811865284
 30
0.0
 11
51.9571067811824108
 21
29.7071067811865284
 31
0.0
  0
LINE
  5
248F5
  8
0
  6
CONTINUOUS
 62
     3
 10
84.9571067811826168
 20
39.7071067811865319
 30
0.0
 11
84.9571067811826168
 21
29.7071067811865213
 31
0.0
  0
LINE
  5
248F6
  8
0
  6
CONTINUOUS
 62
     3
 10
84.9571067811826168
 20
29.7071067811865284
 30
0.0
 11
63.4571067811826026
 21
29.7071067811865284
 31
0.0
  0
LINE
  5
248F7
  8
0
  6
CONTINUOUS
 62
     3
 10
63.4571067811826097
 20
29.7071067811865284
 30
0.0
 11
63.4571067811826097
 21
39.7071067811865319
 31
0.0
  0
LINE
  5
248F8
  8
0
  6
CONTINUOUS
 62
     3
 10
63.4571067811826097
 20
39.7071067811865319
 30
0.0
 11
84.9571067811826168
 21
39.7071067811865319
 31
0.0
  0
LINE
  5
248F9
  8
0
  6
CONTINUOUS
 62
     3
 10
11.2071067811841107
 20
14.2691786789102206
 30
0.0
 11
14.2071067811841107
 21
14.2691786789102206
 31
0.0
  0
ARC
  5
248FA
  8
0
  6
CONTINUOUS
 62
     3
 10
14.2071067811841196
 20
9.7071067811865372
 30
0.0
 40
4.5620718977236852
 50
270.0
 51
90.0
  0
LINE
  5
248FB
  8
0
  6
CONTINUOUS
 62
     3
 10
14.2071067811841107
 20
5.1450348834628521
 30
0.0
 11
11.2071067811841107
 21
5.1450348834628521
 31
0.0
  0
ARC
  5
248FC
  8
0
  6
CONTINUOUS
 62
     3
 10
11.2071067811841196
 20
9.7071067811865372
 30
0.0
 40
4.5620718977236852
 50
90.0
 51
270.0
  0
LINE
  5
248FD
  8
0
  6
CONTINUOUS
 62
     3
 10
101.2071067811808973
 20
14.2691786789102206
 30
0.0
 11
104.2071067811808973
 21
14.2691786789102206
 31
0.0
  0
ARC
  5
248FE
  8
0
  6
CONTINUOUS
 62
     3
 10
104.2071067811808973
 20
9.707106781186539
 30
0.0
 40
4.5620718977236834
 50
270.0
 51
89.9999999999999858
  0
LINE
  5
248FF
  8
0
  6
CONTINUOUS
 62
     3
 10
104.2071067811808973
 20
5.1450348834628521
 30
0.0
 11
101.2071067811808973
 21
5.1450348834628521
 31
0.0
  0
ARC
  5
24900
  8
0
  6
CONTINUOUS
 62
     3
 10
101.2071067811808973
 20
9.7071067811865372
 30
0.0
 40
4.5620718977236852
 50
90.0
 51
270.0
  0
LINE
  5
24901
  8
0
  6
CONTINUOUS
 62
     3
 10
24.7071067811824108
 20
44.707106781186539
 30
0.0
 11
24.7071067811824108
 21
41.2071067811865106
 31
0.0
  0
LINE
  5
24902
  8
0
  6
CONTINUOUS
 62
     3
 10
24.70710678118229
 20
44.7071067811866811
 30
0.0
 11
24.70710678118229
 21
47.6093353124144798
 31
0.0
  0
LINE
  5
24903
  8
0
  6
CONTINUOUS
 62
     3
 10
90.7071067811826026
 20
44.7071067811866669
 30
0.0
 11
90.7071067811826026
 21
47.6093353124144869
 31
0.0
  0
LINE
  5
24904
  8
0
  6
CONTINUOUS
 62
     3
 10
90.7071067811826026
 20
44.707106781186539
 30
0.0
 11
90.7071067811826026
 21
41.2071067811865106
 31
0.0
  0
LINE
  5
24905
  8
0
  6
CONTINUOUS
 62
     3
 10
-7.2928932188180999
 20
47.6728436393109121
 30
0.0
 11
-7.2928932188180999
 21
47.3603053537659235
 31
0.0
  0
LINE
  5
24906
  8
0
  6
CONTINUOUS
 62
     3
 10
-8.7928932188181577
 20
49.6093353124145011
 30
0.0
 11
-8.7928932188181577
 21
47.3603053537659378
 31
0.0
  0
LINE
  5
24907
  8
0
  6
CONTINUOUS
 62
     3
 10
-8.7928932188180422
 20
47.3603053537659378
 30
0.0
 11
-7.2928932188180431
 21
47.3603053537659378
 31
0.0
  0
LINE
  5
24908
  8
0
  6
CONTINUOUS
 62
     3
 10
-7.1514718625807561
 20
47.1305989941752017
 30
0.0
 11
-7.1514718625807561
 21
46.2071067811867096
 31
0.0
  0
LINE
  5
24909
  8
0
  6
CONTINUOUS
 62
     3
 10
-7.1514718625806699
 20
47.641742530297968
 30
0.0
 11
-7.1514718625806699
 21
47.1305989941751804
 31
0.0
  0
ARC
  5
2490A
  8
0
  6
CONTINUOUS
 62
     3
 10
-6.7928932188175892
 20
49.6093353124145011
 30
0.0
 40
2.0
 50
180.000000000000199
 51
270.0
  0
LINE
  5
2490B
  8
0
  6
CONTINUOUS
 62
     3
 10
-8.7928932188177011
 20
74.6093353124145153
 30
0.0
 11
-8.7928932188177011
 21
49.6093353124145011
 31
0.0
  0
LINE
  5
2490C
  8
0
  6
CONTINUOUS
 62
     3
 10
-8.7928932188177011
 20
74.6093353124145153
 30
0.0
 11
-8.7928932188177011
 21
77.6093353124145153
 31
0.0
  0
LINE
  5
2490D
  8
0
  6
CONTINUOUS
 62
     3
 10
24.4071067811823887
 20
47.1305989941751804
 30
0.0
 11
-7.1514718625807339
 21
47.1305989941752017
 31
0.0
  0
LINE
  5
2490E
  8
0
  6
CONTINUOUS
 62
     3
 10
24.4071067811823887
 20
46.2071067811866811
 30
0.0
 11
-7.1514718625807339
 21
46.2071067811866882
 31
0.0
  0
LINE
  5
2490F
  8
0
  6
CONTINUOUS
 62
     3
 10
24.407106781182339
 20
46.2071067811866811
 30
0.0
 11
24.407106781182339
 21
47.1305989941751804
 31
0.0
  0
LINE
  5
24910
  8
0
  6
CONTINUOUS
 62
     3
 10
24.407106781182339
 20
47.1305989941751804
 30
0.0
 11
24.407106781182339
 21
47.6093353124145011
 31
0.0
  0
LINE
  5
24911
  8
0
  6
CONTINUOUS
 62
     3
 10
30.4571067811824001
 20
44.7071067811865532
 30
0.0
 11
30.4571067811824001
 21
43.2071067811865319
 31
0.0
  0
LINE
  5
24912
  8
0
  6
CONTINUOUS
 62
     3
 10
51.9571067811824108
 20
43.2071067811865319
 30
0.0
 11
51.9571067811824108
 21
44.7071067811865532
 31
0.0
  0
LINE
  5
24913
  8
0
  6
CONTINUOUS
 62
     3
 10
30.4571067811824214
 20
43.2071067811865106
 30
0.0
 11
51.9571067811824108
 21
43.2071067811865106
 31
0.0
  0
LINE
  5
24914
  8
0
  6
CONTINUOUS
 62
     3
 10
122.7071067811830005
 20
47.6728436393108908
 30
0.0
 11
122.7071067811830005
 21
47.3603053537659378
 31
0.0
  0
LINE
  5
24915
  8
0
  6
CONTINUOUS
 62
     3
 10
124.2071067811830005
 20
49.6093353124145011
 30
0.0
 11
124.2071067811830005
 21
47.3603053537659378
 31
0.0
  0
LINE
  5
24916
  8
0
  6
CONTINUOUS
 62
     3
 10
124.2071067811830005
 20
47.3603053537659378
 30
0.0
 11
122.7071067811830005
 21
47.3603053537659378
 31
0.0
  0
LINE
  5
24917
  8
0
  6
CONTINUOUS
 62
     3
 10
122.5656854249456984
 20
47.6417425302979893
 30
0.0
 11
122.5656854249456984
 21
47.1305989941752017
 31
0.0
  0
LINE
  5
24918
  8
0
  6
CONTINUOUS
 62
     3
 10
122.5656854249456984
 20
47.1305989941752017
 30
0.0
 11
122.5656854249456984
 21
46.2071067811867096
 31
0.0
  0
ARC
  5
24919
  8
0
  6
CONTINUOUS
 62
     3
 10
122.2071067811826026
 20
49.6093353124145011
 30
0.0
 40
2.0000000000000031
 50
270.0000000000001137
 51
0.0
  0
LINE
  5
2491A
  8
0
  6
CONTINUOUS
 62
     3
 10
124.2071067811826026
 20
74.6093353124145153
 30
0.0
 11
124.2071067811826026
 21
77.6093353124145153
 31
0.0
  0
LINE
  5
2491B
  8
0
  6
CONTINUOUS
 62
     3
 10
124.2071067811826026
 20
74.6093353124145153
 30
0.0
 11
124.2071067811826026
 21
49.6093353124145011
 31
0.0
  0
LINE
  5
2491C
  8
0
  6
CONTINUOUS
 62
     3
 10
91.0071067811825856
 20
47.1305989941751804
 30
0.0
 11
122.5656854249456984
 21
47.1305989941752017
 31
0.0
  0
LINE
  5
2491D
  8
0
  6
CONTINUOUS
 62
     3
 10
91.0071067811825856
 20
46.2071067811866882
 30
0.0
 11
91.0071067811825856
 21
47.1305989941751875
 31
0.0
  0
LINE
  5
2491E
  8
0
  6
CONTINUOUS
 62
     3
 10
91.0071067811825856
 20
46.2071067811866882
 30
0.0
 11
122.5656854249456984
 21
46.2071067811867096
 31
0.0
  0
LINE
  5
2491F
  8
0
  6
CONTINUOUS
 62
     3
 10
91.0071067811825856
 20
47.1305989941751804
 30
0.0
 11
91.0071067811825856
 21
47.6093353124145011
 31
0.0
  0
LINE
  5
24920
  8
0
  6
CONTINUOUS
 62
     3
 10
122.2071067811826026
 20
47.6093353124145011
 30
0.0
 11
-6.7928932188174249
 21
47.6093353124144798
 31
0.0
  0
LINE
  5
24921
  8
0
  6
CONTINUOUS
 62
     3
 10
124.2071067811824037
 20
77.6093353124144869
 30
0.0
 11
-8.7928932188177384
 21
77.6093353124145153
 31
0.0
  0
LINE
  5
24922
  8
0
  6
CONTINUOUS
 62
     3
 10
84.9571067811826026
 20
44.7071067811865532
 30
0.0
 11
84.9571067811826026
 21
43.2071067811865319
 31
0.0
  0
LINE
  5
24923
  8
0
  6
CONTINUOUS
 62
     3
 10
63.4571067811826097
 20
43.2071067811865319
 30
0.0
 11
63.4571067811826097
 21
44.7071067811865532
 31
0.0
  0
LINE
  5
24924
  8
0
  6
CONTINUOUS
 62
     3
 10
84.9571067811826026
 20
43.2071067811865106
 30
0.0
 11
63.4571067811826026
 21
43.2071067811865106
 31
0.0
  0
LINE
  5
24925
  8
0
  6
CONTINUOUS
 62
     3
 10
24.70710678118229
 20
44.7071067811866598
 30
0.0
 11
90.7071067811823468
 21
44.7071067811866598
 31
0.0
  0
LINE
  5
24926
  8
0
  6
VERDECKT
 62
     1
 10
82.7734687654608052
 20
122.5221795696669034
 30
0.0
 11
32.6407447969035616
 21
122.5221795696669034
 31
0.0
  0
ARC
  5
24927
  8
0
  6
VERDECKT
 62
     1
 10
82.2071067811855443
 20
117.5220134265975958
 30
0.0
 40
0.9999999999966322
 50
359.9999999999943157
 51
5.0000000000109353
  0
ARC
  5
24928
  8
0
  6
VERDECKT
 62
     1
 10
33.2071067811825102
 20
117.5220134265974963
 30
0.0
 40
1.0000000000003331
 50
175.0000000000027001
 51
180.0000000000007105
  0
LINE
  5
24929
  8
0
  6
VERDECKT
 62
     1
 10
82.7734687654608052
 20
122.5221795696669034
 30
0.0
 11
83.2033014792739323
 21
117.609169169345094
 31
0.0
  0
LINE
  5
2492A
  8
0
  6
VERDECKT
 62
     1
 10
32.6407447969035616
 20
122.5221795696669034
 30
0.0
 11
32.2109120830904416
 21
117.609169169345094
 31
0.0
  0
LINE
  5
2492B
  8
0
  6
VERDECKT
 62
     1
 10
32.2071067811821834
 20
77.6093353124145153
 30
0.0
 11
32.2071067811821834
 21
117.5220134265974963
 31
0.0
  0
LINE
  5
2492C
  8
0
  6
VERDECKT
 62
     1
 10
83.2071067811821905
 20
77.6093353124145153
 30
0.0
 11
83.2071067811821905
 21
117.5220134265974963
 31
0.0
  0
LINE
  5
2492D
  8
0
  6
VERDECKT
 62
     1
 10
32.6407447969035616
 20
122.5221795696669034
 30
0.0
 11
31.6445500988118091
 21
122.6093353124146006
 31
0.0
  0
LINE
  5
2492E
  8
0
  6
VERDECKT
 62
     1
 10
82.7734687654608052
 20
122.5221795696669034
 30
0.0
 11
83.7696634635525612
 21
122.6093353124146006
 31
0.0
  0
LINE
  5
2492F
  8
0
  6
VERDECKT
 62
     1
 10
24.70710678118229
 20
47.6093353124144798
 30
0.0
 11
24.70710678118229
 21
49.5540912071636725
 31
0.0
  0
LINE
  5
24930
  8
0
  6
VERDECKT
 62
     1
 10
24.7071067811824108
 20
49.5540912071636512
 30
0.0
 11
24.7071067811824108
 21
50.1450992723686895
 31
0.0
  0
LINE
  5
24931
  8
0
  6
VERDECKT
 62
     1
 10
90.7071067811826026
 20
49.5540912071636512
 30
0.0
 11
90.7071067811826026
 21
50.1450992723686895
 31
0.0
  0
LINE
  5
24932
  8
0
  6
VERDECKT
 62
     1
 10
90.7071067811826026
 20
47.6093353124144869
 30
0.0
 11
90.7071067811826026
 21
49.5540912071636725
 31
0.0
  0
LINE
  5
24933
  8
0
  6
VERDECKT
 62
     1
 10
-7.2928932188180431
 20
74.6093353124145011
 30
0.0
 11
-7.2928932188180857
 21
47.6728436393109121
 31
0.0
  0
LINE
  5
24934
  8
0
  6
VERDECKT
 62
     1
 10
-8.7928932188182714
 20
74.6093353124145153
 30
0.0
 11
-7.2928932188182714
 21
74.6093353124145153
 31
0.0
  0
LINE
  5
24935
  8
0
  6
VERDECKT
 62
     1
 10
-5.7928932188186186
 20
73.6858430994260232
 30
0.0
 11
-5.7928932188186186
 21
76.1093353124145438
 31
0.0
  0
LINE
  5
24936
  8
0
  6
VERDECKT
 62
     1
 10
-5.7928932188186186
 20
77.6093353124145011
 30
0.0
 11
-5.7928932188186186
 21
76.1093353124145011
 31
0.0
  0
LINE
  5
24937
  8
0
  6
VERDECKT
 62
     1
 10
-5.7928932188186186
 20
73.6858430994260232
 30
0.0
 11
-5.7928932188186186
 21
72.762350886437531
 31
0.0
  0
LINE
  5
24938
  8
0
  6
VERDECKT
 62
     1
 10
-7.1514718625808413
 20
73.6858430994260232
 30
0.0
 11
-7.1514718625806557
 21
47.641742530297968
 31
0.0
  0
LINE
  5
24939
  8
0
  6
VERDECKT
 62
     1
 10
-7.1514718625809257
 20
73.6858430994260374
 30
0.0
 11
-5.7928932188186124
 21
73.6858430994260374
 31
0.0
  0
LINE
  5
2493A
  8
0
  6
VERDECKT
 62
     1
 10
-5.7928932188186186
 20
72.7623508864375452
 30
0.0
 11
-7.1514718625809328
 21
72.7623508864375452
 31
0.0
  0
ARC
  5
2493B
  8
0
  6
VERDECKT
 62
     1
 10
-5.7928932188181639
 20
74.6093353124145295
 30
0.0
 40
2.9999999999999849
 50
90.0000000000073328
 51
180.0000000000075886
  0
ARC
  5
2493C
  8
0
  6
VERDECKT
 62
     1
 10
-5.7928932188181639
 20
74.6093353124145153
 30
0.0
 40
1.5
 50
90.000000000014623
 51
180.0000000000146088
  0
LINE
  5
2493D
  8
0
  6
VERDECKT
 62
     1
 10
24.4071067811822893
 20
49.2216070593802186
 30
0.0
 11
24.70710678118229
 21
49.2216070593802186
 31
0.0
  0
LINE
  5
2493E
  8
0
  6
VERDECKT
 62
     1
 10
24.7071067811824108
 20
50.1450992723686895
 30
0.0
 11
24.4071067811824101
 21
50.1450992723686895
 31
0.0
  0
LINE
  5
2493F
  8
0
  6
VERDECKT
 62
     1
 10
24.407106781182339
 20
47.6093353124145011
 30
0.0
 11
24.407106781182339
 21
50.1450992723687179
 31
0.0
  0
LINE
  5
24940
  8
0
  6
VERDECKT
 62
     1
 10
51.9571067811825316
 20
46.2071067811866172
 30
0.0
 11
51.9571067811825316
 21
44.7071067811866172
 31
0.0
  0
LINE
  5
24941
  8
0
  6
VERDECKT
 62
     1
 10
30.4571067811825209
 20
46.2071067811866172
 30
0.0
 11
30.4571067811825209
 21
44.7071067811866172
 31
0.0
  0
LINE
  5
24942
  8
0
  6
VERDECKT
 62
     1
 10
122.707106781182901
 20
74.6093353124145153
 30
0.0
 11
122.7071067811830005
 21
47.6728436393108908
 31
0.0
  0
LINE
  5
24943
  8
0
  6
VERDECKT
 62
     1
 10
124.2071067811831995
 20
74.6093353124145153
 30
0.0
 11
122.7071067811831995
 21
74.6093353124145153
 31
0.0
  0
LINE
  5
24944
  8
0
  6
VERDECKT
 62
     1
 10
121.2071067811835974
 20
73.6858430994260232
 30
0.0
 11
121.2071067811835974
 21
76.1093353124145438
 31
0.0
  0
LINE
  5
24945
  8
0
  6
VERDECKT
 62
     1
 10
121.2071067811835974
 20
73.6858430994260374
 30
0.0
 11
121.2071067811835974
 21
72.7623508864375452
 31
0.0
  0
LINE
  5
24946
  8
0
  6
VERDECKT
 62
     1
 10
121.2071067811835974
 20
77.6093353124145153
 30
0.0
 11
121.2071067811835974
 21
76.1093353124145153
 31
0.0
  0
LINE
  5
24947
  8
0
  6
VERDECKT
 62
     1
 10
122.5656854249458974
 20
73.6858430994260374
 30
0.0
 11
122.5656854249456984
 21
47.6417425302979893
 31
0.0
  0
LINE
  5
24948
  8
0
  6
VERDECKT
 62
     1
 10
121.2071067811835974
 20
72.7623508864375452
 30
0.0
 11
122.5656854249458974
 21
72.7623508864375452
 31
0.0
  0
LINE
  5
24949
  8
0
  6
VERDECKT
 62
     1
 10
122.5656854249458974
 20
73.6858430994260374
 30
0.0
 11
121.2071067811835974
 21
73.6858430994260374
 31
0.0
  0
ARC
  5
2494A
  8
0
  6
VERDECKT
 62
     1
 10
121.2071067811830005
 20
74.6093353124145295
 30
0.0
 40
2.9999999999999849
 50
359.9999999999924967
 51
89.999999999992923
  0
ARC
  5
2494B
  8
0
  6
VERDECKT
 62
     1
 10
121.2071067811830005
 20
74.6093353124145295
 30
0.0
 40
1.4999999999999849
 50
359.9999999999848797
 51
89.999999999985917
  0
LINE
  5
2494C
  8
0
  6
VERDECKT
 62
     1
 10
90.7071067811826026
 20
50.1450992723686895
 30
0.0
 11
91.0071067811825856
 21
50.1450992723686895
 31
0.0
  0
LINE
  5
2494D
  8
0
  6
VERDECKT
 62
     1
 10
91.007106781182614
 20
49.2216070593802186
 30
0.0
 11
90.7071067811826168
 21
49.2216070593802186
 31
0.0
  0
LINE
  5
2494E
  8
0
  6
VERDECKT
 62
     1
 10
91.0071067811825856
 20
47.6093353124145011
 30
0.0
 11
91.0071067811825856
 21
50.1450992723687179
 31
0.0
  0
LINE
  5
2494F
  8
0
  6
VERDECKT
 62
     1
 10
124.2071067811823042
 20
76.1093353124145153
 30
0.0
 11
-8.7928932188177669
 21
76.1093353124144869
 31
0.0
  0
POLYLINE
  8
0
  5
24A85
  62
1
  66
     1
 10
0.00000
 20
0.00000
 30
0.00000
  70
     8
  0
VERTEX
  8
0
  5
24A86
 10
57.7071
 20
77.2482
 30
0.00000
  70
    32
  0
VERTEX
  8
0
  5
24A87
 10
57.6754
 20
77.2482
 30
0.00000
  70
    32
  0
VERTEX
  8
0
  5
24A88
 10
57.6437
 20
77.2482
 30
0.00000
  70
    32
  0
VERTEX
  8
0
  5
24A89
 10
57.6120
 20
77.2483
 30
0.00000
  70
    32
  0
VERTEX
  8
0
  5
24A8A
 10
57.5802
 20
77.2484
 30
0.00000
  70
    32
  0
VERTEX
  8
0
  5
24A8B
 10
57.5484
 20
77.2485
 30
0.00000
  70
    32
  0
VERTEX
  8
0
  5
24A8C
 10
57.5166
 20
77.2486
 30
0.00000
  70
    32
  0
VERTEX
  8
0
  5
24A8D
 10
57.4847
 20
77.2488
 30
0.00000
  70
    32
  0
VERTEX
  8
0
  5
24A8E
 10
57.4528
 20
77.2489
 30
0.00000
  70
    32
  0
VERTEX
  8
0
  5
24A8F
 10
57.4208
 20
77.2491
 30
0.00000
  70
    32
  0
VERTEX
  8
0
  5
24A90
 10
57.3888
 20
77.2493
 30
0.00000
  70
    32
  0
VERTEX
  8
0
  5
24A91
 10
57.3568
 20
77.2496
 30
0.00000
  70
    32
  0
VERTEX
  8
0
  5
24A92
 10
57.3248
 20
77.2498
 30
0.00000
  70
    32
  0
VERTEX
  8
0
  5
24A93
 10
57.2927
 20
77.2501
 30
0.00000
  70
    32
  0
VERTEX
  8
0
  5
24A94
 10
57.2606
 20
77.2504
 30
0.00000
  70
    32
  0
VERTEX
  8
0
  5
24A95
 10
57.2284
 20
77.2507
 30
0.00000
  70
    32
  0
VERTEX
  8
0
  5
24A96
 10
57.1962
 20
77.2511
 30
0.00000
  70
    32
  0
VERTEX
  8
0
  5
24A97
 10
57.1640
 20
77.2515
 30
0.00000
  70
    32
  0
VERTEX
  8
0
  5
24A98
 10
57.1318
 20
77.2518
 30
0.00000
  70
    32
  0
VERTEX
  8
0
  5
24A99
 10
57.0995
 20
77.2523
 30
0.00000
  70
    32
  0
VERTEX
  8
0
  5
24A9A
 10
57.0672
 20
77.2527
 30
0.00000
  70
    32
  0
VERTEX
  8
0
  5
24A9B
 10
57.0348
 20
77.2532
 30
0.00000
  70
    32
  0
VERTEX
  8
0
  5
24A9C
 10
57.0024
 20
77.2536
 30
0.00000
  70
    32
  0
VERTEX
  8
0
  5
24A9D
 10
56.9700
 20
77.2541
 30
0.00000
  70
    32
  0
VERTEX
  8
0
  5
24A9E
 10
56.9376
 20
77.2547
 30
0.00000
  70
    32
  0
VERTEX
  8
0
  5
24A9F
 10
56.9051
 20
77.2552
 30
0.00000
  70
    32
  0
VERTEX
  8
0
  5
24AA0
 10
56.8727
 20
77.2558
 30
0.00000
  70
    32
  0
VERTEX
  8
0
  5
24AA1
 10
56.8401
 20
77.2564
 30
0.00000
  70
    32
  0
VERTEX
  8
0
  5
24AA2
 10
56.8076
 20
77.2570
 30
0.00000
  70
    32
  0
VERTEX
  8
0
  5
24AA3
 10
56.7750
 20
77.2576
 30
0.00000
  70
    32
  0
VERTEX
  8
0
  5
24AA4
 10
56.7424
 20
77.2582
 30
0.00000
  70
    32
  0
VERTEX
  8
0
  5
24AA5
 10
56.7098
 20
77.2589
 30
0.00000
  70
    32
  0
VERTEX
  8
0
  5
24AA6
 10
56.6771
 20
77.2596
 30
0.00000
  70
    32
  0
VERTEX
  8
0
  5
24AA7
 10
56.6444
 20
77.2603
 30
0.00000
  70
    32
  0
VERTEX
  8
0
  5
24AA8
 10
56.6117
 20
77.2611
 30
0.00000
  70
    32
  0
VERTEX
  8
0
  5
24AA9
 10
56.5789
 20
77.2618
 30
0.00000
  70
    32
  0
VERTEX
  8
0
  5
24AAA
 10
56.5462
 20
77.2626
 30
0.00000
  70
    32
  0
VERTEX
  8
0
  5
24AAB
 10
56.5134
 20
77.2634
 30
0.00000
  70
    32
  0
VERTEX
  8
0
  5
24AAC
 10
56.4806
 20
77.2642
 30
0.00000
  70
    32
  0
VERTEX
  8
0
  5
24AAD
 10
56.4477
 20
77.2651
 30
0.00000
  70
    32
  0
VERTEX
  8
0
  5
24AAE
 10
56.4149
 20
77.2659
 30
0.00000
  70
    32
  0
VERTEX
  8
0
  5
24AAF
 10
56.3820
 20
77.2668
 30
0.00000
  70
    32
  0
VERTEX
  8
0
  5
24AB0
 10
56.3490
 20
77.2677
 30
0.00000
  70
    32
  0
VERTEX
  8
0
  5
24AB1
 10
56.3161
 20
77.2686
 30
0.00000
  70
    32
  0
VERTEX
  8
0
  5
24AB2
 10
56.2831
 20
77.2696
 30
0.00000
  70
    32
  0
VERTEX
  8
0
  5
24AB3
 10
56.2502
 20
77.2706
 30
0.00000
  70
    32
  0
VERTEX
  8
0
  5
24AB4
 10
56.2171
 20
77.2715
 30
0.00000
  70
    32
  0
VERTEX
  8
0
  5
24AB5
 10
56.1841
 20
77.2726
 30
0.00000
  70
    32
  0
VERTEX
  8
0
  5
24AB6
 10
56.1511
 20
77.2736
 30
0.00000
  70
    32
  0
VERTEX
  8
0
  5
24AB7
 10
56.1180
 20
77.2746
 30
0.00000
  70
    32
  0
VERTEX
  8
0
  5
24AB8
 10
56.0849
 20
77.2757
 30
0.00000
  70
    32
  0
VERTEX
  8
0
  5
24AB9
 10
56.0518
 20
77.2768
 30
0.00000
  70
    32
  0
VERTEX
  8
0
  5
24ABA
 10
56.0186
 20
77.2779
 30
0.00000
  70
    32
  0
VERTEX
  8
0
  5
24ABB
 10
55.9855
 20
77.2790
 30
0.00000
  70
    32
  0
VERTEX
  8
0
  5
24ABC
 10
55.9523
 20
77.2802
 30
0.00000
  70
    32
  0
VERTEX
  8
0
  5
24ABD
 10
55.9191
 20
77.2814
 30
0.00000
  70
    32
  0
VERTEX
  8
0
  5
24ABE
 10
55.8859
 20
77.2825
 30
0.00000
  70
    32
  0
VERTEX
  8
0
  5
24ABF
 10
55.8526
 20
77.2838
 30
0.00000
  70
    32
  0
VERTEX
  8
0
  5
24AC0
 10
55.8194
 20
77.2850
 30
0.00000
  70
    32
  0
VERTEX
  8
0
  5
24AC1
 10
55.7861
 20
77.2862
 30
0.00000
  70
    32
  0
VERTEX
  8
0
  5
24AC2
 10
55.7528
 20
77.2875
 30
0.00000
  70
    32
  0
VERTEX
  8
0
  5
24AC3
 10
55.7195
 20
77.2888
 30
0.00000
  70
    32
  0
VERTEX
  8
0
  5
24AC4
 10
55.6862
 20
77.2901
 30
0.00000
  70
    32
  0
VERTEX
  8
0
  5
24AC5
 10
55.6528
 20
77.2914
 30
0.00000
  70
    32
  0
VERTEX
  8
0
  5
24AC6
 10
55.6194
 20
77.2928
 30
0.00000
  70
    32
  0
VERTEX
  8
0
  5
24AC7
 10
55.5861
 20
77.2942
 30
0.00000
  70
    32
  0
VERTEX
  8
0
  5
24AC8
 10
55.5527
 20
77.2955
 30
0.00000
  70
    32
  0
VERTEX
  8
0
  5
24AC9
 10
55.5193
 20
77.2970
 30
0.00000
  70
    32
  0
VERTEX
  8
0
  5
24ACA
 10
55.4858
 20
77.2984
 30
0.00000
  70
    32
  0
VERTEX
  8
0
  5
24ACB
 10
55.4524
 20
77.2998
 30
0.00000
  70
    32
  0
VERTEX
  8
0
  5
24ACC
 10
55.4189
 20
77.3013
 30
0.00000
  70
    32
  0
VERTEX
  8
0
  5
24ACD
 10
55.3855
 20
77.3028
 30
0.00000
  70
    32
  0
VERTEX
  8
0
  5
24ACE
 10
55.3520
 20
77.3043
 30
0.00000
  70
    32
  0
VERTEX
  8
0
  5
24ACF
 10
55.3185
 20
77.3058
 30
0.00000
  70
    32
  0
VERTEX
  8
0
  5
24AD0
 10
55.2850
 20
77.3074
 30
0.00000
  70
    32
  0
VERTEX
  8
0
  5
24AD1
 10
55.2514
 20
77.3089
 30
0.00000
  70
    32
  0
VERTEX
  8
0
  5
24AD2
 10
55.2179
 20
77.3105
 30
0.00000
  70
    32
  0
VERTEX
  8
0
  5
24AD3
 10
55.1843
 20
77.3121
 30
0.00000
  70
    32
  0
VERTEX
  8
0
  5
24AD4
 10
55.1508
 20
77.3137
 30
0.00000
  70
    32
  0
VERTEX
  8
0
  5
24AD5
 10
55.1172
 20
77.3154
 30
0.00000
  70
    32
  0
VERTEX
  8
0
  5
24AD6
 10
55.0836
 20
77.3170
 30
0.00000
  70
    32
  0
VERTEX
  8
0
  5
24AD7
 10
55.0500
 20
77.3187
 30
0.00000
  70
    32
  0
VERTEX
  8
0
  5
24AD8
 10
55.0164
 20
77.3204
 30
0.00000
  70
    32
  0
VERTEX
  8
0
  5
24AD9
 10
54.9828
 20
77.3221
 30
0.00000
  70
    32
  0
VERTEX
  8
0
  5
24ADA
 10
54.9491
 20
77.3238
 30
0.00000
  70
    32
  0
VERTEX
  8
0
  5
24ADB
 10
54.9155
 20
77.3255
 30
0.00000
  70
    32
  0
VERTEX
  8
0
  5
24ADC
 10
54.8818
 20
77.3273
 30
0.00000
  70
    32
  0
VERTEX
  8
0
  5
24ADD
 10
54.8482
 20
77.3291
 30
0.00000
  70
    32
  0
VERTEX
  8
0
  5
24ADE
 10
54.8145
 20
77.3308
 30
0.00000
  70
    32
  0
VERTEX
  8
0
  5
24ADF
 10
54.7808
 20
77.3326
 30
0.00000
  70
    32
  0
VERTEX
  8
0
  5
24AE0
 10
54.7471
 20
77.3345
 30
0.00000
  70
    32
  0
VERTEX
  8
0
  5
24AE1
 10
54.7134
 20
77.3363
 30
0.00000
  70
    32
  0
VERTEX
  8
0
  5
24AE2
 10
54.6797
 20
77.3381
 30
0.00000
  70
    32
  0
VERTEX
  8
0
  5
24AE3
 10
54.6460
 20
77.3400
 30
0.00000
  70
    32
  0
VERTEX
  8
0
  5
24AE4
 10
54.6123
 20
77.3418
 30
0.00000
  70
    32
  0
VERTEX
  8
0
  5
24AE5
 10
54.5786
 20
77.3437
 30
0.00000
  70
    32
  0
VERTEX
  8
0
  5
24AE6
 10
54.5448
 20
77.3456
 30
0.00000
  70
    32
  0
VERTEX
  8
0
  5
24AE7
 10
54.5111
 20
77.3475
 30
0.00000
  70
    32
  0
VERTEX
  8
0
  5
24AE8
 10
54.4774
 20
77.3495
 30
0.00000
  70
    32
  0
VERTEX
  8
0
  5
24AE9
 10
54.4436
 20
77.3514
 30
0.00000
  70
    32
  0
VERTEX
  8
0
  5
24AEA
 10
54.4098
 20
77.3533
 30
0.00000
  70
    32
  0
VERTEX
  8
0
  5
24AEB
 10
54.3761
 20
77.3553
 30
0.00000
  70
    32
  0
VERTEX
  8
0
  5
24AEC
 10
54.3423
 20
77.3573
 30
0.00000
  70
    32
  0
VERTEX
  8
0
  5
24AED
 10
54.3085
 20
77.3592
 30
0.00000
  70
    32
  0
VERTEX
  8
0
  5
24AEE
 10
54.2748
 20
77.3612
 30
0.00000
  70
    32
  0
VERTEX
  8
0
  5
24AEF
 10
54.2410
 20
77.3632
 30
0.00000
  70
    32
  0
VERTEX
  8
0
  5
24AF0
 10
54.2072
 20
77.3652
 30
0.00000
  70
    32
  0
VERTEX
  8
0
  5
24AF1
 10
54.1734
 20
77.3673
 30
0.00000
  70
    32
  0
VERTEX
  8
0
  5
24AF2
 10
54.1396
 20
77.3693
 30
0.00000
  70
    32
  0
VERTEX
  8
0
  5
24AF3
 10
54.1058
 20
77.3713
 30
0.00000
  70
    32
  0
VERTEX
  8
0
  5
24AF4
 10
54.0720
 20
77.3734
 30
0.00000
  70
    32
  0
VERTEX
  8
0
  5
24AF5
 10
54.0382
 20
77.3754
 30
0.00000
  70
    32
  0
VERTEX
  8
0
  5
24AF6
 10
54.0044
 20
77.3775
 30
0.00000
  70
    32
  0
VERTEX
  8
0
  5
24AF7
 10
53.9706
 20
77.3796
 30
0.00000
  70
    32
  0
VERTEX
  8
0
  5
24AF8
 10
53.9368
 20
77.3817
 30
0.00000
  70
    32
  0
VERTEX
  8
0
  5
24AF9
 10
53.9030
 20
77.3838
 30
0.00000
  70
    32
  0
VERTEX
  8
0
  5
24AFA
 10
53.8692
 20
77.3859
 30
0.00000
  70
    32
  0
VERTEX
  8
0
  5
24AFB
 10
53.8354
 20
77.3880
 30
0.00000
  70
    32
  0
VERTEX
  8
0
  5
24AFC
 10
53.8016
 20
77.3901
 30
0.00000
  70
    32
  0
VERTEX
  8
0
  5
24AFD
 10
53.7678
 20
77.3922
 30
0.00000
  70
    32
  0
VERTEX
  8
0
  5
24AFE
 10
53.7340
 20
77.3943
 30
0.00000
  70
    32
  0
VERTEX
  8
0
  5
24AFF
 10
53.7002
 20
77.3965
 30
0.00000
  70
    32
  0
VERTEX
  8
0
  5
24B00
 10
53.6664
 20
77.3986
 30
0.00000
  70
    32
  0
VERTEX
  8
0
  5
24B01
 10
53.6326
 20
77.4008
 30
0.00000
  70
    32
  0
VERTEX
  8
0
  5
24B02
 10
53.5988
 20
77.4029
 30
0.00000
  70
    32
  0
VERTEX
  8
0
  5
24B03
 10
53.5650
 20
77.4051
 30
0.00000
  70
    32
  0
VERTEX
  8
0
  5
24B04
 10
53.5312
 20
77.4072
 30
0.00000
  70
    32
  0
VERTEX
  8
0
  5
24B05
 10
53.4974
 20
77.4094
 30
0.00000
  70
    32
  0
VERTEX
  8
0
  5
24B06
 10
53.4636
 20
77.4116
 30
0.00000
  70
    32
  0
VERTEX
  8
0
  5
24B07
 10
53.4298
 20
77.4138
 30
0.00000
  70
    32
  0
VERTEX
  8
0
  5
24B08
 10
53.3960
 20
77.4159
 30
0.00000
  70
    32
  0
VERTEX
  8
0
  5
24B09
 10
53.3622
 20
77.4181
 30
0.00000
  70
    32
  0
VERTEX
  8
0
  5
24B0A
 10
53.3285
 20
77.4203
 30
0.00000
  70
    32
  0
VERTEX
  8
0
  5
24B0B
 10
53.2947
 20
77.4225
 30
0.00000
  70
    32
  0
VERTEX
  8
0
  5
24B0C
 10
53.2609
 20
77.4247
 30
0.00000
  70
    32
  0
VERTEX
  8
0
  5
24B0D
 10
53.2272
 20
77.4269
 30
0.00000
  70
    32
  0
VERTEX
  8
0
  5
24B0E
 10
53.1934
 20
77.4291
 30
0.00000
  70
    32
  0
VERTEX
  8
0
  5
24B0F
 10
53.1597
 20
77.4313
 30
0.00000
  70
    32
  0
VERTEX
  8
0
  5
24B10
 10
53.1259
 20
77.4335
 30
0.00000
  70
    32
  0
VERTEX
  8
0
  5
24B11
 10
53.0922
 20
77.4357
 30
0.00000
  70
    32
  0
VERTEX
  8
0
  5
24B12
 10
53.0585
 20
77.4379
 30
0.00000
  70
    32
  0
VERTEX
  8
0
  5
24B13
 10
53.0247
 20
77.4401
 30
0.00000
  70
    32
  0
VERTEX
  8
0
  5
24B14
 10
52.9910
 20
77.4423
 30
0.00000
  70
    32
  0
VERTEX
  8
0
  5
24B15
 10
52.9573
 20
77.4445
 30
0.00000
  70
    32
  0
VERTEX
  8
0
  5
24B16
 10
52.9236
 20
77.4467
 30
0.00000
  70
    32
  0
VERTEX
  8
0
  5
24B17
 10
52.8899
 20
77.4489
 30
0.00000
  70
    32
  0
VERTEX
  8
0
  5
24B18
 10
52.8562
 20
77.4511
 30
0.00000
  70
    32
  0
VERTEX
  8
0
  5
24B19
 10
52.8226
 20
77.4533
 30
0.00000
  70
    32
  0
VERTEX
  8
0
  5
24B1A
 10
52.7889
 20
77.4555
 30
0.00000
  70
    32
  0
VERTEX
  8
0
  5
24B1B
 10
52.7552
 20
77.4577
 30
0.00000
  70
    32
  0
VERTEX
  8
0
  5
24B1C
 10
52.7216
 20
77.4599
 30
0.00000
  70
    32
  0
VERTEX
  8
0
  5
24B1D
 10
52.6880
 20
77.4621
 30
0.00000
  70
    32
  0
VERTEX
  8
0
  5
24B1E
 10
52.6543
 20
77.4643
 30
0.00000
  70
    32
  0
VERTEX
  8
0
  5
24B1F
 10
52.6207
 20
77.4665
 30
0.00000
  70
    32
  0
VERTEX
  8
0
  5
24B20
 10
52.5871
 20
77.4687
 30
0.00000
  70
    32
  0
VERTEX
  8
0
  5
24B21
 10
52.5535
 20
77.4709
 30
0.00000
  70
    32
  0
VERTEX
  8
0
  5
24B22
 10
52.5199
 20
77.4731
 30
0.00000
  70
    32
  0
VERTEX
  8
0
  5
24B23
 10
52.4864
 20
77.4753
 30
0.00000
  70
    32
  0
VERTEX
  8
0
  5
24B24
 10
52.4528
 20
77.4774
 30
0.00000
  70
    32
  0
VERTEX
  8
0
  5
24B25
 10
52.4193
 20
77.4796
 30
0.00000
  70
    32
  0
VERTEX
  8
0
  5
24B26
 10
52.3857
 20
77.4817
 30
0.00000
  70
    32
  0
VERTEX
  8
0
  5
24B27
 10
52.3522
 20
77.4839
 30
0.00000
  70
    32
  0
VERTEX
  8
0
  5
24B28
 10
52.3187
 20
77.4860
 30
0.00000
  70
    32
  0
VERTEX
  8
0
  5
24B29
 10
52.2852
 20
77.4882
 30
0.00000
  70
    32
  0
VERTEX
  8
0
  5
24B2A
 10
52.2517
 20
77.4903
 30
0.00000
  70
    32
  0
VERTEX
  8
0
  5
24B2B
 10
52.2182
 20
77.4925
 30
0.00000
  70
    32
  0
VERTEX
  8
0
  5
24B2C
 10
52.1848
 20
77.4946
 30
0.00000
  70
    32
  0
VERTEX
  8
0
  5
24B2D
 10
52.1513
 20
77.4967
 30
0.00000
  70
    32
  0
VERTEX
  8
0
  5
24B2E
 10
52.1179
 20
77.4988
 30
0.00000
  70
    32
  0
VERTEX
  8
0
  5
24B2F
 10
52.0845
 20
77.5009
 30
0.00000
  70
    32
  0
VERTEX
  8
0
  5
24B30
 10
52.0511
 20
77.5030
 30
0.00000
  70
    32
  0
VERTEX
  8
0
  5
24B31
 10
52.0177
 20
77.5050
 30
0.00000
  70
    32
  0
VERTEX
  8
0
  5
24B32
 10
51.9843
 20
77.5071
 30
0.00000
  70
    32
  0
VERTEX
  8
0
  5
24B33
 10
51.9510
 20
77.5092
 30
0.00000
  70
    32
  0
VERTEX
  8
0
  5
24B34
 10
51.9177
 20
77.5112
 30
0.00000
  70
    32
  0
VERTEX
  8
0
  5
24B35
 10
51.8843
 20
77.5132
 30
0.00000
  70
    32
  0
VERTEX
  8
0
  5
24B36
 10
51.8510
 20
77.5153
 30
0.00000
  70
    32
  0
VERTEX
  8
0
  5
24B37
 10
51.8177
 20
77.5173
 30
0.00000
  70
    32
  0
VERTEX
  8
0
  5
24B38
 10
51.7845
 20
77.5193
 30
0.00000
  70
    32
  0
VERTEX
  8
0
  5
24B39
 10
51.7512
 20
77.5212
 30
0.00000
  70
    32
  0
VERTEX
  8
0
  5
24B3A
 10
51.7180
 20
77.5232
 30
0.00000
  70
    32
  0
VERTEX
  8
0
  5
24B3B
 10
51.6848
 20
77.5252
 30
0.00000
  70
    32
  0
VERTEX
  8
0
  5
24B3C
 10
51.6516
 20
77.5271
 30
0.00000
  70
    32
  0
VERTEX
  8
0
  5
24B3D
 10
51.6184
 20
77.5291
 30
0.00000
  70
    32
  0
VERTEX
  8
0
  5
24B3E
 10
51.5852
 20
77.5310
 30
0.00000
  70
    32
  0
VERTEX
  8
0
  5
24B3F
 10
51.5521
 20
77.5329
 30
0.00000
  70
    32
  0
VERTEX
  8
0
  5
24B40
 10
51.5190
 20
77.5348
 30
0.00000
  70
    32
  0
VERTEX
  8
0
  5
24B41
 10
51.4859
 20
77.5366
 30
0.00000
  70
    32
  0
VERTEX
  8
0
  5
24B42
 10
51.4528
 20
77.5385
 30
0.00000
  70
    32
  0
VERTEX
  8
0
  5
24B43
 10
51.4197
 20
77.5404
 30
0.00000
  70
    32
  0
VERTEX
  8
0
  5
24B44
 10
51.3867
 20
77.5422
 30
0.00000
  70
    32
  0
VERTEX
  8
0
  5
24B45
 10
51.3537
 20
77.5440
 30
0.00000
  70
    32
  0
VERTEX
  8
0
  5
24B46
 10
51.3207
 20
77.5458
 30
0.00000
  70
    32
  0
VERTEX
  8
0
  5
24B47
 10
51.2877
 20
77.5476
 30
0.00000
  70
    32
  0
VERTEX
  8
0
  5
24B48
 10
51.2547
 20
77.5493
 30
0.00000
  70
    32
  0
VERTEX
  8
0
  5
24B49
 10
51.2218
 20
77.5511
 30
0.00000
  70
    32
  0
VERTEX
  8
0
  5
24B4A
 10
51.1889
 20
77.5528
 30
0.00000
  70
    32
  0
VERTEX
  8
0
  5
24B4B
 10
51.1560
 20
77.5545
 30
0.00000
  70
    32
  0
VERTEX
  8
0
  5
24B4C
 10
51.1231
 20
77.5562
 30
0.00000
  70
    32
  0
VERTEX
  8
0
  5
24B4D
 10
51.0903
 20
77.5578
 30
0.00000
  70
    32
  0
VERTEX
  8
0
  5
24B4E
 10
51.0575
 20
77.5595
 30
0.00000
  70
    32
  0
VERTEX
  8
0
  5
24B4F
 10
51.0247
 20
77.5611
 30
0.00000
  70
    32
  0
VERTEX
  8
0
  5
24B50
 10
50.9919
 20
77.5627
 30
0.00000
  70
    32
  0
VERTEX
  8
0
  5
24B51
 10
50.9592
 20
77.5643
 30
0.00000
  70
    32
  0
VERTEX
  8
0
  5
24B52
 10
50.9264
 20
77.5659
 30
0.00000
  70
    32
  0
VERTEX
  8
0
  5
24B53
 10
50.8937
 20
77.5674
 30
0.00000
  70
    32
  0
VERTEX
  8
0
  5
24B54
 10
50.8611
 20
77.5689
 30
0.00000
  70
    32
  0
VERTEX
  8
0
  5
24B55
 10
50.8284
 20
77.5704
 30
0.00000
  70
    32
  0
VERTEX
  8
0
  5
24B56
 10
50.7958
 20
77.5719
 30
0.00000
  70
    32
  0
VERTEX
  8
0
  5
24B57
 10
50.7632
 20
77.5733
 30
0.00000
  70
    32
  0
VERTEX
  8
0
  5
24B58
 10
50.7306
 20
77.5748
 30
0.00000
  70
    32
  0
VERTEX
  8
0
  5
24B59
 10
50.6981
 20
77.5762
 30
0.00000
  70
    32
  0
VERTEX
  8
0
  5
24B5A
 10
50.6655
 20
77.5776
 30
0.00000
  70
    32
  0
VERTEX
  8
0
  5
24B5B
 10
50.6331
 20
77.5789
 30
0.00000
  70
    32
  0
VERTEX
  8
0
  5
24B5C
 10
50.6006
 20
77.5803
 30
0.00000
  70
    32
  0
VERTEX
  8
0
  5
24B5D
 10
50.5681
 20
77.5816
 30
0.00000
  70
    32
  0
VERTEX
  8
0
  5
24B5E
 10
50.5357
 20
77.5828
 30
0.00000
  70
    32
  0
VERTEX
  8
0
  5
24B5F
 10
50.5034
 20
77.5841
 30
0.00000
  70
    32
  0
VERTEX
  8
0
  5
24B60
 10
50.4710
 20
77.5853
 30
0.00000
  70
    32
  0
VERTEX
  8
0
  5
24B61
 10
50.4387
 20
77.5865
 30
0.00000
  70
    32
  0
VERTEX
  8
0
  5
24B62
 10
50.4064
 20
77.5877
 30
0.00000
  70
    32
  0
VERTEX
  8
0
  5
24B63
 10
50.3741
 20
77.5889
 30
0.00000
  70
    32
  0
VERTEX
  8
0
  5
24B64
 10
50.3419
 20
77.5900
 30
0.00000
  70
    32
  0
VERTEX
  8
0
  5
24B65
 10
50.3097
 20
77.5911
 30
0.00000
  70
    32
  0
VERTEX
  8
0
  5
24B66
 10
50.2775
 20
77.5921
 30
0.00000
  70
    32
  0
VERTEX
  8
0
  5
24B67
 10
50.2453
 20
77.5932
 30
0.00000
  70
    32
  0
VERTEX
  8
0
  5
24B68
 10
50.2132
 20
77.5942
 30
0.00000
  70
    32
  0
VERTEX
  8
0
  5
24B69
 10
50.1811
 20
77.5952
 30
0.00000
  70
    32
  0
VERTEX
  8
0
  5
24B6A
 10
50.1491
 20
77.5961
 30
0.00000
  70
    32
  0
VERTEX
  8
0
  5
24B6B
 10
50.1170
 20
77.5970
 30
0.00000
  70
    32
  0
VERTEX
  8
0
  5
24B6C
 10
50.0850
 20
77.5979
 30
0.00000
  70
    32
  0
VERTEX
  8
0
  5
24B6D
 10
50.0531
 20
77.5988
 30
0.00000
  70
    32
  0
VERTEX
  8
0
  5
24B6E
 10
50.0212
 20
77.5996
 30
0.00000
  70
    32
  0
VERTEX
  8
0
  5
24B6F
 10
49.9893
 20
77.6004
 30
0.00000
  70
    32
  0
VERTEX
  8
0
  5
24B70
 10
49.9574
 20
77.6012
 30
0.00000
  70
    32
  0
VERTEX
  8
0
  5
24B71
 10
49.9256
 20
77.6019
 30
0.00000
  70
    32
  0
VERTEX
  8
0
  5
24B72
 10
49.8938
 20
77.6026
 30
0.00000
  70
    32
  0
VERTEX
  8
0
  5
24B73
 10
49.8620
 20
77.6033
 30
0.00000
  70
    32
  0
VERTEX
  8
0
  5
24B74
 10
49.8303
 20
77.6039
 30
0.00000
  70
    32
  0
VERTEX
  8
0
  5
24B75
 10
49.7986
 20
77.6045
 30
0.00000
  70
    32
  0
VERTEX
  8
0
  5
24B76
 10
49.7669
 20
77.6051
 30
0.00000
  70
    32
  0
VERTEX
  8
0
  5
24B77
 10
49.7353
 20
77.6056
 30
0.00000
  70
    32
  0
VERTEX
  8
0
  5
24B78
 10
49.7037
 20
77.6061
 30
0.00000
  70
    32
  0
VERTEX
  8
0
  5
24B79
 10
49.6721
 20
77.6066
 30
0.00000
  70
    32
  0
VERTEX
  8
0
  5
24B7A
 10
49.6406
 20
77.6070
 30
0.00000
  70
    32
  0
VERTEX
  8
0
  5
24B7B
 10
49.6091
 20
77.6074
 30
0.00000
  70
    32
  0
VERTEX
  8
0
  5
24B7C
 10
49.5777
 20
77.6078
 30
0.00000
  70
    32
  0
VERTEX
  8
0
  5
24B7D
 10
49.5462
 20
77.6081
 30
0.00000
  70
    32
  0
VERTEX
  8
0
  5
24B7E
 10
49.5149
 20
77.6084
 30
0.00000
  70
    32
  0
VERTEX
  8
0
  5
24B7F
 10
49.4835
 20
77.6086
 30
0.00000
  70
    32
  0
VERTEX
  8
0
  5
24B80
 10
49.4522
 20
77.6089
 30
0.00000
  70
    32
  0
VERTEX
  8
0
  5
24B81
 10
49.4210
 20
77.6090
 30
0.00000
  70
    32
  0
VERTEX
  8
0
  5
24B82
 10
49.3897
 20
77.6092
 30
0.00000
  70
    32
  0
VERTEX
  8
0
  5
24B83
 10
49.3585
 20
77.6093
 30
0.00000
  70
    32
  0
VERTEX
  8
0
  5
24B84
 10
49.3274
 20
77.6093
 30
0.00000
  70
    32
  0
VERTEX
  8
0
  5
24B85
 10
49.2963
 20
77.6093
 30
0.00000
  70
    32
  0
SEQEND
  8
0
  5
24B86
  0
POLYLINE
  8
0
  5
24B87
  62
1
  66
     1
 10
0.00000
 20
0.00000
 30
0.00000
  70
     8
  0
VERTEX
  8
0
  5
24B88
 10
57.7071
 20
77.2482
 30
0.00000
  70
    32
  0
VERTEX
  8
0
  5
24B89
 10
57.7388
 20
77.2482
 30
0.00000
  70
    32
  0
VERTEX
  8
0
  5
24B8A
 10
57.7705
 20
77.2482
 30
0.00000
  70
    32
  0
VERTEX
  8
0
  5
24B8B
 10
57.8022
 20
77.2483
 30
0.00000
  70
    32
  0
VERTEX
  8
0
  5
24B8C
 10
57.8340
 20
77.2484
 30
0.00000
  70
    32
  0
VERTEX
  8
0
  5
24B8D
 10
57.8658
 20
77.2485
 30
0.00000
  70
    32
  0
VERTEX
  8
0
  5
24B8E
 10
57.8976
 20
77.2486
 30
0.00000
  70
    32
  0
VERTEX
  8
0
  5
24B8F
 10
57.9295
 20
77.2488
 30
0.00000
  70
    32
  0
VERTEX
  8
0
  5
24B90
 10
57.9614
 20
77.2489
 30
0.00000
  70
    32
  0
VERTEX
  8
0
  5
24B91
 10
57.9934
 20
77.2491
 30
0.00000
  70
    32
  0
VERTEX
  8
0
  5
24B92
 10
58.0254
 20
77.2493
 30
0.00000
  70
    32
  0
VERTEX
  8
0
  5
24B93
 10
58.0574
 20
77.2496
 30
0.00000
  70
    32
  0
VERTEX
  8
0
  5
24B94
 10
58.0894
 20
77.2498
 30
0.00000
  70
    32
  0
VERTEX
  8
0
  5
24B95
 10
58.1215
 20
77.2501
 30
0.00000
  70
    32
  0
VERTEX
  8
0
  5
24B96
 10
58.1536
 20
77.2504
 30
0.00000
  70
    32
  0
VERTEX
  8
0
  5
24B97
 10
58.1858
 20
77.2507
 30
0.00000
  70
    32
  0
VERTEX
  8
0
  5
24B98
 10
58.2180
 20
77.2511
 30
0.00000
  70
    32
  0
VERTEX
  8
0
  5
24B99
 10
58.2502
 20
77.2515
 30
0.00000
  70
    32
  0
VERTEX
  8
0
  5
24B9A
 10
58.2825
 20
77.2518
 30
0.00000
  70
    32
  0
VERTEX
  8
0
  5
24B9B
 10
58.3147
 20
77.2523
 30
0.00000
  70
    32
  0
VERTEX
  8
0
  5
24B9C
 10
58.3470
 20
77.2527
 30
0.00000
  70
    32
  0
VERTEX
  8
0
  5
24B9D
 10
58.3794
 20
77.2532
 30
0.00000
  70
    32
  0
VERTEX
  8
0
  5
24B9E
 10
58.4118
 20
77.2536
 30
0.00000
  70
    32
  0
VERTEX
  8
0
  5
24B9F
 10
58.4442
 20
77.2541
 30
0.00000
  70
    32
  0
VERTEX
  8
0
  5
24BA0
 10
58.4766
 20
77.2547
 30
0.00000
  70
    32
  0
VERTEX
  8
0
  5
24BA1
 10
58.5091
 20
77.2552
 30
0.00000
  70
    32
  0
VERTEX
  8
0
  5
24BA2
 10
58.5416
 20
77.2558
 30
0.00000
  70
    32
  0
VERTEX
  8
0
  5
24BA3
 10
58.5741
 20
77.2564
 30
0.00000
  70
    32
  0
VERTEX
  8
0
  5
24BA4
 10
58.6066
 20
77.2570
 30
0.00000
  70
    32
  0
VERTEX
  8
0
  5
24BA5
 10
58.6392
 20
77.2576
 30
0.00000
  70
    32
  0
VERTEX
  8
0
  5
24BA6
 10
58.6718
 20
77.2582
 30
0.00000
  70
    32
  0
VERTEX
  8
0
  5
24BA7
 10
58.7045
 20
77.2589
 30
0.00000
  70
    32
  0
VERTEX
  8
0
  5
24BA8
 10
58.7371
 20
77.2596
 30
0.00000
  70
    32
  0
VERTEX
  8
0
  5
24BA9
 10
58.7698
 20
77.2603
 30
0.00000
  70
    32
  0
VERTEX
  8
0
  5
24BAA
 10
58.8025
 20
77.2611
 30
0.00000
  70
    32
  0
VERTEX
  8
0
  5
24BAB
 10
58.8353
 20
77.2618
 30
0.00000
  70
    32
  0
VERTEX
  8
0
  5
24BAC
 10
58.8680
 20
77.2626
 30
0.00000
  70
    32
  0
VERTEX
  8
0
  5
24BAD
 10
58.9008
 20
77.2634
 30
0.00000
  70
    32
  0
VERTEX
  8
0
  5
24BAE
 10
58.9336
 20
77.2642
 30
0.00000
  70
    32
  0
VERTEX
  8
0
  5
24BAF
 10
58.9665
 20
77.2651
 30
0.00000
  70
    32
  0
VERTEX
  8
0
  5
24BB0
 10
58.9994
 20
77.2659
 30
0.00000
  70
    32
  0
VERTEX
  8
0
  5
24BB1
 10
59.0323
 20
77.2668
 30
0.00000
  70
    32
  0
VERTEX
  8
0
  5
24BB2
 10
59.0652
 20
77.2677
 30
0.00000
  70
    32
  0
VERTEX
  8
0
  5
24BB3
 10
59.0981
 20
77.2686
 30
0.00000
  70
    32
  0
VERTEX
  8
0
  5
24BB4
 10
59.1311
 20
77.2696
 30
0.00000
  70
    32
  0
VERTEX
  8
0
  5
24BB5
 10
59.1641
 20
77.2706
 30
0.00000
  70
    32
  0
VERTEX
  8
0
  5
24BB6
 10
59.1971
 20
77.2715
 30
0.00000
  70
    32
  0
VERTEX
  8
0
  5
24BB7
 10
59.2301
 20
77.2726
 30
0.00000
  70
    32
  0
VERTEX
  8
0
  5
24BB8
 10
59.2632
 20
77.2736
 30
0.00000
  70
    32
  0
VERTEX
  8
0
  5
24BB9
 10
59.2962
 20
77.2746
 30
0.00000
  70
    32
  0
VERTEX
  8
0
  5
24BBA
 10
59.3293
 20
77.2757
 30
0.00000
  70
    32
  0
VERTEX
  8
0
  5
24BBB
 10
59.3625
 20
77.2768
 30
0.00000
  70
    32
  0
VERTEX
  8
0
  5
24BBC
 10
59.3956
 20
77.2779
 30
0.00000
  70
    32
  0
VERTEX
  8
0
  5
24BBD
 10
59.4288
 20
77.2790
 30
0.00000
  70
    32
  0
VERTEX
  8
0
  5
24BBE
 10
59.4619
 20
77.2802
 30
0.00000
  70
    32
  0
VERTEX
  8
0
  5
24BBF
 10
59.4951
 20
77.2814
 30
0.00000
  70
    32
  0
VERTEX
  8
0
  5
24BC0
 10
59.5284
 20
77.2825
 30
0.00000
  70
    32
  0
VERTEX
  8
0
  5
24BC1
 10
59.5616
 20
77.2838
 30
0.00000
  70
    32
  0
VERTEX
  8
0
  5
24BC2
 10
59.5948
 20
77.2850
 30
0.00000
  70
    32
  0
VERTEX
  8
0
  5
24BC3
 10
59.6281
 20
77.2862
 30
0.00000
  70
    32
  0
VERTEX
  8
0
  5
24BC4
 10
59.6614
 20
77.2875
 30
0.00000
  70
    32
  0
VERTEX
  8
0
  5
24BC5
 10
59.6947
 20
77.2888
 30
0.00000
  70
    32
  0
VERTEX
  8
0
  5
24BC6
 10
59.7281
 20
77.2901
 30
0.00000
  70
    32
  0
VERTEX
  8
0
  5
24BC7
 10
59.7614
 20
77.2914
 30
0.00000
  70
    32
  0
VERTEX
  8
0
  5
24BC8
 10
59.7948
 20
77.2928
 30
0.00000
  70
    32
  0
VERTEX
  8
0
  5
24BC9
 10
59.8281
 20
77.2942
 30
0.00000
  70
    32
  0
VERTEX
  8
0
  5
24BCA
 10
59.8615
 20
77.2955
 30
0.00000
  70
    32
  0
VERTEX
  8
0
  5
24BCB
 10
59.8950
 20
77.2970
 30
0.00000
  70
    32
  0
VERTEX
  8
0
  5
24BCC
 10
59.9284
 20
77.2984
 30
0.00000
  70
    32
  0
VERTEX
  8
0
  5
24BCD
 10
59.9618
 20
77.2998
 30
0.00000
  70
    32
  0
VERTEX
  8
0
  5
24BCE
 10
59.9953
 20
77.3013
 30
0.00000
  70
    32
  0
VERTEX
  8
0
  5
24BCF
 10
60.0288
 20
77.3028
 30
0.00000
  70
    32
  0
VERTEX
  8
0
  5
24BD0
 10
60.0622
 20
77.3043
 30
0.00000
  70
    32
  0
VERTEX
  8
0
  5
24BD1
 10
60.0957
 20
77.3058
 30
0.00000
  70
    32
  0
VERTEX
  8
0
  5
24BD2
 10
60.1293
 20
77.3074
 30
0.00000
  70
    32
  0
VERTEX
  8
0
  5
24BD3
 10
60.1628
 20
77.3089
 30
0.00000
  70
    32
  0
VERTEX
  8
0
  5
24BD4
 10
60.1963
 20
77.3105
 30
0.00000
  70
    32
  0
VERTEX
  8
0
  5
24BD5
 10
60.2299
 20
77.3121
 30
0.00000
  70
    32
  0
VERTEX
  8
0
  5
24BD6
 10
60.2634
 20
77.3137
 30
0.00000
  70
    32
  0
VERTEX
  8
0
  5
24BD7
 10
60.2970
 20
77.3154
 30
0.00000
  70
    32
  0
VERTEX
  8
0
  5
24BD8
 10
60.3306
 20
77.3170
 30
0.00000
  70
    32
  0
VERTEX
  8
0
  5
24BD9
 10
60.3642
 20
77.3187
 30
0.00000
  70
    32
  0
VERTEX
  8
0
  5
24BDA
 10
60.3978
 20
77.3204
 30
0.00000
  70
    32
  0
VERTEX
  8
0
  5
24BDB
 10
60.4314
 20
77.3221
 30
0.00000
  70
    32
  0
VERTEX
  8
0
  5
24BDC
 10
60.4651
 20
77.3238
 30
0.00000
  70
    32
  0
VERTEX
  8
0
  5
24BDD
 10
60.4987
 20
77.3255
 30
0.00000
  70
    32
  0
VERTEX
  8
0
  5
24BDE
 10
60.5324
 20
77.3273
 30
0.00000
  70
    32
  0
VERTEX
  8
0
  5
24BDF
 10
60.5660
 20
77.3291
 30
0.00000
  70
    32
  0
VERTEX
  8
0
  5
24BE0
 10
60.5997
 20
77.3308
 30
0.00000
  70
    32
  0
VERTEX
  8
0
  5
24BE1
 10
60.6334
 20
77.3326
 30
0.00000
  70
    32
  0
VERTEX
  8
0
  5
24BE2
 10
60.6671
 20
77.3345
 30
0.00000
  70
    32
  0
VERTEX
  8
0
  5
24BE3
 10
60.7008
 20
77.3363
 30
0.00000
  70
    32
  0
VERTEX
  8
0
  5
24BE4
 10
60.7345
 20
77.3381
 30
0.00000
  70
    32
  0
VERTEX
  8
0
  5
24BE5
 10
60.7682
 20
77.3400
 30
0.00000
  70
    32
  0
VERTEX
  8
0
  5
24BE6
 10
60.8019
 20
77.3418
 30
0.00000
  70
    32
  0
VERTEX
  8
0
  5
24BE7
 10
60.8356
 20
77.3437
 30
0.00000
  70
    32
  0
VERTEX
  8
0
  5
24BE8
 10
60.8694
 20
77.3456
 30
0.00000
  70
    32
  0
VERTEX
  8
0
  5
24BE9
 10
60.9031
 20
77.3475
 30
0.00000
  70
    32
  0
VERTEX
  8
0
  5
24BEA
 10
60.9369
 20
77.3495
 30
0.00000
  70
    32
  0
VERTEX
  8
0
  5
24BEB
 10
60.9706
 20
77.3514
 30
0.00000
  70
    32
  0
VERTEX
  8
0
  5
24BEC
 10
61.0044
 20
77.3533
 30
0.00000
  70
    32
  0
VERTEX
  8
0
  5
24BED
 10
61.0381
 20
77.3553
 30
0.00000
  70
    32
  0
VERTEX
  8
0
  5
24BEE
 10
61.0719
 20
77.3573
 30
0.00000
  70
    32
  0
VERTEX
  8
0
  5
24BEF
 10
61.1057
 20
77.3592
 30
0.00000
  70
    32
  0
VERTEX
  8
0
  5
24BF0
 10
61.1395
 20
77.3612
 30
0.00000
  70
    32
  0
VERTEX
  8
0
  5
24BF1
 10
61.1732
 20
77.3632
 30
0.00000
  70
    32
  0
VERTEX
  8
0
  5
24BF2
 10
61.2070
 20
77.3652
 30
0.00000
  70
    32
  0
VERTEX
  8
0
  5
24BF3
 10
61.2408
 20
77.3673
 30
0.00000
  70
    32
  0
VERTEX
  8
0
  5
24BF4
 10
61.2746
 20
77.3693
 30
0.00000
  70
    32
  0
VERTEX
  8
0
  5
24BF5
 10
61.3084
 20
77.3713
 30
0.00000
  70
    32
  0
VERTEX
  8
0
  5
24BF6
 10
61.3422
 20
77.3734
 30
0.00000
  70
    32
  0
VERTEX
  8
0
  5
24BF7
 10
61.3760
 20
77.3754
 30
0.00000
  70
    32
  0
VERTEX
  8
0
  5
24BF8
 10
61.4098
 20
77.3775
 30
0.00000
  70
    32
  0
VERTEX
  8
0
  5
24BF9
 10
61.4436
 20
77.3796
 30
0.00000
  70
    32
  0
VERTEX
  8
0
  5
24BFA
 10
61.4774
 20
77.3817
 30
0.00000
  70
    32
  0
VERTEX
  8
0
  5
24BFB
 10
61.5112
 20
77.3838
 30
0.00000
  70
    32
  0
VERTEX
  8
0
  5
24BFC
 10
61.5450
 20
77.3859
 30
0.00000
  70
    32
  0
VERTEX
  8
0
  5
24BFD
 10
61.5788
 20
77.3880
 30
0.00000
  70
    32
  0
VERTEX
  8
0
  5
24BFE
 10
61.6126
 20
77.3901
 30
0.00000
  70
    32
  0
VERTEX
  8
0
  5
24BFF
 10
61.6464
 20
77.3922
 30
0.00000
  70
    32
  0
VERTEX
  8
0
  5
24C00
 10
61.6802
 20
77.3943
 30
0.00000
  70
    32
  0
VERTEX
  8
0
  5
24C01
 10
61.7140
 20
77.3965
 30
0.00000
  70
    32
  0
VERTEX
  8
0
  5
24C02
 10
61.7479
 20
77.3986
 30
0.00000
  70
    32
  0
VERTEX
  8
0
  5
24C03
 10
61.7817
 20
77.4008
 30
0.00000
  70
    32
  0
VERTEX
  8
0
  5
24C04
 10
61.8155
 20
77.4029
 30
0.00000
  70
    32
  0
VERTEX
  8
0
  5
24C05
 10
61.8493
 20
77.4051
 30
0.00000
  70
    32
  0
VERTEX
  8
0
  5
24C06
 10
61.8830
 20
77.4072
 30
0.00000
  70
    32
  0
VERTEX
  8
0
  5
24C07
 10
61.9168
 20
77.4094
 30
0.00000
  70
    32
  0
VERTEX
  8
0
  5
24C08
 10
61.9506
 20
77.4116
 30
0.00000
  70
    32
  0
VERTEX
  8
0
  5
24C09
 10
61.9844
 20
77.4138
 30
0.00000
  70
    32
  0
VERTEX
  8
0
  5
24C0A
 10
62.0182
 20
77.4159
 30
0.00000
  70
    32
  0
VERTEX
  8
0
  5
24C0B
 10
62.0520
 20
77.4181
 30
0.00000
  70
    32
  0
VERTEX
  8
0
  5
24C0C
 10
62.0858
 20
77.4203
 30
0.00000
  70
    32
  0
VERTEX
  8
0
  5
24C0D
 10
62.1195
 20
77.4225
 30
0.00000
  70
    32
  0
VERTEX
  8
0
  5
24C0E
 10
62.1533
 20
77.4247
 30
0.00000
  70
    32
  0
VERTEX
  8
0
  5
24C0F
 10
62.1870
 20
77.4269
 30
0.00000
  70
    32
  0
VERTEX
  8
0
  5
24C10
 10
62.2208
 20
77.4291
 30
0.00000
  70
    32
  0
VERTEX
  8
0
  5
24C11
 10
62.2546
 20
77.4313
 30
0.00000
  70
    32
  0
VERTEX
  8
0
  5
24C12
 10
62.2883
 20
77.4335
 30
0.00000
  70
    32
  0
VERTEX
  8
0
  5
24C13
 10
62.3220
 20
77.4357
 30
0.00000
  70
    32
  0
VERTEX
  8
0
  5
24C14
 10
62.3558
 20
77.4379
 30
0.00000
  70
    32
  0
VERTEX
  8
0
  5
24C15
 10
62.3895
 20
77.4401
 30
0.00000
  70
    32
  0
VERTEX
  8
0
  5
24C16
 10
62.4232
 20
77.4423
 30
0.00000
  70
    32
  0
VERTEX
  8
0
  5
24C17
 10
62.4569
 20
77.4445
 30
0.00000
  70
    32
  0
VERTEX
  8
0
  5
24C18
 10
62.4906
 20
77.4467
 30
0.00000
  70
    32
  0
VERTEX
  8
0
  5
24C19
 10
62.5243
 20
77.4489
 30
0.00000
  70
    32
  0
VERTEX
  8
0
  5
24C1A
 10
62.5580
 20
77.4511
 30
0.00000
  70
    32
  0
VERTEX
  8
0
  5
24C1B
 10
62.5917
 20
77.4533
 30
0.00000
  70
    32
  0
VERTEX
  8
0
  5
24C1C
 10
62.6253
 20
77.4555
 30
0.00000
  70
    32
  0
VERTEX
  8
0
  5
24C1D
 10
62.6590
 20
77.4577
 30
0.00000
  70
    32
  0
VERTEX
  8
0
  5
24C1E
 10
62.6926
 20
77.4599
 30
0.00000
  70
    32
  0
VERTEX
  8
0
  5
24C1F
 10
62.7263
 20
77.4621
 30
0.00000
  70
    32
  0
VERTEX
  8
0
  5
24C20
 10
62.7599
 20
77.4643
 30
0.00000
  70
    32
  0
VERTEX
  8
0
  5
24C21
 10
62.7935
 20
77.4665
 30
0.00000
  70
    32
  0
VERTEX
  8
0
  5
24C22
 10
62.8271
 20
77.4687
 30
0.00000
  70
    32
  0
VERTEX
  8
0
  5
24C23
 10
62.8607
 20
77.4709
 30
0.00000
  70
    32
  0
VERTEX
  8
0
  5
24C24
 10
62.8943
 20
77.4731
 30
0.00000
  70
    32
  0
VERTEX
  8
0
  5
24C25
 10
62.9279
 20
77.4753
 30
0.00000
  70
    32
  0
VERTEX
  8
0
  5
24C26
 10
62.9614
 20
77.4774
 30
0.00000
  70
    32
  0
VERTEX
  8
0
  5
24C27
 10
62.9950
 20
77.4796
 30
0.00000
  70
    32
  0
VERTEX
  8
0
  5
24C28
 10
63.0285
 20
77.4817
 30
0.00000
  70
    32
  0
VERTEX
  8
0
  5
24C29
 10
63.0620
 20
77.4839
 30
0.00000
  70
    32
  0
VERTEX
  8
0
  5
24C2A
 10
63.0955
 20
77.4860
 30
0.00000
  70
    32
  0
VERTEX
  8
0
  5
24C2B
 10
63.1290
 20
77.4882
 30
0.00000
  70
    32
  0
VERTEX
  8
0
  5
24C2C
 10
63.1625
 20
77.4903
 30
0.00000
  70
    32
  0
VERTEX
  8
0
  5
24C2D
 10
63.1960
 20
77.4925
 30
0.00000
  70
    32
  0
VERTEX
  8
0
  5
24C2E
 10
63.2294
 20
77.4946
 30
0.00000
  70
    32
  0
VERTEX
  8
0
  5
24C2F
 10
63.2629
 20
77.4967
 30
0.00000
  70
    32
  0
VERTEX
  8
0
  5
24C30
 10
63.2963
 20
77.4988
 30
0.00000
  70
    32
  0
VERTEX
  8
0
  5
24C31
 10
63.3297
 20
77.5009
 30
0.00000
  70
    32
  0
VERTEX
  8
0
  5
24C32
 10
63.3631
 20
77.5030
 30
0.00000
  70
    32
  0
VERTEX
  8
0
  5
24C33
 10
63.3965
 20
77.5050
 30
0.00000
  70
    32
  0
VERTEX
  8
0
  5
24C34
 10
63.4299
 20
77.5071
 30
0.00000
  70
    32
  0
VERTEX
  8
0
  5
24C35
 10
63.4632
 20
77.5092
 30
0.00000
  70
    32
  0
VERTEX
  8
0
  5
24C36
 10
63.4966
 20
77.5112
 30
0.00000
  70
    32
  0
VERTEX
  8
0
  5
24C37
 10
63.5299
 20
77.5132
 30
0.00000
  70
    32
  0
VERTEX
  8
0
  5
24C38
 10
63.5632
 20
77.5153
 30
0.00000
  70
    32
  0
VERTEX
  8
0
  5
24C39
 10
63.5965
 20
77.5173
 30
0.00000
  70
    32
  0
VERTEX
  8
0
  5
24C3A
 10
63.6297
 20
77.5193
 30
0.00000
  70
    32
  0
VERTEX
  8
0
  5
24C3B
 10
63.6630
 20
77.5212
 30
0.00000
  70
    32
  0
VERTEX
  8
0
  5
24C3C
 10
63.6962
 20
77.5232
 30
0.00000
  70
    32
  0
VERTEX
  8
0
  5
24C3D
 10
63.7294
 20
77.5252
 30
0.00000
  70
    32
  0
VERTEX
  8
0
  5
24C3E
 10
63.7626
 20
77.5271
 30
0.00000
  70
    32
  0
VERTEX
  8
0
  5
24C3F
 10
63.7958
 20
77.5291
 30
0.00000
  70
    32
  0
VERTEX
  8
0
  5
24C40
 10
63.8290
 20
77.5310
 30
0.00000
  70
    32
  0
VERTEX
  8
0
  5
24C41
 10
63.8621
 20
77.5329
 30
0.00000
  70
    32
  0
VERTEX
  8
0
  5
24C42
 10
63.8952
 20
77.5348
 30
0.00000
  70
    32
  0
VERTEX
  8
0
  5
24C43
 10
63.9283
 20
77.5366
 30
0.00000
  70
    32
  0
VERTEX
  8
0
  5
24C44
 10
63.9614
 20
77.5385
 30
0.00000
  70
    32
  0
VERTEX
  8
0
  5
24C45
 10
63.9945
 20
77.5404
 30
0.00000
  70
    32
  0
VERTEX
  8
0
  5
24C46
 10
64.0275
 20
77.5422
 30
0.00000
  70
    32
  0
VERTEX
  8
0
  5
24C47
 10
64.0605
 20
77.5440
 30
0.00000
  70
    32
  0
VERTEX
  8
0
  5
24C48
 10
64.0935
 20
77.5458
 30
0.00000
  70
    32
  0
VERTEX
  8
0
  5
24C49
 10
64.1265
 20
77.5476
 30
0.00000
  70
    32
  0
VERTEX
  8
0
  5
24C4A
 10
64.1595
 20
77.5493
 30
0.00000
  70
    32
  0
VERTEX
  8
0
  5
24C4B
 10
64.1924
 20
77.5511
 30
0.00000
  70
    32
  0
VERTEX
  8
0
  5
24C4C
 10
64.2253
 20
77.5528
 30
0.00000
  70
    32
  0
VERTEX
  8
0
  5
24C4D
 10
64.2582
 20
77.5545
 30
0.00000
  70
    32
  0
VERTEX
  8
0
  5
24C4E
 10
64.2911
 20
77.5562
 30
0.00000
  70
    32
  0
VERTEX
  8
0
  5
24C4F
 10
64.3239
 20
77.5578
 30
0.00000
  70
    32
  0
VERTEX
  8
0
  5
24C50
 10
64.3567
 20
77.5595
 30
0.00000
  70
    32
  0
VERTEX
  8
0
  5
24C51
 10
64.3895
 20
77.5611
 30
0.00000
  70
    32
  0
VERTEX
  8
0
  5
24C52
 10
64.4223
 20
77.5627
 30
0.00000
  70
    32
  0
VERTEX
  8
0
  5
24C53
 10
64.4551
 20
77.5643
 30
0.00000
  70
    32
  0
VERTEX
  8
0
  5
24C54
 10
64.4878
 20
77.5659
 30
0.00000
  70
    32
  0
VERTEX
  8
0
  5
24C55
 10
64.5205
 20
77.5674
 30
0.00000
  70
    32
  0
VERTEX
  8
0
  5
24C56
 10
64.5532
 20
77.5689
 30
0.00000
  70
    32
  0
VERTEX
  8
0
  5
24C57
 10
64.5858
 20
77.5704
 30
0.00000
  70
    32
  0
VERTEX
  8
0
  5
24C58
 10
64.6184
 20
77.5719
 30
0.00000
  70
    32
  0
VERTEX
  8
0
  5
24C59
 10
64.6510
 20
77.5733
 30
0.00000
  70
    32
  0
VERTEX
  8
0
  5
24C5A
 10
64.6836
 20
77.5748
 30
0.00000
  70
    32
  0
VERTEX
  8
0
  5
24C5B
 10
64.7161
 20
77.5762
 30
0.00000
  70
    32
  0
VERTEX
  8
0
  5
24C5C
 10
64.7487
 20
77.5776
 30
0.00000
  70
    32
  0
VERTEX
  8
0
  5
24C5D
 10
64.7812
 20
77.5789
 30
0.00000
  70
    32
  0
VERTEX
  8
0
  5
24C5E
 10
64.8136
 20
77.5803
 30
0.00000
  70
    32
  0
VERTEX
  8
0
  5
24C5F
 10
64.8461
 20
77.5816
 30
0.00000
  70
    32
  0
VERTEX
  8
0
  5
24C60
 10
64.8785
 20
77.5828
 30
0.00000
  70
    32
  0
VERTEX
  8
0
  5
24C61
 10
64.9109
 20
77.5841
 30
0.00000
  70
    32
  0
VERTEX
  8
0
  5
24C62
 10
64.9432
 20
77.5853
 30
0.00000
  70
    32
  0
VERTEX
  8
0
  5
24C63
 10
64.9755
 20
77.5865
 30
0.00000
  70
    32
  0
VERTEX
  8
0
  5
24C64
 10
65.0078
 20
77.5877
 30
0.00000
  70
    32
  0
VERTEX
  8
0
  5
24C65
 10
65.0401
 20
77.5889
 30
0.00000
  70
    32
  0
VERTEX
  8
0
  5
24C66
 10
65.0723
 20
77.5900
 30
0.00000
  70
    32
  0
VERTEX
  8
0
  5
24C67
 10
65.1046
 20
77.5911
 30
0.00000
  70
    32
  0
VERTEX
  8
0
  5
24C68
 10
65.1367
 20
77.5921
 30
0.00000
  70
    32
  0
VERTEX
  8
0
  5
24C69
 10
65.1689
 20
77.5932
 30
0.00000
  70
    32
  0
VERTEX
  8
0
  5
24C6A
 10
65.2010
 20
77.5942
 30
0.00000
  70
    32
  0
VERTEX
  8
0
  5
24C6B
 10
65.2331
 20
77.5952
 30
0.00000
  70
    32
  0
VERTEX
  8
0
  5
24C6C
 10
65.2651
 20
77.5961
 30
0.00000
  70
    32
  0
VERTEX
  8
0
  5
24C6D
 10
65.2972
 20
77.5970
 30
0.00000
  70
    32
  0
VERTEX
  8
0
  5
24C6E
 10
65.3292
 20
77.5979
 30
0.00000
  70
    32
  0
VERTEX
  8
0
  5
24C6F
 10
65.3611
 20
77.5988
 30
0.00000
  70
    32
  0
VERTEX
  8
0
  5
24C70
 10
65.3931
 20
77.5996
 30
0.00000
  70
    32
  0
VERTEX
  8
0
  5
24C71
 10
65.4250
 20
77.6004
 30
0.00000
  70
    32
  0
VERTEX
  8
0
  5
24C72
 10
65.4568
 20
77.6012
 30
0.00000
  70
    32
  0
VERTEX
  8
0
  5
24C73
 10
65.4887
 20
77.6019
 30
0.00000
  70
    32
  0
VERTEX
  8
0
  5
24C74
 10
65.5204
 20
77.6026
 30
0.00000
  70
    32
  0
VERTEX
  8
0
  5
24C75
 10
65.5522
 20
77.6033
 30
0.00000
  70
    32
  0
VERTEX
  8
0
  5
24C76
 10
65.5839
 20
77.6039
 30
0.00000
  70
    32
  0
VERTEX
  8
0
  5
24C77
 10
65.6156
 20
77.6045
 30
0.00000
  70
    32
  0
VERTEX
  8
0
  5
24C78
 10
65.6473
 20
77.6051
 30
0.00000
  70
    32
  0
VERTEX
  8
0
  5
24C79
 10
65.6789
 20
77.6056
 30
0.00000
  70
    32
  0
VERTEX
  8
0
  5
24C7A
 10
65.7105
 20
77.6061
 30
0.00000
  70
    32
  0
VERTEX
  8
0
  5
24C7B
 10
65.7421
 20
77.6066
 30
0.00000
  70
    32
  0
VERTEX
  8
0
  5
24C7C
 10
65.7736
 20
77.6070
 30
0.00000
  70
    32
  0
VERTEX
  8
0
  5
24C7D
 10
65.8051
 20
77.6074
 30
0.00000
  70
    32
  0
VERTEX
  8
0
  5
24C7E
 10
65.8365
 20
77.6078
 30
0.00000
  70
    32
  0
VERTEX
  8
0
  5
24C7F
 10
65.8680
 20
77.6081
 30
0.00000
  70
    32
  0
VERTEX
  8
0
  5
24C80
 10
65.8993
 20
77.6084
 30
0.00000
  70
    32
  0
VERTEX
  8
0
  5
24C81
 10
65.9307
 20
77.6086
 30
0.00000
  70
    32
  0
VERTEX
  8
0
  5
24C82
 10
65.9620
 20
77.6089
 30
0.00000
  70
    32
  0
VERTEX
  8
0
  5
24C83
 10
65.9933
 20
77.6090
 30
0.00000
  70
    32
  0
VERTEX
  8
0
  5
24C84
 10
66.0245
 20
77.6092
 30
0.00000
  70
    32
  0
VERTEX
  8
0
  5
24C85
 10
66.0557
 20
77.6093
 30
0.00000
  70
    32
  0
VERTEX
  8
0
  5
24C86
 10
66.0868
 20
77.6093
 30
0.00000
  70
    32
  0
VERTEX
  8
0
  5
24C87
 10
66.1179
 20
77.6093
 30
0.00000
  70
    32
  0
SEQEND
  8
0
  5
24C88
  0
LINE
  5
24952
  8
0
  6
VERDECKT
 62
     1
 10
24.7071067811825706
 20
46.2071067811866811
 30
0.0
 11
90.7071067811825742
 21
46.2071067811866811
 31
0.0
  0
LINE
  5
24953
  8
0
  6
VERDECKT
 62
     1
 10
63.4571067811825884
 20
46.2071067811866385
 30
0.0
 11
63.4571067811825884
 21
44.7071067811866385
 31
0.0
  0
LINE
  5
24954
  8
0
  6
VERDECKT
 62
     1
 10
84.9571067811826026
 20
46.2071067811866172
 30
0.0
 11
84.9571067811826026
 21
44.7071067811866172
 31
0.0
  0
POLYLINE
  8
0
  5
24C89
  62
1
  66
     1
 10
0.00000
 20
0.00000
 30
0.00000
  70
     8
  0
VERTEX
  8
0
  5
24C8A
 10
49.2963
 20
76.1093
 30
0.00000
  70
    32
  0
VERTEX
  8
0
  5
24C8B
 10
49.3126
 20
76.1093
 30
0.00000
  70
    32
  0
VERTEX
  8
0
  5
24C8C
 10
49.3289
 20
76.1093
 30
0.00000
  70
    32
  0
VERTEX
  8
0
  5
24C8D
 10
49.3452
 20
76.1092
 30
0.00000
  70
    32
  0
VERTEX
  8
0
  5
24C8E
 10
49.3615
 20
76.1092
 30
0.00000
  70
    32
  0
VERTEX
  8
0
  5
24C8F
 10
49.3778
 20
76.1091
 30
0.00000
  70
    32
  0
VERTEX
  8
0
  5
24C90
 10
49.3941
 20
76.1090
 30
0.00000
  70
    32
  0
VERTEX
  8
0
  5
24C91
 10
49.4105
 20
76.1088
 30
0.00000
  70
    32
  0
VERTEX
  8
0
  5
24C92
 10
49.4268
 20
76.1087
 30
0.00000
  70
    32
  0
VERTEX
  8
0
  5
24C93
 10
49.4432
 20
76.1085
 30
0.00000
  70
    32
  0
VERTEX
  8
0
  5
24C94
 10
49.4596
 20
76.1083
 30
0.00000
  70
    32
  0
VERTEX
  8
0
  5
24C95
 10
49.4760
 20
76.1081
 30
0.00000
  70
    32
  0
VERTEX
  8
0
  5
24C96
 10
49.4924
 20
76.1078
 30
0.00000
  70
    32
  0
VERTEX
  8
0
  5
24C97
 10
49.5089
 20
76.1076
 30
0.00000
  70
    32
  0
VERTEX
  8
0
  5
24C98
 10
49.5253
 20
76.1073
 30
0.00000
  70
    32
  0
VERTEX
  8
0
  5
24C99
 10
49.5418
 20
76.1070
 30
0.00000
  70
    32
  0
VERTEX
  8
0
  5
24C9A
 10
49.5582
 20
76.1067
 30
0.00000
  70
    32
  0
VERTEX
  8
0
  5
24C9B
 10
49.5747
 20
76.1063
 30
0.00000
  70
    32
  0
VERTEX
  8
0
  5
24C9C
 10
49.5912
 20
76.1060
 30
0.00000
  70
    32
  0
VERTEX
  8
0
  5
24C9D
 10
49.6077
 20
76.1056
 30
0.00000
  70
    32
  0
VERTEX
  8
0
  5
24C9E
 10
49.6243
 20
76.1052
 30
0.00000
  70
    32
  0
VERTEX
  8
0
  5
24C9F
 10
49.6408
 20
76.1048
 30
0.00000
  70
    32
  0
VERTEX
  8
0
  5
24CA0
 10
49.6573
 20
76.1043
 30
0.00000
  70
    32
  0
VERTEX
  8
0
  5
24CA1
 10
49.6739
 20
76.1039
 30
0.00000
  70
    32
  0
VERTEX
  8
0
  5
24CA2
 10
49.6905
 20
76.1034
 30
0.00000
  70
    32
  0
VERTEX
  8
0
  5
24CA3
 10
49.7071
 20
76.1029
 30
0.00000
  70
    32
  0
VERTEX
  8
0
  5
24CA4
 10
49.7237
 20
76.1024
 30
0.00000
  70
    32
  0
VERTEX
  8
0
  5
24CA5
 10
49.7403
 20
76.1018
 30
0.00000
  70
    32
  0
VERTEX
  8
0
  5
24CA6
 10
49.7569
 20
76.1013
 30
0.00000
  70
    32
  0
VERTEX
  8
0
  5
24CA7
 10
49.7735
 20
76.1007
 30
0.00000
  70
    32
  0
VERTEX
  8
0
  5
24CA8
 10
49.7902
 20
76.1001
 30
0.00000
  70
    32
  0
VERTEX
  8
0
  5
24CA9
 10
49.8068
 20
76.0995
 30
0.00000
  70
    32
  0
VERTEX
  8
0
  5
24CAA
 10
49.8235
 20
76.0989
 30
0.00000
  70
    32
  0
VERTEX
  8
0
  5
24CAB
 10
49.8402
 20
76.0982
 30
0.00000
  70
    32
  0
VERTEX
  8
0
  5
24CAC
 10
49.8569
 20
76.0975
 30
0.00000
  70
    32
  0
VERTEX
  8
0
  5
24CAD
 10
49.8736
 20
76.0968
 30
0.00000
  70
    32
  0
VERTEX
  8
0
  5
24CAE
 10
49.8903
 20
76.0961
 30
0.00000
  70
    32
  0
VERTEX
  8
0
  5
24CAF
 10
49.9071
 20
76.0954
 30
0.00000
  70
    32
  0
VERTEX
  8
0
  5
24CB0
 10
49.9238
 20
76.0947
 30
0.00000
  70
    32
  0
VERTEX
  8
0
  5
24CB1
 10
49.9406
 20
76.0939
 30
0.00000
  70
    32
  0
VERTEX
  8
0
  5
24CB2
 10
49.9573
 20
76.0931
 30
0.00000
  70
    32
  0
VERTEX
  8
0
  5
24CB3
 10
49.9741
 20
76.0923
 30
0.00000
  70
    32
  0
VERTEX
  8
0
  5
24CB4
 10
49.9909
 20
76.0915
 30
0.00000
  70
    32
  0
VERTEX
  8
0
  5
24CB5
 10
50.0077
 20
76.0906
 30
0.00000
  70
    32
  0
VERTEX
  8
0
  5
24CB6
 10
50.0245
 20
76.0898
 30
0.00000
  70
    32
  0
VERTEX
  8
0
  5
24CB7
 10
50.0413
 20
76.0889
 30
0.00000
  70
    32
  0
VERTEX
  8
0
  5
24CB8
 10
50.0582
 20
76.0880
 30
0.00000
  70
    32
  0
VERTEX
  8
0
  5
24CB9
 10
50.0750
 20
76.0871
 30
0.00000
  70
    32
  0
VERTEX
  8
0
  5
24CBA
 10
50.0919
 20
76.0862
 30
0.00000
  70
    32
  0
VERTEX
  8
0
  5
24CBB
 10
50.1088
 20
76.0852
 30
0.00000
  70
    32
  0
VERTEX
  8
0
  5
24CBC
 10
50.1256
 20
76.0843
 30
0.00000
  70
    32
  0
VERTEX
  8
0
  5
24CBD
 10
50.1425
 20
76.0833
 30
0.00000
  70
    32
  0
VERTEX
  8
0
  5
24CBE
 10
50.1594
 20
76.0823
 30
0.00000
  70
    32
  0
VERTEX
  8
0
  5
24CBF
 10
50.1764
 20
76.0813
 30
0.00000
  70
    32
  0
VERTEX
  8
0
  5
24CC0
 10
50.1933
 20
76.0802
 30
0.00000
  70
    32
  0
VERTEX
  8
0
  5
24CC1
 10
50.2102
 20
76.0792
 30
0.00000
  70
    32
  0
VERTEX
  8
0
  5
24CC2
 10
50.2272
 20
76.0781
 30
0.00000
  70
    32
  0
VERTEX
  8
0
  5
24CC3
 10
50.2441
 20
76.0770
 30
0.00000
  70
    32
  0
VERTEX
  8
0
  5
24CC4
 10
50.2611
 20
76.0759
 30
0.00000
  70
    32
  0
VERTEX
  8
0
  5
24CC5
 10
50.2781
 20
76.0748
 30
0.00000
  70
    32
  0
VERTEX
  8
0
  5
24CC6
 10
50.2951
 20
76.0736
 30
0.00000
  70
    32
  0
VERTEX
  8
0
  5
24CC7
 10
50.3121
 20
76.0725
 30
0.00000
  70
    32
  0
VERTEX
  8
0
  5
24CC8
 10
50.3291
 20
76.0713
 30
0.00000
  70
    32
  0
VERTEX
  8
0
  5
24CC9
 10
50.3461
 20
76.0701
 30
0.00000
  70
    32
  0
VERTEX
  8
0
  5
24CCA
 10
50.3632
 20
76.0689
 30
0.00000
  70
    32
  0
VERTEX
  8
0
  5
24CCB
 10
50.3802
 20
76.0677
 30
0.00000
  70
    32
  0
VERTEX
  8
0
  5
24CCC
 10
50.3973
 20
76.0665
 30
0.00000
  70
    32
  0
VERTEX
  8
0
  5
24CCD
 10
50.4143
 20
76.0652
 30
0.00000
  70
    32
  0
VERTEX
  8
0
  5
24CCE
 10
50.4314
 20
76.0639
 30
0.00000
  70
    32
  0
VERTEX
  8
0
  5
24CCF
 10
50.4485
 20
76.0626
 30
0.00000
  70
    32
  0
VERTEX
  8
0
  5
24CD0
 10
50.4656
 20
76.0613
 30
0.00000
  70
    32
  0
VERTEX
  8
0
  5
24CD1
 10
50.4827
 20
76.0600
 30
0.00000
  70
    32
  0
VERTEX
  8
0
  5
24CD2
 10
50.4998
 20
76.0587
 30
0.00000
  70
    32
  0
VERTEX
  8
0
  5
24CD3
 10
50.5170
 20
76.0573
 30
0.00000
  70
    32
  0
VERTEX
  8
0
  5
24CD4
 10
50.5341
 20
76.0559
 30
0.00000
  70
    32
  0
VERTEX
  8
0
  5
24CD5
 10
50.5512
 20
76.0545
 30
0.00000
  70
    32
  0
VERTEX
  8
0
  5
24CD6
 10
50.5684
 20
76.0531
 30
0.00000
  70
    32
  0
VERTEX
  8
0
  5
24CD7
 10
50.5856
 20
76.0517
 30
0.00000
  70
    32
  0
VERTEX
  8
0
  5
24CD8
 10
50.6027
 20
76.0503
 30
0.00000
  70
    32
  0
VERTEX
  8
0
  5
24CD9
 10
50.6199
 20
76.0488
 30
0.00000
  70
    32
  0
VERTEX
  8
0
  5
24CDA
 10
50.6371
 20
76.0474
 30
0.00000
  70
    32
  0
VERTEX
  8
0
  5
24CDB
 10
50.6543
 20
76.0459
 30
0.00000
  70
    32
  0
VERTEX
  8
0
  5
24CDC
 10
50.6716
 20
76.0444
 30
0.00000
  70
    32
  0
VERTEX
  8
0
  5
24CDD
 10
50.6888
 20
76.0429
 30
0.00000
  70
    32
  0
VERTEX
  8
0
  5
24CDE
 10
50.7060
 20
76.0413
 30
0.00000
  70
    32
  0
VERTEX
  8
0
  5
24CDF
 10
50.7233
 20
76.0398
 30
0.00000
  70
    32
  0
VERTEX
  8
0
  5
24CE0
 10
50.7405
 20
76.0382
 30
0.00000
  70
    32
  0
VERTEX
  8
0
  5
24CE1
 10
50.7578
 20
76.0366
 30
0.00000
  70
    32
  0
VERTEX
  8
0
  5
24CE2
 10
50.7751
 20
76.0351
 30
0.00000
  70
    32
  0
VERTEX
  8
0
  5
24CE3
 10
50.7923
 20
76.0334
 30
0.00000
  70
    32
  0
VERTEX
  8
0
  5
24CE4
 10
50.8096
 20
76.0318
 30
0.00000
  70
    32
  0
VERTEX
  8
0
  5
24CE5
 10
50.8269
 20
76.0302
 30
0.00000
  70
    32
  0
VERTEX
  8
0
  5
24CE6
 10
50.8442
 20
76.0285
 30
0.00000
  70
    32
  0
VERTEX
  8
0
  5
24CE7
 10
50.8616
 20
76.0269
 30
0.00000
  70
    32
  0
VERTEX
  8
0
  5
24CE8
 10
50.8789
 20
76.0252
 30
0.00000
  70
    32
  0
VERTEX
  8
0
  5
24CE9
 10
50.8962
 20
76.0235
 30
0.00000
  70
    32
  0
VERTEX
  8
0
  5
24CEA
 10
50.9136
 20
76.0218
 30
0.00000
  70
    32
  0
VERTEX
  8
0
  5
24CEB
 10
50.9309
 20
76.0200
 30
0.00000
  70
    32
  0
VERTEX
  8
0
  5
24CEC
 10
50.9483
 20
76.0183
 30
0.00000
  70
    32
  0
VERTEX
  8
0
  5
24CED
 10
50.9657
 20
76.0166
 30
0.00000
  70
    32
  0
VERTEX
  8
0
  5
24CEE
 10
50.9830
 20
76.0148
 30
0.00000
  70
    32
  0
VERTEX
  8
0
  5
24CEF
 10
51.0004
 20
76.0130
 30
0.00000
  70
    32
  0
VERTEX
  8
0
  5
24CF0
 10
51.0178
 20
76.0112
 30
0.00000
  70
    32
  0
VERTEX
  8
0
  5
24CF1
 10
51.0352
 20
76.0094
 30
0.00000
  70
    32
  0
VERTEX
  8
0
  5
24CF2
 10
51.0527
 20
76.0076
 30
0.00000
  70
    32
  0
VERTEX
  8
0
  5
24CF3
 10
51.0701
 20
76.0057
 30
0.00000
  70
    32
  0
VERTEX
  8
0
  5
24CF4
 10
51.0875
 20
76.0039
 30
0.00000
  70
    32
  0
VERTEX
  8
0
  5
24CF5
 10
51.1049
 20
76.0020
 30
0.00000
  70
    32
  0
VERTEX
  8
0
  5
24CF6
 10
51.1224
 20
76.0001
 30
0.00000
  70
    32
  0
VERTEX
  8
0
  5
24CF7
 10
51.1399
 20
75.9982
 30
0.00000
  70
    32
  0
VERTEX
  8
0
  5
24CF8
 10
51.1573
 20
75.9963
 30
0.00000
  70
    32
  0
VERTEX
  8
0
  5
24CF9
 10
51.1748
 20
75.9944
 30
0.00000
  70
    32
  0
VERTEX
  8
0
  5
24CFA
 10
51.1923
 20
75.9924
 30
0.00000
  70
    32
  0
VERTEX
  8
0
  5
24CFB
 10
51.2098
 20
75.9905
 30
0.00000
  70
    32
  0
VERTEX
  8
0
  5
24CFC
 10
51.2273
 20
75.9885
 30
0.00000
  70
    32
  0
VERTEX
  8
0
  5
24CFD
 10
51.2448
 20
75.9866
 30
0.00000
  70
    32
  0
VERTEX
  8
0
  5
24CFE
 10
51.2623
 20
75.9846
 30
0.00000
  70
    32
  0
VERTEX
  8
0
  5
24CFF
 10
51.2798
 20
75.9826
 30
0.00000
  70
    32
  0
VERTEX
  8
0
  5
24D00
 10
51.2973
 20
75.9805
 30
0.00000
  70
    32
  0
VERTEX
  8
0
  5
24D01
 10
51.3149
 20
75.9785
 30
0.00000
  70
    32
  0
VERTEX
  8
0
  5
24D02
 10
51.3324
 20
75.9765
 30
0.00000
  70
    32
  0
VERTEX
  8
0
  5
24D03
 10
51.3500
 20
75.9744
 30
0.00000
  70
    32
  0
VERTEX
  8
0
  5
24D04
 10
51.3675
 20
75.9723
 30
0.00000
  70
    32
  0
VERTEX
  8
0
  5
24D05
 10
51.3851
 20
75.9703
 30
0.00000
  70
    32
  0
VERTEX
  8
0
  5
24D06
 10
51.4027
 20
75.9682
 30
0.00000
  70
    32
  0
VERTEX
  8
0
  5
24D07
 10
51.4202
 20
75.9661
 30
0.00000
  70
    32
  0
VERTEX
  8
0
  5
24D08
 10
51.4378
 20
75.9639
 30
0.00000
  70
    32
  0
VERTEX
  8
0
  5
24D09
 10
51.4554
 20
75.9618
 30
0.00000
  70
    32
  0
VERTEX
  8
0
  5
24D0A
 10
51.4730
 20
75.9597
 30
0.00000
  70
    32
  0
VERTEX
  8
0
  5
24D0B
 10
51.4906
 20
75.9575
 30
0.00000
  70
    32
  0
VERTEX
  8
0
  5
24D0C
 10
51.5083
 20
75.9553
 30
0.00000
  70
    32
  0
VERTEX
  8
0
  5
24D0D
 10
51.5259
 20
75.9531
 30
0.00000
  70
    32
  0
VERTEX
  8
0
  5
24D0E
 10
51.5435
 20
75.9509
 30
0.00000
  70
    32
  0
VERTEX
  8
0
  5
24D0F
 10
51.5612
 20
75.9487
 30
0.00000
  70
    32
  0
VERTEX
  8
0
  5
24D10
 10
51.5788
 20
75.9465
 30
0.00000
  70
    32
  0
VERTEX
  8
0
  5
24D11
 10
51.5965
 20
75.9443
 30
0.00000
  70
    32
  0
VERTEX
  8
0
  5
24D12
 10
51.6141
 20
75.9420
 30
0.00000
  70
    32
  0
VERTEX
  8
0
  5
24D13
 10
51.6318
 20
75.9398
 30
0.00000
  70
    32
  0
VERTEX
  8
0
  5
24D14
 10
51.6495
 20
75.9375
 30
0.00000
  70
    32
  0
VERTEX
  8
0
  5
24D15
 10
51.6671
 20
75.9352
 30
0.00000
  70
    32
  0
VERTEX
  8
0
  5
24D16
 10
51.6848
 20
75.9330
 30
0.00000
  70
    32
  0
VERTEX
  8
0
  5
24D17
 10
51.7025
 20
75.9307
 30
0.00000
  70
    32
  0
VERTEX
  8
0
  5
24D18
 10
51.7202
 20
75.9283
 30
0.00000
  70
    32
  0
VERTEX
  8
0
  5
24D19
 10
51.7379
 20
75.9260
 30
0.00000
  70
    32
  0
VERTEX
  8
0
  5
24D1A
 10
51.7556
 20
75.9237
 30
0.00000
  70
    32
  0
VERTEX
  8
0
  5
24D1B
 10
51.7734
 20
75.9213
 30
0.00000
  70
    32
  0
VERTEX
  8
0
  5
24D1C
 10
51.7911
 20
75.9190
 30
0.00000
  70
    32
  0
VERTEX
  8
0
  5
24D1D
 10
51.8088
 20
75.9166
 30
0.00000
  70
    32
  0
VERTEX
  8
0
  5
24D1E
 10
51.8265
 20
75.9142
 30
0.00000
  70
    32
  0
VERTEX
  8
0
  5
24D1F
 10
51.8443
 20
75.9118
 30
0.00000
  70
    32
  0
VERTEX
  8
0
  5
24D20
 10
51.8620
 20
75.9094
 30
0.00000
  70
    32
  0
VERTEX
  8
0
  5
24D21
 10
51.8798
 20
75.9070
 30
0.00000
  70
    32
  0
VERTEX
  8
0
  5
24D22
 10
51.8976
 20
75.9046
 30
0.00000
  70
    32
  0
VERTEX
  8
0
  5
24D23
 10
51.9153
 20
75.9021
 30
0.00000
  70
    32
  0
VERTEX
  8
0
  5
24D24
 10
51.9331
 20
75.8997
 30
0.00000
  70
    32
  0
VERTEX
  8
0
  5
24D25
 10
51.9509
 20
75.8972
 30
0.00000
  70
    32
  0
VERTEX
  8
0
  5
24D26
 10
51.9687
 20
75.8948
 30
0.00000
  70
    32
  0
VERTEX
  8
0
  5
24D27
 10
51.9865
 20
75.8923
 30
0.00000
  70
    32
  0
VERTEX
  8
0
  5
24D28
 10
52.0042
 20
75.8898
 30
0.00000
  70
    32
  0
VERTEX
  8
0
  5
24D29
 10
52.0221
 20
75.8873
 30
0.00000
  70
    32
  0
VERTEX
  8
0
  5
24D2A
 10
52.0399
 20
75.8848
 30
0.00000
  70
    32
  0
VERTEX
  8
0
  5
24D2B
 10
52.0577
 20
75.8823
 30
0.00000
  70
    32
  0
VERTEX
  8
0
  5
24D2C
 10
52.0755
 20
75.8797
 30
0.00000
  70
    32
  0
VERTEX
  8
0
  5
24D2D
 10
52.0933
 20
75.8772
 30
0.00000
  70
    32
  0
VERTEX
  8
0
  5
24D2E
 10
52.1111
 20
75.8747
 30
0.00000
  70
    32
  0
VERTEX
  8
0
  5
24D2F
 10
52.1290
 20
75.8721
 30
0.00000
  70
    32
  0
VERTEX
  8
0
  5
24D30
 10
52.1468
 20
75.8695
 30
0.00000
  70
    32
  0
VERTEX
  8
0
  5
24D31
 10
52.1647
 20
75.8669
 30
0.00000
  70
    32
  0
VERTEX
  8
0
  5
24D32
 10
52.1825
 20
75.8644
 30
0.00000
  70
    32
  0
VERTEX
  8
0
  5
24D33
 10
52.2004
 20
75.8618
 30
0.00000
  70
    32
  0
VERTEX
  8
0
  5
24D34
 10
52.2182
 20
75.8591
 30
0.00000
  70
    32
  0
VERTEX
  8
0
  5
24D35
 10
52.2361
 20
75.8565
 30
0.00000
  70
    32
  0
VERTEX
  8
0
  5
24D36
 10
52.2540
 20
75.8539
 30
0.00000
  70
    32
  0
VERTEX
  8
0
  5
24D37
 10
52.2718
 20
75.8513
 30
0.00000
  70
    32
  0
VERTEX
  8
0
  5
24D38
 10
52.2897
 20
75.8486
 30
0.00000
  70
    32
  0
VERTEX
  8
0
  5
24D39
 10
52.3076
 20
75.8460
 30
0.00000
  70
    32
  0
VERTEX
  8
0
  5
24D3A
 10
52.3255
 20
75.8433
 30
0.00000
  70
    32
  0
VERTEX
  8
0
  5
24D3B
 10
52.3434
 20
75.8406
 30
0.00000
  70
    32
  0
VERTEX
  8
0
  5
24D3C
 10
52.3613
 20
75.8379
 30
0.00000
  70
    32
  0
VERTEX
  8
0
  5
24D3D
 10
52.3792
 20
75.8352
 30
0.00000
  70
    32
  0
VERTEX
  8
0
  5
24D3E
 10
52.3971
 20
75.8325
 30
0.00000
  70
    32
  0
VERTEX
  8
0
  5
24D3F
 10
52.4150
 20
75.8298
 30
0.00000
  70
    32
  0
VERTEX
  8
0
  5
24D40
 10
52.4329
 20
75.8271
 30
0.00000
  70
    32
  0
VERTEX
  8
0
  5
24D41
 10
52.4509
 20
75.8244
 30
0.00000
  70
    32
  0
VERTEX
  8
0
  5
24D42
 10
52.4688
 20
75.8216
 30
0.00000
  70
    32
  0
VERTEX
  8
0
  5
24D43
 10
52.4867
 20
75.8189
 30
0.00000
  70
    32
  0
VERTEX
  8
0
  5
24D44
 10
52.5047
 20
75.8161
 30
0.00000
  70
    32
  0
VERTEX
  8
0
  5
24D45
 10
52.5226
 20
75.8134
 30
0.00000
  70
    32
  0
VERTEX
  8
0
  5
24D46
 10
52.5405
 20
75.8106
 30
0.00000
  70
    32
  0
VERTEX
  8
0
  5
24D47
 10
52.5585
 20
75.8078
 30
0.00000
  70
    32
  0
VERTEX
  8
0
  5
24D48
 10
52.5764
 20
75.8050
 30
0.00000
  70
    32
  0
VERTEX
  8
0
  5
24D49
 10
52.5944
 20
75.8022
 30
0.00000
  70
    32
  0
VERTEX
  8
0
  5
24D4A
 10
52.6123
 20
75.7994
 30
0.00000
  70
    32
  0
VERTEX
  8
0
  5
24D4B
 10
52.6303
 20
75.7966
 30
0.00000
  70
    32
  0
VERTEX
  8
0
  5
24D4C
 10
52.6483
 20
75.7938
 30
0.00000
  70
    32
  0
VERTEX
  8
0
  5
24D4D
 10
52.6662
 20
75.7910
 30
0.00000
  70
    32
  0
VERTEX
  8
0
  5
24D4E
 10
52.6842
 20
75.7881
 30
0.00000
  70
    32
  0
VERTEX
  8
0
  5
24D4F
 10
52.7022
 20
75.7853
 30
0.00000
  70
    32
  0
VERTEX
  8
0
  5
24D50
 10
52.7202
 20
75.7824
 30
0.00000
  70
    32
  0
VERTEX
  8
0
  5
24D51
 10
52.7382
 20
75.7796
 30
0.00000
  70
    32
  0
VERTEX
  8
0
  5
24D52
 10
52.7562
 20
75.7767
 30
0.00000
  70
    32
  0
VERTEX
  8
0
  5
24D53
 10
52.7741
 20
75.7738
 30
0.00000
  70
    32
  0
VERTEX
  8
0
  5
24D54
 10
52.7921
 20
75.7710
 30
0.00000
  70
    32
  0
VERTEX
  8
0
  5
24D55
 10
52.8101
 20
75.7681
 30
0.00000
  70
    32
  0
VERTEX
  8
0
  5
24D56
 10
52.8281
 20
75.7652
 30
0.00000
  70
    32
  0
VERTEX
  8
0
  5
24D57
 10
52.8461
 20
75.7623
 30
0.00000
  70
    32
  0
VERTEX
  8
0
  5
24D58
 10
52.8642
 20
75.7594
 30
0.00000
  70
    32
  0
VERTEX
  8
0
  5
24D59
 10
52.8822
 20
75.7564
 30
0.00000
  70
    32
  0
VERTEX
  8
0
  5
24D5A
 10
52.9002
 20
75.7535
 30
0.00000
  70
    32
  0
VERTEX
  8
0
  5
24D5B
 10
52.9182
 20
75.7506
 30
0.00000
  70
    32
  0
VERTEX
  8
0
  5
24D5C
 10
52.9362
 20
75.7476
 30
0.00000
  70
    32
  0
VERTEX
  8
0
  5
24D5D
 10
52.9542
 20
75.7447
 30
0.00000
  70
    32
  0
VERTEX
  8
0
  5
24D5E
 10
52.9723
 20
75.7417
 30
0.00000
  70
    32
  0
VERTEX
  8
0
  5
24D5F
 10
52.9903
 20
75.7388
 30
0.00000
  70
    32
  0
VERTEX
  8
0
  5
24D60
 10
53.0083
 20
75.7358
 30
0.00000
  70
    32
  0
VERTEX
  8
0
  5
24D61
 10
53.0264
 20
75.7329
 30
0.00000
  70
    32
  0
VERTEX
  8
0
  5
24D62
 10
53.0444
 20
75.7299
 30
0.00000
  70
    32
  0
VERTEX
  8
0
  5
24D63
 10
53.0624
 20
75.7269
 30
0.00000
  70
    32
  0
VERTEX
  8
0
  5
24D64
 10
53.0805
 20
75.7239
 30
0.00000
  70
    32
  0
VERTEX
  8
0
  5
24D65
 10
53.0985
 20
75.7209
 30
0.00000
  70
    32
  0
VERTEX
  8
0
  5
24D66
 10
53.1166
 20
75.7179
 30
0.00000
  70
    32
  0
VERTEX
  8
0
  5
24D67
 10
53.1346
 20
75.7149
 30
0.00000
  70
    32
  0
VERTEX
  8
0
  5
24D68
 10
53.1527
 20
75.7119
 30
0.00000
  70
    32
  0
VERTEX
  8
0
  5
24D69
 10
53.1707
 20
75.7088
 30
0.00000
  70
    32
  0
VERTEX
  8
0
  5
24D6A
 10
53.1888
 20
75.7058
 30
0.00000
  70
    32
  0
VERTEX
  8
0
  5
24D6B
 10
53.2069
 20
75.7028
 30
0.00000
  70
    32
  0
VERTEX
  8
0
  5
24D6C
 10
53.2249
 20
75.6997
 30
0.00000
  70
    32
  0
VERTEX
  8
0
  5
24D6D
 10
53.2430
 20
75.6967
 30
0.00000
  70
    32
  0
VERTEX
  8
0
  5
24D6E
 10
53.2611
 20
75.6936
 30
0.00000
  70
    32
  0
VERTEX
  8
0
  5
24D6F
 10
53.2791
 20
75.6906
 30
0.00000
  70
    32
  0
VERTEX
  8
0
  5
24D70
 10
53.2972
 20
75.6875
 30
0.00000
  70
    32
  0
VERTEX
  8
0
  5
24D71
 10
53.3153
 20
75.6845
 30
0.00000
  70
    32
  0
VERTEX
  8
0
  5
24D72
 10
53.3333
 20
75.6814
 30
0.00000
  70
    32
  0
VERTEX
  8
0
  5
24D73
 10
53.3514
 20
75.6783
 30
0.00000
  70
    32
  0
VERTEX
  8
0
  5
24D74
 10
53.3695
 20
75.6752
 30
0.00000
  70
    32
  0
VERTEX
  8
0
  5
24D75
 10
53.3876
 20
75.6721
 30
0.00000
  70
    32
  0
VERTEX
  8
0
  5
24D76
 10
53.4056
 20
75.6690
 30
0.00000
  70
    32
  0
VERTEX
  8
0
  5
24D77
 10
53.4237
 20
75.6659
 30
0.00000
  70
    32
  0
VERTEX
  8
0
  5
24D78
 10
53.4418
 20
75.6628
 30
0.00000
  70
    32
  0
VERTEX
  8
0
  5
24D79
 10
53.4599
 20
75.6597
 30
0.00000
  70
    32
  0
VERTEX
  8
0
  5
24D7A
 10
53.4780
 20
75.6566
 30
0.00000
  70
    32
  0
VERTEX
  8
0
  5
24D7B
 10
53.4961
 20
75.6535
 30
0.00000
  70
    32
  0
VERTEX
  8
0
  5
24D7C
 10
53.5142
 20
75.6504
 30
0.00000
  70
    32
  0
VERTEX
  8
0
  5
24D7D
 10
53.5322
 20
75.6472
 30
0.00000
  70
    32
  0
VERTEX
  8
0
  5
24D7E
 10
53.5503
 20
75.6441
 30
0.00000
  70
    32
  0
VERTEX
  8
0
  5
24D7F
 10
53.5684
 20
75.6410
 30
0.00000
  70
    32
  0
VERTEX
  8
0
  5
24D80
 10
53.5865
 20
75.6378
 30
0.00000
  70
    32
  0
VERTEX
  8
0
  5
24D81
 10
53.6046
 20
75.6347
 30
0.00000
  70
    32
  0
VERTEX
  8
0
  5
24D82
 10
53.6227
 20
75.6315
 30
0.00000
  70
    32
  0
VERTEX
  8
0
  5
24D83
 10
53.6408
 20
75.6284
 30
0.00000
  70
    32
  0
VERTEX
  8
0
  5
24D84
 10
53.6589
 20
75.6252
 30
0.00000
  70
    32
  0
VERTEX
  8
0
  5
24D85
 10
53.6770
 20
75.6220
 30
0.00000
  70
    32
  0
VERTEX
  8
0
  5
24D86
 10
53.6951
 20
75.6189
 30
0.00000
  70
    32
  0
VERTEX
  8
0
  5
24D87
 10
53.7132
 20
75.6157
 30
0.00000
  70
    32
  0
VERTEX
  8
0
  5
24D88
 10
53.7313
 20
75.6125
 30
0.00000
  70
    32
  0
VERTEX
  8
0
  5
24D89
 10
53.7494
 20
75.6093
 30
0.00000
  70
    32
  0
SEQEND
  8
0
  5
24D8A
  0
POLYLINE
  8
0
  5
24D8B
  62
1
  66
     1
 10
0.00000
 20
0.00000
 30
0.00000
  70
     8
  0
VERTEX
  8
0
  5
24D8C
 10
66.1179
 20
76.1093
 30
0.00000
  70
    32
  0
VERTEX
  8
0
  5
24D8D
 10
66.1016
 20
76.1093
 30
0.00000
  70
    32
  0
VERTEX
  8
0
  5
24D8E
 10
66.0854
 20
76.1093
 30
0.00000
  70
    32
  0
VERTEX
  8
0
  5
24D8F
 10
66.0691
 20
76.1092
 30
0.00000
  70
    32
  0
VERTEX
  8
0
  5
24D90
 10
66.0527
 20
76.1092
 30
0.00000
  70
    32
  0
VERTEX
  8
0
  5
24D91
 10
66.0364
 20
76.1091
 30
0.00000
  70
    32
  0
VERTEX
  8
0
  5
24D92
 10
66.0201
 20
76.1090
 30
0.00000
  70
    32
  0
VERTEX
  8
0
  5
24D93
 10
66.0037
 20
76.1088
 30
0.00000
  70
    32
  0
VERTEX
  8
0
  5
24D94
 10
65.9874
 20
76.1087
 30
0.00000
  70
    32
  0
VERTEX
  8
0
  5
24D95
 10
65.9710
 20
76.1085
 30
0.00000
  70
    32
  0
VERTEX
  8
0
  5
24D96
 10
65.9546
 20
76.1083
 30
0.00000
  70
    32
  0
VERTEX
  8
0
  5
24D97
 10
65.9382
 20
76.1081
 30
0.00000
  70
    32
  0
VERTEX
  8
0
  5
24D98
 10
65.9218
 20
76.1078
 30
0.00000
  70
    32
  0
VERTEX
  8
0
  5
24D99
 10
65.9053
 20
76.1076
 30
0.00000
  70
    32
  0
VERTEX
  8
0
  5
24D9A
 10
65.8889
 20
76.1073
 30
0.00000
  70
    32
  0
VERTEX
  8
0
  5
24D9B
 10
65.8724
 20
76.1070
 30
0.00000
  70
    32
  0
VERTEX
  8
0
  5
24D9C
 10
65.8560
 20
76.1067
 30
0.00000
  70
    32
  0
VERTEX
  8
0
  5
24D9D
 10
65.8395
 20
76.1063
 30
0.00000
  70
    32
  0
VERTEX
  8
0
  5
24D9E
 10
65.8230
 20
76.1060
 30
0.00000
  70
    32
  0
VERTEX
  8
0
  5
24D9F
 10
65.8065
 20
76.1056
 30
0.00000
  70
    32
  0
VERTEX
  8
0
  5
24DA0
 10
65.7900
 20
76.1052
 30
0.00000
  70
    32
  0
VERTEX
  8
0
  5
24DA1
 10
65.7734
 20
76.1048
 30
0.00000
  70
    32
  0
VERTEX
  8
0
  5
24DA2
 10
65.7569
 20
76.1043
 30
0.00000
  70
    32
  0
VERTEX
  8
0
  5
24DA3
 10
65.7403
 20
76.1039
 30
0.00000
  70
    32
  0
VERTEX
  8
0
  5
24DA4
 10
65.7237
 20
76.1034
 30
0.00000
  70
    32
  0
VERTEX
  8
0
  5
24DA5
 10
65.7072
 20
76.1029
 30
0.00000
  70
    32
  0
VERTEX
  8
0
  5
24DA6
 10
65.6906
 20
76.1024
 30
0.00000
  70
    32
  0
VERTEX
  8
0
  5
24DA7
 10
65.6739
 20
76.1018
 30
0.00000
  70
    32
  0
VERTEX
  8
0
  5
24DA8
 10
65.6573
 20
76.1013
 30
0.00000
  70
    32
  0
VERTEX
  8
0
  5
24DA9
 10
65.6407
 20
76.1007
 30
0.00000
  70
    32
  0
VERTEX
  8
0
  5
24DAA
 10
65.6240
 20
76.1001
 30
0.00000
  70
    32
  0
VERTEX
  8
0
  5
24DAB
 10
65.6074
 20
76.0995
 30
0.00000
  70
    32
  0
VERTEX
  8
0
  5
24DAC
 10
65.5907
 20
76.0989
 30
0.00000
  70
    32
  0
VERTEX
  8
0
  5
24DAD
 10
65.5740
 20
76.0982
 30
0.00000
  70
    32
  0
VERTEX
  8
0
  5
24DAE
 10
65.5573
 20
76.0975
 30
0.00000
  70
    32
  0
VERTEX
  8
0
  5
24DAF
 10
65.5406
 20
76.0968
 30
0.00000
  70
    32
  0
VERTEX
  8
0
  5
24DB0
 10
65.5239
 20
76.0961
 30
0.00000
  70
    32
  0
VERTEX
  8
0
  5
24DB1
 10
65.5072
 20
76.0954
 30
0.00000
  70
    32
  0
VERTEX
  8
0
  5
24DB2
 10
65.4904
 20
76.0947
 30
0.00000
  70
    32
  0
VERTEX
  8
0
  5
24DB3
 10
65.4737
 20
76.0939
 30
0.00000
  70
    32
  0
VERTEX
  8
0
  5
24DB4
 10
65.4569
 20
76.0931
 30
0.00000
  70
    32
  0
VERTEX
  8
0
  5
24DB5
 10
65.4401
 20
76.0923
 30
0.00000
  70
    32
  0
VERTEX
  8
0
  5
24DB6
 10
65.4233
 20
76.0915
 30
0.00000
  70
    32
  0
VERTEX
  8
0
  5
24DB7
 10
65.4065
 20
76.0906
 30
0.00000
  70
    32
  0
VERTEX
  8
0
  5
24DB8
 10
65.3897
 20
76.0898
 30
0.00000
  70
    32
  0
VERTEX
  8
0
  5
24DB9
 10
65.3729
 20
76.0889
 30
0.00000
  70
    32
  0
VERTEX
  8
0
  5
24DBA
 10
65.3560
 20
76.0880
 30
0.00000
  70
    32
  0
VERTEX
  8
0
  5
24DBB
 10
65.3392
 20
76.0871
 30
0.00000
  70
    32
  0
VERTEX
  8
0
  5
24DBC
 10
65.3223
 20
76.0862
 30
0.00000
  70
    32
  0
VERTEX
  8
0
  5
24DBD
 10
65.3055
 20
76.0852
 30
0.00000
  70
    32
  0
VERTEX
  8
0
  5
24DBE
 10
65.2886
 20
76.0843
 30
0.00000
  70
    32
  0
VERTEX
  8
0
  5
24DBF
 10
65.2717
 20
76.0833
 30
0.00000
  70
    32
  0
VERTEX
  8
0
  5
24DC0
 10
65.2548
 20
76.0823
 30
0.00000
  70
    32
  0
VERTEX
  8
0
  5
24DC1
 10
65.2379
 20
76.0813
 30
0.00000
  70
    32
  0
VERTEX
  8
0
  5
24DC2
 10
65.2209
 20
76.0802
 30
0.00000
  70
    32
  0
VERTEX
  8
0
  5
24DC3
 10
65.2040
 20
76.0792
 30
0.00000
  70
    32
  0
VERTEX
  8
0
  5
24DC4
 10
65.1870
 20
76.0781
 30
0.00000
  70
    32
  0
VERTEX
  8
0
  5
24DC5
 10
65.1701
 20
76.0770
 30
0.00000
  70
    32
  0
VERTEX
  8
0
  5
24DC6
 10
65.1531
 20
76.0759
 30
0.00000
  70
    32
  0
VERTEX
  8
0
  5
24DC7
 10
65.1361
 20
76.0748
 30
0.00000
  70
    32
  0
VERTEX
  8
0
  5
24DC8
 10
65.1191
 20
76.0736
 30
0.00000
  70
    32
  0
VERTEX
  8
0
  5
24DC9
 10
65.1021
 20
76.0725
 30
0.00000
  70
    32
  0
VERTEX
  8
0
  5
24DCA
 10
65.0851
 20
76.0713
 30
0.00000
  70
    32
  0
VERTEX
  8
0
  5
24DCB
 10
65.0681
 20
76.0701
 30
0.00000
  70
    32
  0
VERTEX
  8
0
  5
24DCC
 10
65.0511
 20
76.0689
 30
0.00000
  70
    32
  0
VERTEX
  8
0
  5
24DCD
 10
65.0340
 20
76.0677
 30
0.00000
  70
    32
  0
VERTEX
  8
0
  5
24DCE
 10
65.0169
 20
76.0665
 30
0.00000
  70
    32
  0
VERTEX
  8
0
  5
24DCF
 10
64.9999
 20
76.0652
 30
0.00000
  70
    32
  0
VERTEX
  8
0
  5
24DD0
 10
64.9828
 20
76.0639
 30
0.00000
  70
    32
  0
VERTEX
  8
0
  5
24DD1
 10
64.9657
 20
76.0626
 30
0.00000
  70
    32
  0
VERTEX
  8
0
  5
24DD2
 10
64.9486
 20
76.0613
 30
0.00000
  70
    32
  0
VERTEX
  8
0
  5
24DD3
 10
64.9315
 20
76.0600
 30
0.00000
  70
    32
  0
VERTEX
  8
0
  5
24DD4
 10
64.9144
 20
76.0587
 30
0.00000
  70
    32
  0
VERTEX
  8
0
  5
24DD5
 10
64.8973
 20
76.0573
 30
0.00000
  70
    32
  0
VERTEX
  8
0
  5
24DD6
 10
64.8801
 20
76.0559
 30
0.00000
  70
    32
  0
VERTEX
  8
0
  5
24DD7
 10
64.8630
 20
76.0545
 30
0.00000
  70
    32
  0
VERTEX
  8
0
  5
24DD8
 10
64.8458
 20
76.0531
 30
0.00000
  70
    32
  0
VERTEX
  8
0
  5
24DD9
 10
64.8286
 20
76.0517
 30
0.00000
  70
    32
  0
VERTEX
  8
0
  5
24DDA
 10
64.8115
 20
76.0503
 30
0.00000
  70
    32
  0
VERTEX
  8
0
  5
24DDB
 10
64.7943
 20
76.0488
 30
0.00000
  70
    32
  0
VERTEX
  8
0
  5
24DDC
 10
64.7771
 20
76.0474
 30
0.00000
  70
    32
  0
VERTEX
  8
0
  5
24DDD
 10
64.7599
 20
76.0459
 30
0.00000
  70
    32
  0
VERTEX
  8
0
  5
24DDE
 10
64.7427
 20
76.0444
 30
0.00000
  70
    32
  0
VERTEX
  8
0
  5
24DDF
 10
64.7254
 20
76.0429
 30
0.00000
  70
    32
  0
VERTEX
  8
0
  5
24DE0
 10
64.7082
 20
76.0413
 30
0.00000
  70
    32
  0
VERTEX
  8
0
  5
24DE1
 10
64.6910
 20
76.0398
 30
0.00000
  70
    32
  0
VERTEX
  8
0
  5
24DE2
 10
64.6737
 20
76.0382
 30
0.00000
  70
    32
  0
VERTEX
  8
0
  5
24DE3
 10
64.6564
 20
76.0366
 30
0.00000
  70
    32
  0
VERTEX
  8
0
  5
24DE4
 10
64.6392
 20
76.0351
 30
0.00000
  70
    32
  0
VERTEX
  8
0
  5
24DE5
 10
64.6219
 20
76.0334
 30
0.00000
  70
    32
  0
VERTEX
  8
0
  5
24DE6
 10
64.6046
 20
76.0318
 30
0.00000
  70
    32
  0
VERTEX
  8
0
  5
24DE7
 10
64.5873
 20
76.0302
 30
0.00000
  70
    32
  0
VERTEX
  8
0
  5
24DE8
 10
64.5700
 20
76.0285
 30
0.00000
  70
    32
  0
VERTEX
  8
0
  5
24DE9
 10
64.5527
 20
76.0269
 30
0.00000
  70
    32
  0
VERTEX
  8
0
  5
24DEA
 10
64.5353
 20
76.0252
 30
0.00000
  70
    32
  0
VERTEX
  8
0
  5
24DEB
 10
64.5180
 20
76.0235
 30
0.00000
  70
    32
  0
VERTEX
  8
0
  5
24DEC
 10
64.5006
 20
76.0218
 30
0.00000
  70
    32
  0
VERTEX
  8
0
  5
24DED
 10
64.4833
 20
76.0200
 30
0.00000
  70
    32
  0
VERTEX
  8
0
  5
24DEE
 10
64.4659
 20
76.0183
 30
0.00000
  70
    32
  0
VERTEX
  8
0
  5
24DEF
 10
64.4486
 20
76.0166
 30
0.00000
  70
    32
  0
VERTEX
  8
0
  5
24DF0
 10
64.4312
 20
76.0148
 30
0.00000
  70
    32
  0
VERTEX
  8
0
  5
24DF1
 10
64.4138
 20
76.0130
 30
0.00000
  70
    32
  0
VERTEX
  8
0
  5
24DF2
 10
64.3964
 20
76.0112
 30
0.00000
  70
    32
  0
VERTEX
  8
0
  5
24DF3
 10
64.3790
 20
76.0094
 30
0.00000
  70
    32
  0
VERTEX
  8
0
  5
24DF4
 10
64.3616
 20
76.0076
 30
0.00000
  70
    32
  0
VERTEX
  8
0
  5
24DF5
 10
64.3441
 20
76.0057
 30
0.00000
  70
    32
  0
VERTEX
  8
0
  5
24DF6
 10
64.3267
 20
76.0039
 30
0.00000
  70
    32
  0
VERTEX
  8
0
  5
24DF7
 10
64.3093
 20
76.0020
 30
0.00000
  70
    32
  0
VERTEX
  8
0
  5
24DF8
 10
64.2918
 20
76.0001
 30
0.00000
  70
    32
  0
VERTEX
  8
0
  5
24DF9
 10
64.2744
 20
75.9982
 30
0.00000
  70
    32
  0
VERTEX
  8
0
  5
24DFA
 10
64.2569
 20
75.9963
 30
0.00000
  70
    32
  0
VERTEX
  8
0
  5
24DFB
 10
64.2394
 20
75.9944
 30
0.00000
  70
    32
  0
VERTEX
  8
0
  5
24DFC
 10
64.2219
 20
75.9924
 30
0.00000
  70
    32
  0
VERTEX
  8
0
  5
24DFD
 10
64.2044
 20
75.9905
 30
0.00000
  70
    32
  0
VERTEX
  8
0
  5
24DFE
 10
64.1870
 20
75.9885
 30
0.00000
  70
    32
  0
VERTEX
  8
0
  5
24DFF
 10
64.1694
 20
75.9866
 30
0.00000
  70
    32
  0
VERTEX
  8
0
  5
24E00
 10
64.1519
 20
75.9846
 30
0.00000
  70
    32
  0
VERTEX
  8
0
  5
24E01
 10
64.1344
 20
75.9826
 30
0.00000
  70
    32
  0
VERTEX
  8
0
  5
24E02
 10
64.1169
 20
75.9805
 30
0.00000
  70
    32
  0
VERTEX
  8
0
  5
24E03
 10
64.0993
 20
75.9785
 30
0.00000
  70
    32
  0
VERTEX
  8
0
  5
24E04
 10
64.0818
 20
75.9765
 30
0.00000
  70
    32
  0
VERTEX
  8
0
  5
24E05
 10
64.0643
 20
75.9744
 30
0.00000
  70
    32
  0
VERTEX
  8
0
  5
24E06
 10
64.0467
 20
75.9723
 30
0.00000
  70
    32
  0
VERTEX
  8
0
  5
24E07
 10
64.0291
 20
75.9703
 30
0.00000
  70
    32
  0
VERTEX
  8
0
  5
24E08
 10
64.0116
 20
75.9682
 30
0.00000
  70
    32
  0
VERTEX
  8
0
  5
24E09
 10
63.9940
 20
75.9661
 30
0.00000
  70
    32
  0
VERTEX
  8
0
  5
24E0A
 10
63.9764
 20
75.9639
 30
0.00000
  70
    32
  0
VERTEX
  8
0
  5
24E0B
 10
63.9588
 20
75.9618
 30
0.00000
  70
    32
  0
VERTEX
  8
0
  5
24E0C
 10
63.9412
 20
75.9597
 30
0.00000
  70
    32
  0
VERTEX
  8
0
  5
24E0D
 10
63.9236
 20
75.9575
 30
0.00000
  70
    32
  0
VERTEX
  8
0
  5
24E0E
 10
63.9060
 20
75.9553
 30
0.00000
  70
    32
  0
VERTEX
  8
0
  5
24E0F
 10
63.8883
 20
75.9531
 30
0.00000
  70
    32
  0
VERTEX
  8
0
  5
24E10
 10
63.8707
 20
75.9509
 30
0.00000
  70
    32
  0
VERTEX
  8
0
  5
24E11
 10
63.8531
 20
75.9487
 30
0.00000
  70
    32
  0
VERTEX
  8
0
  5
24E12
 10
63.8354
 20
75.9465
 30
0.00000
  70
    32
  0
VERTEX
  8
0
  5
24E13
 10
63.8178
 20
75.9443
 30
0.00000
  70
    32
  0
VERTEX
  8
0
  5
24E14
 10
63.8001
 20
75.9420
 30
0.00000
  70
    32
  0
VERTEX
  8
0
  5
24E15
 10
63.7824
 20
75.9398
 30
0.00000
  70
    32
  0
VERTEX
  8
0
  5
24E16
 10
63.7648
 20
75.9375
 30
0.00000
  70
    32
  0
VERTEX
  8
0
  5
24E17
 10
63.7471
 20
75.9352
 30
0.00000
  70
    32
  0
VERTEX
  8
0
  5
24E18
 10
63.7294
 20
75.9330
 30
0.00000
  70
    32
  0
VERTEX
  8
0
  5
24E19
 10
63.7117
 20
75.9307
 30
0.00000
  70
    32
  0
VERTEX
  8
0
  5
24E1A
 10
63.6940
 20
75.9283
 30
0.00000
  70
    32
  0
VERTEX
  8
0
  5
24E1B
 10
63.6763
 20
75.9260
 30
0.00000
  70
    32
  0
VERTEX
  8
0
  5
24E1C
 10
63.6586
 20
75.9237
 30
0.00000
  70
    32
  0
VERTEX
  8
0
  5
24E1D
 10
63.6409
 20
75.9213
 30
0.00000
  70
    32
  0
VERTEX
  8
0
  5
24E1E
 10
63.6231
 20
75.9190
 30
0.00000
  70
    32
  0
VERTEX
  8
0
  5
24E1F
 10
63.6054
 20
75.9166
 30
0.00000
  70
    32
  0
VERTEX
  8
0
  5
24E20
 10
63.5877
 20
75.9142
 30
0.00000
  70
    32
  0
VERTEX
  8
0
  5
24E21
 10
63.5699
 20
75.9118
 30
0.00000
  70
    32
  0
VERTEX
  8
0
  5
24E22
 10
63.5522
 20
75.9094
 30
0.00000
  70
    32
  0
VERTEX
  8
0
  5
24E23
 10
63.5344
 20
75.9070
 30
0.00000
  70
    32
  0
VERTEX
  8
0
  5
24E24
 10
63.5167
 20
75.9046
 30
0.00000
  70
    32
  0
VERTEX
  8
0
  5
24E25
 10
63.4989
 20
75.9021
 30
0.00000
  70
    32
  0
VERTEX
  8
0
  5
24E26
 10
63.4811
 20
75.8997
 30
0.00000
  70
    32
  0
VERTEX
  8
0
  5
24E27
 10
63.4633
 20
75.8972
 30
0.00000
  70
    32
  0
VERTEX
  8
0
  5
24E28
 10
63.4456
 20
75.8948
 30
0.00000
  70
    32
  0
VERTEX
  8
0
  5
24E29
 10
63.4278
 20
75.8923
 30
0.00000
  70
    32
  0
VERTEX
  8
0
  5
24E2A
 10
63.4100
 20
75.8898
 30
0.00000
  70
    32
  0
VERTEX
  8
0
  5
24E2B
 10
63.3922
 20
75.8873
 30
0.00000
  70
    32
  0
VERTEX
  8
0
  5
24E2C
 10
63.3744
 20
75.8848
 30
0.00000
  70
    32
  0
VERTEX
  8
0
  5
24E2D
 10
63.3565
 20
75.8823
 30
0.00000
  70
    32
  0
VERTEX
  8
0
  5
24E2E
 10
63.3387
 20
75.8797
 30
0.00000
  70
    32
  0
VERTEX
  8
0
  5
24E2F
 10
63.3209
 20
75.8772
 30
0.00000
  70
    32
  0
VERTEX
  8
0
  5
24E30
 10
63.3031
 20
75.8747
 30
0.00000
  70
    32
  0
VERTEX
  8
0
  5
24E31
 10
63.2852
 20
75.8721
 30
0.00000
  70
    32
  0
VERTEX
  8
0
  5
24E32
 10
63.2674
 20
75.8695
 30
0.00000
  70
    32
  0
VERTEX
  8
0
  5
24E33
 10
63.2495
 20
75.8669
 30
0.00000
  70
    32
  0
VERTEX
  8
0
  5
24E34
 10
63.2317
 20
75.8644
 30
0.00000
  70
    32
  0
VERTEX
  8
0
  5
24E35
 10
63.2138
 20
75.8618
 30
0.00000
  70
    32
  0
VERTEX
  8
0
  5
24E36
 10
63.1960
 20
75.8591
 30
0.00000
  70
    32
  0
VERTEX
  8
0
  5
24E37
 10
63.1781
 20
75.8565
 30
0.00000
  70
    32
  0
VERTEX
  8
0
  5
24E38
 10
63.1602
 20
75.8539
 30
0.00000
  70
    32
  0
VERTEX
  8
0
  5
24E39
 10
63.1424
 20
75.8513
 30
0.00000
  70
    32
  0
VERTEX
  8
0
  5
24E3A
 10
63.1245
 20
75.8486
 30
0.00000
  70
    32
  0
VERTEX
  8
0
  5
24E3B
 10
63.1066
 20
75.8460
 30
0.00000
  70
    32
  0
VERTEX
  8
0
  5
24E3C
 10
63.0887
 20
75.8433
 30
0.00000
  70
    32
  0
VERTEX
  8
0
  5
24E3D
 10
63.0708
 20
75.8406
 30
0.00000
  70
    32
  0
VERTEX
  8
0
  5
24E3E
 10
63.0529
 20
75.8379
 30
0.00000
  70
    32
  0
VERTEX
  8
0
  5
24E3F
 10
63.0350
 20
75.8352
 30
0.00000
  70
    32
  0
VERTEX
  8
0
  5
24E40
 10
63.0171
 20
75.8325
 30
0.00000
  70
    32
  0
VERTEX
  8
0
  5
24E41
 10
62.9992
 20
75.8298
 30
0.00000
  70
    32
  0
VERTEX
  8
0
  5
24E42
 10
62.9813
 20
75.8271
 30
0.00000
  70
    32
  0
VERTEX
  8
0
  5
24E43
 10
62.9634
 20
75.8244
 30
0.00000
  70
    32
  0
VERTEX
  8
0
  5
24E44
 10
62.9454
 20
75.8216
 30
0.00000
  70
    32
  0
VERTEX
  8
0
  5
24E45
 10
62.9275
 20
75.8189
 30
0.00000
  70
    32
  0
VERTEX
  8
0
  5
24E46
 10
62.9096
 20
75.8161
 30
0.00000
  70
    32
  0
VERTEX
  8
0
  5
24E47
 10
62.8916
 20
75.8134
 30
0.00000
  70
    32
  0
VERTEX
  8
0
  5
24E48
 10
62.8737
 20
75.8106
 30
0.00000
  70
    32
  0
VERTEX
  8
0
  5
24E49
 10
62.8557
 20
75.8078
 30
0.00000
  70
    32
  0
VERTEX
  8
0
  5
24E4A
 10
62.8378
 20
75.8050
 30
0.00000
  70
    32
  0
VERTEX
  8
0
  5
24E4B
 10
62.8198
 20
75.8022
 30
0.00000
  70
    32
  0
VERTEX
  8
0
  5
24E4C
 10
62.8019
 20
75.7994
 30
0.00000
  70
    32
  0
VERTEX
  8
0
  5
24E4D
 10
62.7839
 20
75.7966
 30
0.00000
  70
    32
  0
VERTEX
  8
0
  5
24E4E
 10
62.7659
 20
75.7938
 30
0.00000
  70
    32
  0
VERTEX
  8
0
  5
24E4F
 10
62.7480
 20
75.7910
 30
0.00000
  70
    32
  0
VERTEX
  8
0
  5
24E50
 10
62.7300
 20
75.7881
 30
0.00000
  70
    32
  0
VERTEX
  8
0
  5
24E51
 10
62.7120
 20
75.7853
 30
0.00000
  70
    32
  0
VERTEX
  8
0
  5
24E52
 10
62.6940
 20
75.7824
 30
0.00000
  70
    32
  0
VERTEX
  8
0
  5
24E53
 10
62.6760
 20
75.7796
 30
0.00000
  70
    32
  0
VERTEX
  8
0
  5
24E54
 10
62.6581
 20
75.7767
 30
0.00000
  70
    32
  0
VERTEX
  8
0
  5
24E55
 10
62.6401
 20
75.7738
 30
0.00000
  70
    32
  0
VERTEX
  8
0
  5
24E56
 10
62.6221
 20
75.7710
 30
0.00000
  70
    32
  0
VERTEX
  8
0
  5
24E57
 10
62.6041
 20
75.7681
 30
0.00000
  70
    32
  0
VERTEX
  8
0
  5
24E58
 10
62.5861
 20
75.7652
 30
0.00000
  70
    32
  0
VERTEX
  8
0
  5
24E59
 10
62.5681
 20
75.7623
 30
0.00000
  70
    32
  0
VERTEX
  8
0
  5
24E5A
 10
62.5501
 20
75.7594
 30
0.00000
  70
    32
  0
VERTEX
  8
0
  5
24E5B
 10
62.5320
 20
75.7564
 30
0.00000
  70
    32
  0
VERTEX
  8
0
  5
24E5C
 10
62.5140
 20
75.7535
 30
0.00000
  70
    32
  0
VERTEX
  8
0
  5
24E5D
 10
62.4960
 20
75.7506
 30
0.00000
  70
    32
  0
VERTEX
  8
0
  5
24E5E
 10
62.4780
 20
75.7476
 30
0.00000
  70
    32
  0
VERTEX
  8
0
  5
24E5F
 10
62.4600
 20
75.7447
 30
0.00000
  70
    32
  0
VERTEX
  8
0
  5
24E60
 10
62.4419
 20
75.7417
 30
0.00000
  70
    32
  0
VERTEX
  8
0
  5
24E61
 10
62.4239
 20
75.7388
 30
0.00000
  70
    32
  0
VERTEX
  8
0
  5
24E62
 10
62.4059
 20
75.7358
 30
0.00000
  70
    32
  0
VERTEX
  8
0
  5
24E63
 10
62.3878
 20
75.7329
 30
0.00000
  70
    32
  0
VERTEX
  8
0
  5
24E64
 10
62.3698
 20
75.7299
 30
0.00000
  70
    32
  0
VERTEX
  8
0
  5
24E65
 10
62.3518
 20
75.7269
 30
0.00000
  70
    32
  0
VERTEX
  8
0
  5
24E66
 10
62.3337
 20
75.7239
 30
0.00000
  70
    32
  0
VERTEX
  8
0
  5
24E67
 10
62.3157
 20
75.7209
 30
0.00000
  70
    32
  0
VERTEX
  8
0
  5
24E68
 10
62.2976
 20
75.7179
 30
0.00000
  70
    32
  0
VERTEX
  8
0
  5
24E69
 10
62.2796
 20
75.7149
 30
0.00000
  70
    32
  0
VERTEX
  8
0
  5
24E6A
 10
62.2615
 20
75.7119
 30
0.00000
  70
    32
  0
VERTEX
  8
0
  5
24E6B
 10
62.2435
 20
75.7088
 30
0.00000
  70
    32
  0
VERTEX
  8
0
  5
24E6C
 10
62.2254
 20
75.7058
 30
0.00000
  70
    32
  0
VERTEX
  8
0
  5
24E6D
 10
62.2074
 20
75.7028
 30
0.00000
  70
    32
  0
VERTEX
  8
0
  5
24E6E
 10
62.1893
 20
75.6997
 30
0.00000
  70
    32
  0
VERTEX
  8
0
  5
24E6F
 10
62.1712
 20
75.6967
 30
0.00000
  70
    32
  0
VERTEX
  8
0
  5
24E70
 10
62.1532
 20
75.6936
 30
0.00000
  70
    32
  0
VERTEX
  8
0
  5
24E71
 10
62.1351
 20
75.6906
 30
0.00000
  70
    32
  0
VERTEX
  8
0
  5
24E72
 10
62.1170
 20
75.6875
 30
0.00000
  70
    32
  0
VERTEX
  8
0
  5
24E73
 10
62.0990
 20
75.6845
 30
0.00000
  70
    32
  0
VERTEX
  8
0
  5
24E74
 10
62.0809
 20
75.6814
 30
0.00000
  70
    32
  0
VERTEX
  8
0
  5
24E75
 10
62.0628
 20
75.6783
 30
0.00000
  70
    32
  0
VERTEX
  8
0
  5
24E76
 10
62.0447
 20
75.6752
 30
0.00000
  70
    32
  0
VERTEX
  8
0
  5
24E77
 10
62.0266
 20
75.6721
 30
0.00000
  70
    32
  0
VERTEX
  8
0
  5
24E78
 10
62.0086
 20
75.6690
 30
0.00000
  70
    32
  0
VERTEX
  8
0
  5
24E79
 10
61.9905
 20
75.6659
 30
0.00000
  70
    32
  0
VERTEX
  8
0
  5
24E7A
 10
61.9724
 20
75.6628
 30
0.00000
  70
    32
  0
VERTEX
  8
0
  5
24E7B
 10
61.9543
 20
75.6597
 30
0.00000
  70
    32
  0
VERTEX
  8
0
  5
24E7C
 10
61.9362
 20
75.6566
 30
0.00000
  70
    32
  0
VERTEX
  8
0
  5
24E7D
 10
61.9181
 20
75.6535
 30
0.00000
  70
    32
  0
VERTEX
  8
0
  5
24E7E
 10
61.9001
 20
75.6504
 30
0.00000
  70
    32
  0
VERTEX
  8
0
  5
24E7F
 10
61.8820
 20
75.6472
 30
0.00000
  70
    32
  0
VERTEX
  8
0
  5
24E80
 10
61.8639
 20
75.6441
 30
0.00000
  70
    32
  0
VERTEX
  8
0
  5
24E81
 10
61.8458
 20
75.6410
 30
0.00000
  70
    32
  0
VERTEX
  8
0
  5
24E82
 10
61.8277
 20
75.6378
 30
0.00000
  70
    32
  0
VERTEX
  8
0
  5
24E83
 10
61.8096
 20
75.6347
 30
0.00000
  70
    32
  0
VERTEX
  8
0
  5
24E84
 10
61.7915
 20
75.6315
 30
0.00000
  70
    32
  0
VERTEX
  8
0
  5
24E85
 10
61.7734
 20
75.6284
 30
0.00000
  70
    32
  0
VERTEX
  8
0
  5
24E86
 10
61.7553
 20
75.6252
 30
0.00000
  70
    32
  0
VERTEX
  8
0
  5
24E87
 10
61.7372
 20
75.6220
 30
0.00000
  70
    32
  0
VERTEX
  8
0
  5
24E88
 10
61.7191
 20
75.6189
 30
0.00000
  70
    32
  0
VERTEX
  8
0
  5
24E89
 10
61.7010
 20
75.6157
 30
0.00000
  70
    32
  0
VERTEX
  8
0
  5
24E8A
 10
61.6829
 20
75.6125
 30
0.00000
  70
    32
  0
VERTEX
  8
0
  5
24E8B
 10
61.6648
 20
75.6093
 30
0.00000
  70
    32
  0
SEQEND
  8
0
  5
24E8C
  0
LINE
  5
24957
  8
0
  6
VERDECKT
 62
     1
 10
53.7494013925207668
 20
75.6093353124144869
 30
0.0
 11
61.6648121698440832
 21
75.6093353124144869
 31
0.0
  0
LINE
  5
24958
  8
0
  6
VERDECKT
 62
     1
 10
17.9475914382704183
 20
77.6093353124145153
 30
0.0
 11
17.9475914382704183
 21
76.1093353124145153
 31
0.0
  0
LINE
  5
24959
  8
0
  6
VERDECKT
 62
     1
 10
97.4666221240944566
 20
76.1093353124145153
 30
0.0
 11
97.4666221240944566
 21
77.6093353124145153
 31
0.0
  0
LINE
  5
2495A
  8
0
  6
VERDECKT
 62
     1
 10
32.2071067811825671
 20
76.1093353124144869
 30
0.0
 11
32.2071067811825671
 21
77.6093353124145153
 31
0.0
  0
LINE
  5
2495B
  8
0
  6
VERDECKT
 62
     1
 10
83.2071067811825742
 20
76.1093353124144869
 30
0.0
 11
83.2071067811825742
 21
77.6093353124145153
 31
0.0
  0
ENDBLK
  5
2495D
  8
0
  0
BLOCK
  8
0
  2
A$CC4FE7493
 70
     0
 10
0.0
 20
0.0
 30
0.0
  3
A$CC4FE7493
  1

  0
ARC
  5
24961
  8
0
  6
CONTINUOUS
 62
     3
 10
-57.7071067811818992
 20
39.5097694721921826
 30
0.0
 40
25.0663619842789203
210
0.0
220
-0.0000000000000002
230
-1.0
 50
180.0
 51
193.2969824441603066
  0
ARC
  5
24962
  8
0
  6
CONTINUOUS
 62
     3
 10
-57.7071067811821905
 20
39.5097694721921471
 30
0.0
 40
25.0663619842786289
210
0.0
220
-0.0000000000000002
230
-1.0
 50
346.7030175558396081
 51
180.0
  0
LINE
  5
24963
  8
0
  6
CONTINUOUS
 62
     3
 10
115.7071067811784957
 20
-0.0000000000000217
 30
0.0
 11
114.7071067811784957
 21
0.0000000000000169
 31
0.0
210
0.0
220
1.0
230
-0.0000000000000002
  0
LINE
  5
24964
  8
0
  6
CONTINUOUS
 62
     3
 10
0.7071067811865249
 20
0.0000000000022191
 30
0.0
 11
114.7071067811784957
 21
0.0000000000022191
 31
0.0
210
0.0
220
1.0
230
-0.0000000000000002
  0
LINE
  5
24965
  8
0
  6
CONTINUOUS
 62
     3
 10
0.7071067811865249
 20
-0.0000000000000218
 30
0.0
 11
-0.2928932188134752
 21
0.0000000000000169
 31
0.0
210
0.0
220
1.0
230
-0.0000000000000002
  0
LINE
  5
24966
  8
0
  6
CONTINUOUS
 62
     3
 10
115.7071067811784957
 20
-0.0000000000000218
 30
0.0
 11
115.7071067811784957
 21
1.5000000000000919
 31
-0.0000000000000003
210
0.0
220
1.0
230
-0.0000000000000002
  0
LINE
  5
24967
  8
0
  6
CONTINUOUS
 62
     3
 10
114.7071067811784957
 20
1.500000000000131
 30
-0.0000000000000003
 11
115.7071067811784957
 21
1.5000000000000919
 31
-0.0000000000000003
210
0.0
220
1.0
230
-0.0000000000000002
  0
LINE
  5
24968
  8
0
  6
CONTINUOUS
 62
     3
 10
0.7071067811865249
 20
1.500000000004535
 30
-0.0000000000000003
 11
114.7071067811784957
 21
1.500000000000131
 31
-0.0000000000000003
210
0.0
220
1.0
230
-0.0000000000000002
  0
LINE
  5
24969
  8
0
  6
CONTINUOUS
 62
     3
 10
-0.2928932188134798
 20
1.500000000000131
 30
-0.0000000000000003
 11
0.7071067811865249
 21
1.5000000000000919
 31
-0.0000000000000003
210
0.0
220
1.0
230
-0.0000000000000002
  0
LINE
  5
2496A
  8
0
  6
CONTINUOUS
 62
     3
 10
-0.2928932188134752
 20
1.500000000002333
 30
-0.0000000000000003
 11
-0.2928932188134752
 21
0.0000000000022191
 31
0.0
210
0.0
220
1.0
230
-0.0000000000000002
  0
LINE
  5
2496B
  8
0
  6
CONTINUOUS
 62
     3
 10
24.7071067811824108
 20
5.000000000001946
 30
-0.0000000000000011
 11
24.7071067811824108
 21
1.500000000001982
 31
-0.0000000000000003
210
0.0
220
1.0
230
-0.0000000000000002
  0
LINE
  5
2496C
  8
0
  6
CONTINUOUS
 62
     3
 10
24.70710678118229
 20
30.7445442376330114
 30
-0.0000000000000068
 11
24.7071067811823184
 21
5.0000000000019469
 31
-0.0000000000000011
210
0.0
220
1.0
230
-0.0000000000000002
  0
LINE
  5
2496D
  8
0
  6
CONTINUOUS
 62
     3
 10
24.70710678118229
 20
30.7445442376330185
 30
-0.0000000000000068
 11
24.70710678118229
 21
33.7445442376330291
 31
-0.0000000000000075
210
0.0
220
1.0
230
-0.0000000000000002
  0
LINE
  5
2496E
  8
0
  6
CONTINUOUS
 62
     3
 10
90.7071067811826026
 20
30.7445442376330504
 30
-0.0000000000000068
 11
90.7071067811826026
 21
33.7445442376330575
 31
-0.0000000000000075
210
0.0
220
1.0
230
-0.0000000000000002
  0
LINE
  5
2496F
  8
0
  6
CONTINUOUS
 62
     3
 10
90.7071067811826026
 20
30.7445442376330398
 30
-0.0000000000000068
 11
90.7071067811826026
 21
5.0000000000019762
 31
-0.0000000000000011
210
0.0
220
1.0
230
-0.0000000000000002
  0
LINE
  5
24970
  8
0
  6
CONTINUOUS
 62
     3
 10
90.7071067811826026
 20
5.0000000000019824
 30
-0.0000000000000011
 11
90.7071067811826026
 21
1.5000000000020179
 31
-0.0000000000000003
210
0.0
220
1.0
230
-0.0000000000000002
  0
LINE
  5
24971
  8
0
  6
CONTINUOUS
 62
     3
 10
-7.2928932188180724
 20
35.0020161304120094
 30
-0.0000000000000078
 11
-7.2928932188182714
 21
13.7127406874687807
 31
-0.000000000000003
210
0.0
220
1.0
230
-0.0000000000000002
  0
LINE
  5
24972
  8
0
  6
CONTINUOUS
 62
     3
 10
-7.2928932188182714
 20
13.7127406874687807
 30
-0.000000000000003
 11
-8.7928932188182714
 21
13.7127406874687896
 31
-0.000000000000003
210
0.0
220
1.0
230
-0.0000000000000002
  0
LINE
  5
24973
  8
0
  6
CONTINUOUS
 62
     3
 10
-8.7928932188182714
 20
13.7127406874687896
 30
-0.000000000000003
 11
-8.7928932188180724
 21
35.0020161304120165
 31
-0.0000000000000078
210
0.0
220
1.0
230
-0.0000000000000002
  0
LINE
  5
24974
  8
0
  6
CONTINUOUS
 62
     3
 10
-5.7928932188186186
 20
13.07276947219205
 30
-0.0000000000000029
 11
-5.7928932188186186
 21
12.43680173301221
 31
-0.0000000000000028
210
0.0
220
1.0
230
-0.0000000000000002
  0
LINE
  5
24975
  8
0
  6
CONTINUOUS
 62
     3
 10
-8.7928932188180422
 20
35.0020161304120094
 30
-0.0000000000000078
 11
-7.2928932188180431
 21
35.0020161304120023
 31
-0.0000000000000078
210
0.0
220
1.0
230
-0.0000000000000002
  0
LINE
  5
24976
  8
0
  6
CONTINUOUS
 62
     3
 10
-7.1514718625806699
 20
33.820000000001933
 30
-0.0000000000000075
 11
-7.1514718625808547
 21
13.0727694721920695
 31
-0.0000000000000029
210
0.0
220
1.0
230
-0.0000000000000002
  0
LINE
  5
24977
  8
0
  6
CONTINUOUS
 62
     3
 10
-7.1514718625807561
 20
35.0020161304120094
 30
-0.0000000000000078
 11
-7.1514718625807561
 21
33.820000000001933
 31
-0.0000000000000075
210
0.0
220
1.0
230
-0.0000000000000002
  0
LINE
  5
24978
  8
0
  6
CONTINUOUS
 62
     3
 10
-5.7928932188186186
 20
13.07276947219205
 30
-0.0000000000000029
 11
-7.1514718625809328
 21
13.07276947219205
 31
-0.0000000000000029
210
0.0
220
1.0
230
-0.0000000000000002
  0
LINE
  5
24979
  8
0
  6
CONTINUOUS
 62
     3
 10
-7.1514718625808342
 20
15.4368017330122207
 30
-0.0000000000000034
 11
-7.2928932188182776
 21
15.4368017330122296
 31
-0.0000000000000034
210
0.0
220
1.0
230
-0.0000000000000002
  0
LINE
  5
2497A
  8
0
  6
CONTINUOUS
 62
     3
 10
-7.1514718625807632
 20
35.0020161304120023
 30
-0.0000000000000078
 11
-7.2928932188181648
 21
35.0020161304120023
 31
-0.0000000000000078
210
0.0
220
1.0
230
-0.0000000000000002
  0
ARC
  5
2497B
  8
0
  6
CONTINUOUS
 62
     3
 10
-12.94759143827042
 20
40.0020161304120094
 30
0.0
 40
4.9999999999999938
210
0.0
220
-0.0000000000000002
230
-1.0
 50
137.1450796366885072
 51
270.0
  0
LINE
  5
2497C
  8
0
  6
CONTINUOUS
 62
     3
 10
16.6129827136033086
 20
43.4027376419024407
 30
-0.0000000000000096
 11
-8.7928932188177384
 21
70.7858902082743242
 31
-0.0000000000000157
210
0.0
220
1.0
230
-0.0000000000000002
  0
LINE
  5
2497D
  8
0
  6
CONTINUOUS
 62
     3
 10
-6.7928932188175892
 20
74.2858902082743526
 30
-0.0000000000000165
 11
-8.7928932188175892
 21
74.2858902082743526
 31
-0.0000000000000165
210
0.0
220
1.0
230
-0.0000000000000002
  0
LINE
  5
2497E
  8
0
  6
CONTINUOUS
 62
     3
 10
-8.7928932188175892
 20
72.7858902082743384
 30
-0.0000000000000162
 11
-8.7928932188175892
 21
74.2858902082743384
 31
-0.0000000000000165
210
0.0
220
1.0
230
-0.0000000000000002
  0
LINE
  5
2497F
  8
0
  6
CONTINUOUS
 62
     3
 10
-8.7928932188175963
 20
72.7858902082743526
 30
-0.0000000000000162
 11
-6.7928932188175892
 21
72.7858902082743526
 31
-0.0000000000000162
210
0.0
220
1.0
230
-0.0000000000000002
  0
LINE
  5
24980
  8
0
  6
CONTINUOUS
 62
     3
 10
-8.7928932188177313
 20
71.2858902082743242
 30
-0.0000000000000158
 11
-8.7928932188177455
 21
70.7858902082743384
 31
-0.0000000000000157
210
0.0
220
1.0
230
-0.0000000000000002
  0
LINE
  5
24981
  8
0
  6
CONTINUOUS
 62
     3
 10
-8.7928932188177011
 20
72.7858902082743384
 30
-0.0000000000000162
 11
-8.7928932188177011
 21
71.2858902082743242
 31
-0.0000000000000158
210
0.0
220
1.0
230
-0.0000000000000002
  0
LINE
  5
24982
  8
0
  6
CONTINUOUS
 62
     3
 10
24.4071067811823887
 20
35.0020161304120307
 30
-0.0000000000000078
 11
-7.1514718625807339
 21
35.0020161304120094
 31
-0.0000000000000078
210
0.0
220
1.0
230
-0.0000000000000002
  0
LINE
  5
24983
  8
0
  6
CONTINUOUS
 62
     3
 10
24.4071067811823887
 20
33.8200000000019472
 30
-0.0000000000000075
 11
-7.1514718625807339
 21
33.820000000001933
 31
-0.0000000000000075
210
0.0
220
1.0
230
-0.0000000000000002
  0
LINE
  5
24984
  8
0
  6
CONTINUOUS
 62
     3
 10
24.407106781182339
 20
33.8200000000019472
 30
-0.0000000000000075
 11
24.407106781182339
 21
35.0020161304120521
 31
-0.0000000000000078
210
0.0
220
1.0
230
-0.0000000000000002
  0
LINE
  5
24985
  8
0
  6
CONTINUOUS
 62
     3
 10
24.4071067811822893
 20
31.4648142615488311
 30
-0.000000000000007
 11
24.70710678118229
 21
31.4648142615488311
 31
-0.000000000000007
210
0.0
220
1.0
230
-0.0000000000000002
  0
LINE
  5
24986
  8
0
  6
CONTINUOUS
 62
     3
 10
24.7071067811824108
 20
32.6468303919589218
 30
-0.0000000000000072
 11
24.4071067811824101
 21
32.6468303919589218
 31
-0.0000000000000072
210
0.0
220
1.0
230
-0.0000000000000002
  0
LINE
  5
24987
  8
0
  6
CONTINUOUS
 62
     3
 10
24.407106781182339
 20
31.4648142615488311
 30
-0.000000000000007
 11
24.407106781182339
 21
33.8200000000019472
 31
-0.0000000000000075
210
0.0
220
1.0
230
-0.0000000000000002
  0
LINE
  5
24988
  8
0
  6
CONTINUOUS
 62
     3
 10
30.4571067811824001
 20
8.2445442376330202
 30
-0.0000000000000018
 11
30.4571067811824001
 21
5.0000000000019531
 31
-0.0000000000000011
210
0.0
220
1.0
230
-0.0000000000000002
  0
LINE
  5
24989
  8
0
  6
CONTINUOUS
 62
     3
 10
30.4571067811824001
 20
5.0000000000019531
 30
-0.0000000000000011
 11
30.4571067811824001
 21
2.1277186767329441
 31
-0.0000000000000005
210
0.0
220
1.0
230
-0.0000000000000002
  0
LINE
  5
2498A
  8
0
  6
CONTINUOUS
 62
     3
 10
51.9571067811824108
 20
2.1277186767329539
 30
-0.0000000000000005
 11
51.9571067811824108
 21
5.0000000000019726
 31
-0.0000000000000011
210
0.0
220
1.0
230
-0.0000000000000002
  0
LINE
  5
2498B
  8
0
  6
CONTINUOUS
 62
     3
 10
51.9571067811824179
 20
5.0000000000019824
 30
-0.0000000000000011
 11
51.9571067811824179
 21
8.2445442376330416
 31
-0.0000000000000018
210
0.0
220
1.0
230
-0.0000000000000002
  0
LINE
  5
2498C
  8
0
  6
CONTINUOUS
 62
     3
 10
51.9571067811823966
 20
8.2445442376330274
 30
-0.0000000000000018
 11
30.4571067811824001
 21
8.244544237633006
 31
-0.0000000000000018
210
0.0
220
1.0
230
-0.0000000000000002
  0
LINE
  5
2498D
  8
0
  6
CONTINUOUS
 62
     3
 10
30.4571067811824214
 20
2.127718676732937
 30
-0.0000000000000005
 11
51.9571067811824108
 21
2.1277186767329579
 31
-0.0000000000000005
210
0.0
220
1.0
230
-0.0000000000000002
  0
LINE
  5
2498E
  8
0
  6
CONTINUOUS
 62
     3
 10
51.9571067811825316
 20
13.2445442376330398
 30
-0.0000000000000029
 11
51.9571067811825316
 21
23.2445442376330398
 31
-0.0000000000000052
210
0.0
220
1.0
230
-0.0000000000000002
  0
LINE
  5
2498F
  8
0
  6
CONTINUOUS
 62
     3
 10
51.9571067811824108
 20
23.2445442376330398
 30
-0.0000000000000052
 11
30.4571067811824001
 21
23.2445442376330185
 31
-0.0000000000000052
210
0.0
220
1.0
230
-0.0000000000000002
  0
LINE
  5
24990
  8
0
  6
CONTINUOUS
 62
     3
 10
30.4571067811825102
 20
23.2445442376330185
 30
-0.0000000000000052
 11
30.4571067811825209
 21
13.2445442376330096
 31
-0.0000000000000029
210
0.0
220
1.0
230
-0.0000000000000002
  0
LINE
  5
24991
  8
0
  6
CONTINUOUS
 62
     3
 10
30.4571067811824214
 20
13.2445442376330202
 30
-0.0000000000000029
 11
51.9571067811824108
 21
13.2445442376330398
 31
-0.0000000000000029
210
0.0
220
1.0
230
-0.0000000000000002
  0
LINE
  5
24992
  8
0
  6
CONTINUOUS
 62
     3
 10
122.7071067811830005
 20
35.0020161304120805
 30
-0.0000000000000078
 11
122.7071067811831995
 21
13.71274068746885
 31
-0.000000000000003
210
0.0
220
1.0
230
-0.0000000000000002
  0
LINE
  5
24993
  8
0
  6
CONTINUOUS
 62
     3
 10
122.7071067811831995
 20
13.71274068746885
 30
-0.000000000000003
 11
124.2071067811831995
 21
13.7127406874688607
 31
-0.000000000000003
210
0.0
220
1.0
230
-0.0000000000000002
  0
LINE
  5
24994
  8
0
  6
CONTINUOUS
 62
     3
 10
124.2071067811831995
 20
13.7127406874688607
 30
-0.000000000000003
 11
124.2071067811830005
 21
35.0020161304120876
 31
-0.0000000000000078
210
0.0
220
1.0
230
-0.0000000000000002
  0
LINE
  5
24995
  8
0
  6
CONTINUOUS
 62
     3
 10
121.2071067811835974
 20
13.0727694721921193
 30
-0.0000000000000029
 11
121.2071067811835974
 21
12.4368017330122793
 31
-0.0000000000000028
210
0.0
220
1.0
230
-0.0000000000000002
  0
LINE
  5
24996
  8
0
  6
CONTINUOUS
 62
     3
 10
124.2071067811830005
 20
35.0020161304120876
 30
-0.0000000000000078
 11
122.7071067811830005
 21
35.0020161304120805
 31
-0.0000000000000078
210
0.0
220
1.0
230
-0.0000000000000002
  0
LINE
  5
24997
  8
0
  6
CONTINUOUS
 62
     3
 10
122.5656854249456984
 20
35.0020161304120805
 30
-0.0000000000000078
 11
122.5656854249456984
 21
33.8200000000019969
 31
-0.0000000000000075
210
0.0
220
1.0
230
-0.0000000000000002
  0
LINE
  5
24998
  8
0
  6
CONTINUOUS
 62
     3
 10
122.5656854249456984
 20
33.8200000000019969
 30
-0.0000000000000075
 11
122.5656854249458974
 21
13.0727694721921406
 31
-0.0000000000000029
210
0.0
220
1.0
230
-0.0000000000000002
  0
LINE
  5
24999
  8
0
  6
CONTINUOUS
 62
     3
 10
121.2071067811835974
 20
13.0727694721921299
 30
-0.0000000000000029
 11
122.5656854249458974
 21
13.0727694721921299
 31
-0.0000000000000029
210
0.0
220
1.0
230
-0.0000000000000002
  0
LINE
  5
2499A
  8
0
  6
CONTINUOUS
 62
     3
 10
122.5656854249458974
 20
15.4368017330123006
 30
-0.0000000000000034
 11
122.7071067811831995
 21
15.4368017330123006
 31
-0.0000000000000034
210
0.0
220
1.0
230
-0.0000000000000002
  0
LINE
  5
2499B
  8
0
  6
CONTINUOUS
 62
     3
 10
122.5656854249456984
 20
35.0020161304120805
 30
-0.0000000000000078
 11
122.7071067811830005
 21
35.0020161304120805
 31
-0.0000000000000078
210
0.0
220
1.0
230
-0.0000000000000002
  0
ARC
  5
2499C
  8
0
  6
CONTINUOUS
 62
     3
 10
102.4666221240943997
 20
40.0020161304120521
 30
-0.0000000000000089
 40
4.9999999999999982
 50
137.1450796366885072
 51
270.0
  0
LINE
  5
2499D
  8
0
  6
CONTINUOUS
 62
     3
 10
98.8012308487616053
 20
43.4027376419024904
 30
-0.0000000000000096
 11
124.2071067811826026
 21
70.7858902082744095
 31
-0.0000000000000157
210
0.0
220
1.0
230
-0.0000000000000002
  0
LINE
  5
2499E
  8
0
  6
CONTINUOUS
 62
     3
 10
122.2071067811826026
 20
74.2858902082744237
 30
-0.0000000000000165
 11
124.2071067811826026
 21
74.2858902082744237
 31
-0.0000000000000165
210
0.0
220
1.0
230
-0.0000000000000002
  0
LINE
  5
2499F
  8
0
  6
CONTINUOUS
 62
     3
 10
124.2071067811826026
 20
72.7858902082744237
 30
-0.0000000000000162
 11
122.2071067811826026
 21
72.7858902082744237
 31
-0.0000000000000162
210
0.0
220
1.0
230
-0.0000000000000002
  0
LINE
  5
249A0
  8
0
  6
CONTINUOUS
 62
     3
 10
124.2071067811826026
 20
72.7858902082744237
 30
-0.0000000000000162
 11
124.2071067811826026
 21
74.2858902082744237
 31
-0.0000000000000165
210
0.0
220
1.0
230
-0.0000000000000002
  0
LINE
  5
249A1
  8
0
  6
CONTINUOUS
 62
     3
 10
124.2071067811826026
 20
72.7858902082744237
 30
-0.0000000000000162
 11
124.2071067811826026
 21
71.2858902082744237
 31
-0.0000000000000158
210
0.0
220
1.0
230
-0.0000000000000002
  0
LINE
  5
249A2
  8
0
  6
CONTINUOUS
 62
     3
 10
124.2071067811826026
 20
71.2858902082744237
 30
-0.0000000000000158
 11
124.2071067811826026
 21
70.7858902082744237
 31
-0.0000000000000157
210
0.0
220
1.0
230
-0.0000000000000002
  0
LINE
  5
249A3
  8
0
  6
CONTINUOUS
 62
     3
 10
91.0071067811825856
 20
35.0020161304120734
 30
-0.0000000000000078
 11
122.5656854249456984
 21
35.0020161304120805
 31
-0.0000000000000078
210
0.0
220
1.0
230
-0.0000000000000002
  0
LINE
  5
249A4
  8
0
  6
CONTINUOUS
 62
     3
 10
91.0071067811825856
 20
33.8200000000019898
 30
-0.0000000000000075
 11
91.0071067811825856
 21
35.0020161304120876
 31
-0.0000000000000078
210
0.0
220
1.0
230
-0.0000000000000002
  0
LINE
  5
249A5
  8
0
  6
CONTINUOUS
 62
     3
 10
91.0071067811825856
 20
33.8200000000019969
 30
-0.0000000000000075
 11
122.5656854249456984
 21
33.8200000000020182
 31
-0.0000000000000075
210
0.0
220
1.0
230
-0.0000000000000002
  0
LINE
  5
249A6
  8
0
  6
CONTINUOUS
 62
     3
 10
90.7071067811826026
 20
32.6468303919589573
 30
-0.0000000000000072
 11
91.0071067811825856
 21
32.6468303919589573
 31
-0.0000000000000072
210
0.0
220
1.0
230
-0.0000000000000002
  0
LINE
  5
249A7
  8
0
  6
CONTINUOUS
 62
     3
 10
91.007106781182614
 20
31.4648142615488808
 30
-0.000000000000007
 11
90.7071067811826168
 21
31.4648142615488808
 31
-0.000000000000007
210
0.0
220
1.0
230
-0.0000000000000002
  0
LINE
  5
249A8
  8
0
  6
CONTINUOUS
 62
     3
 10
91.0071067811825856
 20
31.4648142615488702
 30
-0.000000000000007
 11
91.0071067811825856
 21
33.8200000000019898
 31
-0.0000000000000075
210
0.0
220
1.0
230
-0.0000000000000002
  0
ARC
  5
249A9
  8
0
  6
CONTINUOUS
 62
     3
 10
57.7071067811822971
 20
39.5097694721920973
 30
-0.0000000000000088
 40
25.5
 50
346.9331785672569026
 51
193.0668214327430121
  0
LINE
  5
249AA
  8
0
  6
CONTINUOUS
 62
     3
 10
-6.7928932188175599
 20
72.7858902082743384
 30
-0.0000000000000162
 11
122.2071067811824037
 21
72.7858902082744947
 31
-0.0000000000000162
210
0.0
220
1.0
230
-0.0000000000000002
  0
LINE
  5
249AB
  8
0
  6
CONTINUOUS
 62
     3
 10
122.2071067811826026
 20
74.2858902082744237
 30
-0.0000000000000165
 11
-6.7928932188174249
 21
74.2858902082744237
 31
-0.0000000000000165
210
0.0
220
1.0
230
-0.0000000000000002
  0
LINE
  5
249AC
  8
0
  6
CONTINUOUS
 62
     3
 10
84.9571067811826026
 20
5.0000000000019824
 30
-0.0000000000000011
 11
84.9571067811826026
 21
2.1277186767329721
 31
-0.0000000000000005
210
0.0
220
1.0
230
-0.0000000000000002
  0
LINE
  5
249AD
  8
0
  6
CONTINUOUS
 62
     3
 10
84.9571067811826026
 20
8.2445442376330487
 30
-0.0000000000000018
 11
84.9571067811826026
 21
5.0000000000019806
 31
-0.0000000000000011
210
0.0
220
1.0
230
-0.0000000000000002
  0
LINE
  5
249AE
  8
0
  6
CONTINUOUS
 62
     3
 10
63.4571067811826097
 20
5.0000000000019824
 30
-0.0000000000000011
 11
63.4571067811826097
 21
8.2445442376330416
 31
-0.0000000000000018
210
0.0
220
1.0
230
-0.0000000000000002
  0
LINE
  5
249AF
  8
0
  6
CONTINUOUS
 62
     3
 10
63.4571067811826097
 20
2.127718676732957
 30
-0.0000000000000005
 11
63.4571067811826097
 21
5.0000000000019771
 31
-0.0000000000000011
210
0.0
220
1.0
230
-0.0000000000000002
  0
LINE
  5
249B0
  8
0
  6
CONTINUOUS
 62
     3
 10
63.4571067811826097
 20
8.2445442376330291
 30
-0.0000000000000018
 11
84.9571067811826026
 21
8.2445442376330291
 31
-0.0000000000000018
210
0.0
220
1.0
230
-0.0000000000000002
  0
LINE
  5
249B1
  8
0
  6
CONTINUOUS
 62
     3
 10
84.9571067811826026
 20
2.1277186767329672
 30
-0.0000000000000005
 11
63.4571067811826026
 21
2.127718676732961
 31
-0.0000000000000005
210
0.0
220
1.0
230
-0.0000000000000002
  0
LINE
  5
249B2
  8
0
  6
CONTINUOUS
 62
     3
 10
63.4571067811825884
 20
13.2445442376330398
 30
-0.0000000000000029
 11
63.4571067811825884
 21
23.2445442376330398
 31
-0.0000000000000052
210
0.0
220
1.0
230
-0.0000000000000002
  0
LINE
  5
249B3
  8
0
  6
CONTINUOUS
 62
     3
 10
63.4571067811826026
 20
23.2445442376330398
 30
-0.0000000000000052
 11
84.9571067811826026
 21
23.2445442376330504
 31
-0.0000000000000052
210
0.0
220
1.0
230
-0.0000000000000002
  0
LINE
  5
249B4
  8
0
  6
CONTINUOUS
 62
     3
 10
84.9571067811826026
 20
23.2445442376330398
 30
-0.0000000000000052
 11
84.9571067811826026
 21
13.2445442376330398
 31
-0.0000000000000029
210
0.0
220
1.0
230
-0.0000000000000002
  0
LINE
  5
249B5
  8
0
  6
CONTINUOUS
 62
     3
 10
84.9571067811826026
 20
13.2445442376330398
 30
-0.0000000000000029
 11
63.4571067811826026
 21
13.2445442376330398
 31
-0.0000000000000029
210
0.0
220
1.0
230
-0.0000000000000002
  0
LINE
  5
249B6
  8
0
  6
CONTINUOUS
 62
     3
 10
121.2071067811835974
 20
12.4368017330122704
 30
-0.0000000000000028
 11
90.7071067811826168
 21
12.4368017330122704
 31
-0.0000000000000028
210
0.0
220
1.0
230
-0.0000000000000002
  0
LINE
  5
249B7
  8
0
  6
CONTINUOUS
 62
     3
 10
24.7071067811823717
 20
12.4368017330122793
 30
-0.0000000000000028
 11
-5.7928932188186124
 21
12.4368017330122793
 31
-0.0000000000000028
210
0.0
220
1.0
230
-0.0000000000000002
  0
LINE
  5
249B8
  8
0
  6
CONTINUOUS
 62
     3
 10
24.70710678118229
 20
33.7445442376330291
 30
-0.0000000000000075
 11
90.7071067811826026
 21
33.744544237633022
 31
-0.0000000000000075
210
0.0
220
1.0
230
-0.0000000000000002
  0
ARC
  5
249B9
  8
0
  6
VERDECKT
 62
     1
 10
-57.7071067811821905
 20
39.5097694721921471
 30
0.0
 40
25.0663619842786289
210
0.0
220
-0.0000000000000002
230
-1.0
 50
193.2969824441603066
 51
346.7030175558396081
  0
CIRCLE
  5
249BA
  8
0
  6
VERDECKT
 62
     1
 10
-57.7071067811821834
 20
39.5097694721921471
 30
0.0
 40
26.0625566823703814
210
0.0
220
-0.0000000000000002
230
-1.0
  0
CIRCLE
  5
249BB
  8
0
  6
VERDECKT
 62
     1
 10
57.7071067811821834
 20
39.5097694721921471
 30
-0.0000000000000088
 40
26.5
  0
LINE
  5
249BC
  8
0
  6
VERDECKT
 62
     1
 10
24.707106781182091
 20
1.500000000003608
 30
-0.0000000000000003
 11
24.707106781182091
 21
0.0000000000021516
 31
0.0
210
0.0
220
1.0
230
-0.0000000000000002
  0
LINE
  5
249BD
  8
0
  6
VERDECKT
 62
     1
 10
90.7071067811829437
 20
0.0000000000008766
 30
0.0
 11
90.7071067811829863
 21
1.5000000000008129
 31
-0.0000000000000003
210
0.0
220
1.0
230
-0.0000000000000002
  0
LINE
  5
249BE
  8
0
  6
VERDECKT
 62
     1
 10
-8.7928932188182714
 20
15.43680173301221
 30
-0.0000000000000034
 11
-7.2928932188182714
 21
15.4368017330121905
 31
-0.0000000000000034
210
0.0
220
1.0
230
-0.0000000000000002
  0
LINE
  5
249BF
  8
0
  6
VERDECKT
 62
     1
 10
-5.7928932188186186
 20
14.2547856026021407
 30
-0.0000000000000032
 11
-5.7928932188186186
 21
15.43680173301221
 31
-0.0000000000000034
210
0.0
220
1.0
230
-0.0000000000000002
  0
LINE
  5
249C0
  8
0
  6
VERDECKT
 62
     1
 10
-5.7928932188186186
 20
14.2547856026021496
 30
-0.0000000000000032
 11
-5.7928932188186186
 21
13.0727694721920695
 31
-0.0000000000000029
210
0.0
220
1.0
230
-0.0000000000000002
  0
LINE
  5
249C1
  8
0
  6
VERDECKT
 62
     1
 10
-7.1514718625809257
 20
14.2547856026021407
 30
-0.0000000000000032
 11
-5.7928932188186124
 21
14.2547856026021407
 31
-0.0000000000000032
210
0.0
220
1.0
230
-0.0000000000000002
  0
LINE
  5
249C2
  8
0
  6
VERDECKT
 62
     1
 10
-5.7928932188186621
 20
15.43680173301221
 30
-0.0000000000000034
 11
-7.1514718625808378
 21
15.4368017330122207
 31
-0.0000000000000034
210
0.0
220
1.0
230
-0.0000000000000002
  0
LINE
  5
249C3
  8
0
  6
VERDECKT
 62
     1
 10
30.4571067811824001
 20
1.500000000002041
 30
-0.0000000000000003
 11
30.4571067811824001
 21
2.1277186767329401
 31
-0.0000000000000005
210
0.0
220
1.0
230
-0.0000000000000002
  0
LINE
  5
249C4
  8
0
  6
VERDECKT
 62
     1
 10
51.9571067811824179
 20
2.1277186767329499
 30
-0.0000000000000005
 11
51.9571067811824179
 21
1.5000000000020659
 31
-0.0000000000000003
210
0.0
220
1.0
230
-0.0000000000000002
  0
LINE
  5
249C5
  8
0
  6
VERDECKT
 62
     1
 10
51.9571067811824108
 20
0.4174243050461297
 30
-0.0000000000000001
 11
30.4571067811824214
 21
0.4174243050461093
 31
-0.0000000000000001
210
0.0
220
1.0
230
-0.0000000000000002
  0
LINE
  5
249C6
  8
0
  6
VERDECKT
 62
     1
 10
51.9571067811824108
 20
1.5000000000020659
 30
-0.0000000000000003
 11
51.9571067811824108
 21
0.0000000000020628
 31
0.0
210
0.0
220
1.0
230
-0.0000000000000002
  0
LINE
  5
249C7
  8
0
  6
VERDECKT
 62
     1
 10
30.4571067811824001
 20
1.500000000002041
 30
-0.0000000000000003
 11
30.4571067811824001
 21
0.0000000000020468
 31
0.0
210
0.0
220
1.0
230
-0.0000000000000002
  0
LINE
  5
249C8
  8
0
  6
VERDECKT
 62
     1
 10
124.2071067811831995
 20
15.43680173301229
 30
-0.0000000000000034
 11
122.7071067811831995
 21
15.4368017330122704
 31
-0.0000000000000034
210
0.0
220
1.0
230
-0.0000000000000002
  0
LINE
  5
249C9
  8
0
  6
VERDECKT
 62
     1
 10
121.2071067811835974
 20
14.2547856026022099
 30
-0.0000000000000032
 11
121.2071067811835974
 21
15.4368017330122793
 31
-0.0000000000000034
210
0.0
220
1.0
230
-0.0000000000000002
  0
LINE
  5
249CA
  8
0
  6
VERDECKT
 62
     1
 10
121.2071067811835974
 20
14.2547856026022206
 30
-0.0000000000000032
 11
121.2071067811835974
 21
13.0727694721921406
 31
-0.0000000000000029
210
0.0
220
1.0
230
-0.0000000000000002
  0
LINE
  5
249CB
  8
0
  6
VERDECKT
 62
     1
 10
122.5656854249458974
 20
14.2547856026022099
 30
-0.0000000000000032
 11
121.2071067811835974
 21
14.2547856026022099
 31
-0.0000000000000032
210
0.0
220
1.0
230
-0.0000000000000002
  0
LINE
  5
249CC
  8
0
  6
VERDECKT
 62
     1
 10
121.2071067811835974
 20
15.4368017330122793
 30
-0.0000000000000034
 11
122.5656854249458974
 21
15.4368017330123006
 31
-0.0000000000000034
210
0.0
220
1.0
230
-0.0000000000000002
  0
ARC
  5
249CD
  8
0
  6
VERDECKT
 62
     1
 10
57.7071067811822687
 20
39.5097694721921329
 30
-0.0000000000000088
 40
25.5000000000000284
 50
289.258873280089972
 51
346.9331785672569026
  0
ARC
  5
249CE
  8
0
  6
VERDECKT
 62
     1
 10
57.7071067811822971
 20
39.5097694721921116
 30
-0.0000000000000088
 40
25.5
 50
193.0668214327428984
 51
250.7411267199099996
  0
LINE
  5
249CF
  8
0
  6
VERDECKT
 62
     1
 10
84.9571067811826026
 20
1.5000000000020699
 30
-0.0000000000000003
 11
84.9571067811826026
 21
2.1277186767329681
 31
-0.0000000000000005
210
0.0
220
1.0
230
-0.0000000000000002
  0
LINE
  5
249D0
  8
0
  6
VERDECKT
 62
     1
 10
63.4571067811826097
 20
2.1277186767329539
 30
-0.0000000000000005
 11
63.4571067811826097
 21
1.500000000002069
 31
-0.0000000000000003
210
0.0
220
1.0
230
-0.0000000000000002
  0
LINE
  5
249D1
  8
0
  6
VERDECKT
 62
     1
 10
63.4571067811826097
 20
0.417424305046133
 30
-0.0000000000000001
 11
84.9571067811826026
 21
0.4174243050461385
 31
-0.0000000000000001
210
0.0
220
1.0
230
-0.0000000000000002
  0
LINE
  5
249D2
  8
0
  6
VERDECKT
 62
     1
 10
63.4571067811826097
 20
1.5000000000020699
 30
-0.0000000000000003
 11
63.4571067811826097
 21
0.0000000000020663
 31
0.0
210
0.0
220
1.0
230
-0.0000000000000002
  0
LINE
  5
249D3
  8
0
  6
VERDECKT
 62
     1
 10
84.9571067811826168
 20
1.5000000000020699
 30
-0.0000000000000003
 11
84.9571067811826168
 21
0.0000000000020752
 31
0.0
210
0.0
220
1.0
230
-0.0000000000000002
  0
POLYLINE
  8
0
  5
24E8D
  62
1
  66
     1
 10
0.00000
 20
0.00000
 30
0.00000
  70
     8
  0
VERTEX
  8
0
  5
24E8E
 10
49.2963
 20
15.4368
 30
-3.40000e-15
  70
    32
  0
VERTEX
  8
0
  5
24E8F
 10
49.3126
 20
15.4311
 30
-3.39968e-15
  70
    32
  0
VERTEX
  8
0
  5
24E90
 10
49.3289
 20
15.4254
 30
-3.39845e-15
  70
    32
  0
VERTEX
  8
0
  5
24E91
 10
49.3452
 20
15.4198
 30
-3.39720e-15
  70
    32
  0
VERTEX
  8
0
  5
24E92
 10
49.3615
 20
15.4141
 30
-3.39595e-15
  70
    32
  0
VERTEX
  8
0
  5
24E93
 10
49.3778
 20
15.4085
 30
-3.39469e-15
  70
    32
  0
VERTEX
  8
0
  5
24E94
 10
49.3941
 20
15.4028
 30
-3.39344e-15
  70
    32
  0
VERTEX
  8
0
  5
24E95
 10
49.4105
 20
15.3972
 30
-3.39218e-15
  70
    32
  0
VERTEX
  8
0
  5
24E96
 10
49.4268
 20
15.3916
 30
-3.39093e-15
  70
    32
  0
VERTEX
  8
0
  5
24E97
 10
49.4432
 20
15.3860
 30
-3.38968e-15
  70
    32
  0
VERTEX
  8
0
  5
24E98
 10
49.4596
 20
15.3804
 30
-3.38842e-15
  70
    32
  0
VERTEX
  8
0
  5
24E99
 10
49.4760
 20
15.3748
 30
-3.38717e-15
  70
    32
  0
VERTEX
  8
0
  5
24E9A
 10
49.4924
 20
15.3692
 30
-3.38592e-15
  70
    32
  0
VERTEX
  8
0
  5
24E9B
 10
49.5089
 20
15.3636
 30
-3.38467e-15
  70
    32
  0
VERTEX
  8
0
  5
24E9C
 10
49.5253
 20
15.3580
 30
-3.38342e-15
  70
    32
  0
VERTEX
  8
0
  5
24E9D
 10
49.5418
 20
15.3525
 30
-3.38217e-15
  70
    32
  0
VERTEX
  8
0
  5
24E9E
 10
49.5582
 20
15.3469
 30
-3.38092e-15
  70
    32
  0
VERTEX
  8
0
  5
24E9F
 10
49.5747
 20
15.3414
 30
-3.37967e-15
  70
    32
  0
VERTEX
  8
0
  5
24EA0
 10
49.5912
 20
15.3358
 30
-3.37842e-15
  70
    32
  0
VERTEX
  8
0
  5
24EA1
 10
49.6077
 20
15.3303
 30
-3.37717e-15
  70
    32
  0
VERTEX
  8
0
  5
24EA2
 10
49.6243
 20
15.3248
 30
-3.37592e-15
  70
    32
  0
VERTEX
  8
0
  5
24EA3
 10
49.6408
 20
15.3193
 30
-3.37467e-15
  70
    32
  0
VERTEX
  8
0
  5
24EA4
 10
49.6573
 20
15.3138
 30
-3.37343e-15
  70
    32
  0
VERTEX
  8
0
  5
24EA5
 10
49.6739
 20
15.3083
 30
-3.37218e-15
  70
    32
  0
VERTEX
  8
0
  5
24EA6
 10
49.6905
 20
15.3028
 30
-3.37094e-15
  70
    32
  0
VERTEX
  8
0
  5
24EA7
 10
49.7071
 20
15.2973
 30
-3.36970e-15
  70
    32
  0
VERTEX
  8
0
  5
24EA8
 10
49.7237
 20
15.2919
 30
-3.36845e-15
  70
    32
  0
VERTEX
  8
0
  5
24EA9
 10
49.7403
 20
15.2864
 30
-3.36721e-15
  70
    32
  0
VERTEX
  8
0
  5
24EAA
 10
49.7569
 20
15.2810
 30
-3.36597e-15
  70
    32
  0
VERTEX
  8
0
  5
24EAB
 10
49.7735
 20
15.2755
 30
-3.36473e-15
  70
    32
  0
VERTEX
  8
0
  5
24EAC
 10
49.7902
 20
15.2701
 30
-3.36350e-15
  70
    32
  0
VERTEX
  8
0
  5
24EAD
 10
49.8068
 20
15.2647
 30
-3.36226e-15
  70
    32
  0
VERTEX
  8
0
  5
24EAE
 10
49.8235
 20
15.2593
 30
-3.36103e-15
  70
    32
  0
VERTEX
  8
0
  5
24EAF
 10
49.8402
 20
15.2539
 30
-3.35979e-15
  70
    32
  0
VERTEX
  8
0
  5
24EB0
 10
49.8569
 20
15.2485
 30
-3.35856e-15
  70
    32
  0
VERTEX
  8
0
  5
24EB1
 10
49.8736
 20
15.2431
 30
-3.35733e-15
  70
    32
  0
VERTEX
  8
0
  5
24EB2
 10
49.8903
 20
15.2377
 30
-3.35610e-15
  70
    32
  0
VERTEX
  8
0
  5
24EB3
 10
49.9071
 20
15.2323
 30
-3.35487e-15
  70
    32
  0
VERTEX
  8
0
  5
24EB4
 10
49.9238
 20
15.2270
 30
-3.35364e-15
  70
    32
  0
VERTEX
  8
0
  5
24EB5
 10
49.9406
 20
15.2216
 30
-3.35242e-15
  70
    32
  0
VERTEX
  8
0
  5
24EB6
 10
49.9573
 20
15.2163
 30
-3.35120e-15
  70
    32
  0
VERTEX
  8
0
  5
24EB7
 10
49.9741
 20
15.2109
 30
-3.34997e-15
  70
    32
  0
VERTEX
  8
0
  5
24EB8
 10
49.9909
 20
15.2056
 30
-3.34876e-15
  70
    32
  0
VERTEX
  8
0
  5
24EB9
 10
50.0077
 20
15.2003
 30
-3.34754e-15
  70
    32
  0
VERTEX
  8
0
  5
24EBA
 10
50.0245
 20
15.1950
 30
-3.34632e-15
  70
    32
  0
VERTEX
  8
0
  5
24EBB
 10
50.0413
 20
15.1897
 30
-3.34511e-15
  70
    32
  0
VERTEX
  8
0
  5
24EBC
 10
50.0582
 20
15.1844
 30
-3.34389e-15
  70
    32
  0
VERTEX
  8
0
  5
24EBD
 10
50.0750
 20
15.1792
 30
-3.34268e-15
  70
    32
  0
VERTEX
  8
0
  5
24EBE
 10
50.0919
 20
15.1739
 30
-3.34148e-15
  70
    32
  0
VERTEX
  8
0
  5
24EBF
 10
50.1088
 20
15.1686
 30
-3.34027e-15
  70
    32
  0
VERTEX
  8
0
  5
24EC0
 10
50.1256
 20
15.1634
 30
-3.33906e-15
  70
    32
  0
VERTEX
  8
0
  5
24EC1
 10
50.1425
 20
15.1581
 30
-3.33786e-15
  70
    32
  0
VERTEX
  8
0
  5
24EC2
 10
50.1594
 20
15.1529
 30
-3.33666e-15
  70
    32
  0
VERTEX
  8
0
  5
24EC3
 10
50.1764
 20
15.1477
 30
-3.33546e-15
  70
    32
  0
VERTEX
  8
0
  5
24EC4
 10
50.1933
 20
15.1425
 30
-3.33427e-15
  70
    32
  0
VERTEX
  8
0
  5
24EC5
 10
50.2102
 20
15.1373
 30
-3.33308e-15
  70
    32
  0
VERTEX
  8
0
  5
24EC6
 10
50.2272
 20
15.1321
 30
-3.33188e-15
  70
    32
  0
VERTEX
  8
0
  5
24EC7
 10
50.2441
 20
15.1269
 30
-3.33070e-15
  70
    32
  0
VERTEX
  8
0
  5
24EC8
 10
50.2611
 20
15.1217
 30
-3.32951e-15
  70
    32
  0
VERTEX
  8
0
  5
24EC9
 10
50.2781
 20
15.1166
 30
-3.32833e-15
  70
    32
  0
VERTEX
  8
0
  5
24ECA
 10
50.2951
 20
15.1114
 30
-3.32715e-15
  70
    32
  0
VERTEX
  8
0
  5
24ECB
 10
50.3121
 20
15.1063
 30
-3.32597e-15
  70
    32
  0
VERTEX
  8
0
  5
24ECC
 10
50.3291
 20
15.1011
 30
-3.32479e-15
  70
    32
  0
VERTEX
  8
0
  5
24ECD
 10
50.3461
 20
15.0960
 30
-3.32362e-15
  70
    32
  0
VERTEX
  8
0
  5
24ECE
 10
50.3632
 20
15.0909
 30
-3.32245e-15
  70
    32
  0
VERTEX
  8
0
  5
24ECF
 10
50.3802
 20
15.0858
 30
-3.32128e-15
  70
    32
  0
VERTEX
  8
0
  5
24ED0
 10
50.3973
 20
15.0807
 30
-3.32012e-15
  70
    32
  0
VERTEX
  8
0
  5
24ED1
 10
50.4143
 20
15.0756
 30
-3.31895e-15
  70
    32
  0
VERTEX
  8
0
  5
24ED2
 10
50.4314
 20
15.0705
 30
-3.31779e-15
  70
    32
  0
VERTEX
  8
0
  5
24ED3
 10
50.4485
 20
15.0655
 30
-3.31664e-15
  70
    32
  0
VERTEX
  8
0
  5
24ED4
 10
50.4656
 20
15.0604
 30
-3.31549e-15
  70
    32
  0
VERTEX
  8
0
  5
24ED5
 10
50.4827
 20
15.0554
 30
-3.31433e-15
  70
    32
  0
VERTEX
  8
0
  5
24ED6
 10
50.4998
 20
15.0503
 30
-3.31319e-15
  70
    32
  0
VERTEX
  8
0
  5
24ED7
 10
50.5170
 20
15.0453
 30
-3.31204e-15
  70
    32
  0
VERTEX
  8
0
  5
24ED8
 10
50.5341
 20
15.0403
 30
-3.31090e-15
  70
    32
  0
VERTEX
  8
0
  5
24ED9
 10
50.5512
 20
15.0353
 30
-3.30977e-15
  70
    32
  0
VERTEX
  8
0
  5
24EDA
 10
50.5684
 20
15.0303
 30
-3.30863e-15
  70
    32
  0
VERTEX
  8
0
  5
24EDB
 10
50.5856
 20
15.0253
 30
-3.30750e-15
  70
    32
  0
VERTEX
  8
0
  5
24EDC
 10
50.6027
 20
15.0203
 30
-3.30637e-15
  70
    32
  0
VERTEX
  8
0
  5
24EDD
 10
50.6199
 20
15.0153
 30
-3.30525e-15
  70
    32
  0
VERTEX
  8
0
  5
24EDE
 10
50.6371
 20
15.0104
 30
-3.30413e-15
  70
    32
  0
VERTEX
  8
0
  5
24EDF
 10
50.6543
 20
15.0054
 30
-3.30301e-15
  70
    32
  0
VERTEX
  8
0
  5
24EE0
 10
50.6716
 20
15.0005
 30
-3.30190e-15
  70
    32
  0
VERTEX
  8
0
  5
24EE1
 10
50.6888
 20
14.9956
 30
-3.30079e-15
  70
    32
  0
VERTEX
  8
0
  5
24EE2
 10
50.7060
 20
14.9907
 30
-3.29968e-15
  70
    32
  0
VERTEX
  8
0
  5
24EE3
 10
50.7233
 20
14.9858
 30
-3.29858e-15
  70
    32
  0
VERTEX
  8
0
  5
24EE4
 10
50.7405
 20
14.9809
 30
-3.29748e-15
  70
    32
  0
VERTEX
  8
0
  5
24EE5
 10
50.7578
 20
14.9760
 30
-3.29638e-15
  70
    32
  0
VERTEX
  8
0
  5
24EE6
 10
50.7751
 20
14.9711
 30
-3.29529e-15
  70
    32
  0
VERTEX
  8
0
  5
24EE7
 10
50.7923
 20
14.9662
 30
-3.29420e-15
  70
    32
  0
VERTEX
  8
0
  5
24EE8
 10
50.8096
 20
14.9614
 30
-3.29312e-15
  70
    32
  0
VERTEX
  8
0
  5
24EE9
 10
50.8269
 20
14.9565
 30
-3.29204e-15
  70
    32
  0
VERTEX
  8
0
  5
24EEA
 10
50.8442
 20
14.9517
 30
-3.29096e-15
  70
    32
  0
VERTEX
  8
0
  5
24EEB
 10
50.8616
 20
14.9469
 30
-3.28989e-15
  70
    32
  0
VERTEX
  8
0
  5
24EEC
 10
50.8789
 20
14.9421
 30
-3.28882e-15
  70
    32
  0
VERTEX
  8
0
  5
24EED
 10
50.8962
 20
14.9372
 30
-3.28775e-15
  70
    32
  0
VERTEX
  8
0
  5
24EEE
 10
50.9136
 20
14.9325
 30
-3.28669e-15
  70
    32
  0
VERTEX
  8
0
  5
24EEF
 10
50.9309
 20
14.9277
 30
-3.28564e-15
  70
    32
  0
VERTEX
  8
0
  5
24EF0
 10
50.9483
 20
14.9229
 30
-3.28459e-15
  70
    32
  0
VERTEX
  8
0
  5
24EF1
 10
50.9657
 20
14.9181
 30
-3.28354e-15
  70
    32
  0
VERTEX
  8
0
  5
24EF2
 10
50.9830
 20
14.9134
 30
-3.28250e-15
  70
    32
  0
VERTEX
  8
0
  5
24EF3
 10
51.0004
 20
14.9086
 30
-3.28146e-15
  70
    32
  0
VERTEX
  8
0
  5
24EF4
 10
51.0178
 20
14.9039
 30
-3.28042e-15
  70
    32
  0
VERTEX
  8
0
  5
24EF5
 10
51.0352
 20
14.8992
 30
-3.27939e-15
  70
    32
  0
VERTEX
  8
0
  5
24EF6
 10
51.0527
 20
14.8945
 30
-3.27837e-15
  70
    32
  0
VERTEX
  8
0
  5
24EF7
 10
51.0701
 20
14.8898
 30
-3.27735e-15
  70
    32
  0
VERTEX
  8
0
  5
24EF8
 10
51.0875
 20
14.8851
 30
-3.27633e-15
  70
    32
  0
VERTEX
  8
0
  5
24EF9
 10
51.1049
 20
14.8804
 30
-3.27532e-15
  70
    32
  0
VERTEX
  8
0
  5
24EFA
 10
51.1224
 20
14.8758
 30
-3.27431e-15
  70
    32
  0
VERTEX
  8
0
  5
24EFB
 10
51.1399
 20
14.8711
 30
-3.27331e-15
  70
    32
  0
VERTEX
  8
0
  5
24EFC
 10
51.1573
 20
14.8665
 30
-3.27231e-15
  70
    32
  0
VERTEX
  8
0
  5
24EFD
 10
51.1748
 20
14.8618
 30
-3.27132e-15
  70
    32
  0
VERTEX
  8
0
  5
24EFE
 10
51.1923
 20
14.8572
 30
-3.27033e-15
  70
    32
  0
VERTEX
  8
0
  5
24EFF
 10
51.2098
 20
14.8526
 30
-3.26935e-15
  70
    32
  0
VERTEX
  8
0
  5
24F00
 10
51.2273
 20
14.8480
 30
-3.26837e-15
  70
    32
  0
VERTEX
  8
0
  5
24F01
 10
51.2448
 20
14.8434
 30
-3.26740e-15
  70
    32
  0
VERTEX
  8
0
  5
24F02
 10
51.2623
 20
14.8388
 30
-3.26643e-15
  70
    32
  0
VERTEX
  8
0
  5
24F03
 10
51.2798
 20
14.8342
 30
-3.26547e-15
  70
    32
  0
VERTEX
  8
0
  5
24F04
 10
51.2973
 20
14.8297
 30
-3.26451e-15
  70
    32
  0
VERTEX
  8
0
  5
24F05
 10
51.3149
 20
14.8251
 30
-3.26356e-15
  70
    32
  0
VERTEX
  8
0
  5
24F06
 10
51.3324
 20
14.8206
 30
-3.26261e-15
  70
    32
  0
VERTEX
  8
0
  5
24F07
 10
51.3500
 20
14.8161
 30
-3.26167e-15
  70
    32
  0
VERTEX
  8
0
  5
24F08
 10
51.3675
 20
14.8116
 30
-3.26073e-15
  70
    32
  0
VERTEX
  8
0
  5
24F09
 10
51.3851
 20
14.8071
 30
-3.25980e-15
  70
    32
  0
VERTEX
  8
0
  5
24F0A
 10
51.4027
 20
14.8026
 30
-3.25888e-15
  70
    32
  0
VERTEX
  8
0
  5
24F0B
 10
51.4202
 20
14.7981
 30
-3.25796e-15
  70
    32
  0
VERTEX
  8
0
  5
24F0C
 10
51.4378
 20
14.7936
 30
-3.25704e-15
  70
    32
  0
VERTEX
  8
0
  5
24F0D
 10
51.4554
 20
14.7892
 30
-3.25613e-15
  70
    32
  0
VERTEX
  8
0
  5
24F0E
 10
51.4730
 20
14.7847
 30
-3.25523e-15
  70
    32
  0
VERTEX
  8
0
  5
24F0F
 10
51.4906
 20
14.7803
 30
-3.25433e-15
  70
    32
  0
VERTEX
  8
0
  5
24F10
 10
51.5083
 20
14.7758
 30
-3.25344e-15
  70
    32
  0
VERTEX
  8
0
  5
24F11
 10
51.5259
 20
14.7714
 30
-3.25255e-15
  70
    32
  0
VERTEX
  8
0
  5
24F12
 10
51.5435
 20
14.7670
 30
-3.25167e-15
  70
    32
  0
VERTEX
  8
0
  5
24F13
 10
51.5612
 20
14.7626
 30
-3.25079e-15
  70
    32
  0
VERTEX
  8
0
  5
24F14
 10
51.5788
 20
14.7583
 30
-3.24992e-15
  70
    32
  0
VERTEX
  8
0
  5
24F15
 10
51.5965
 20
14.7539
 30
-3.24906e-15
  70
    32
  0
VERTEX
  8
0
  5
24F16
 10
51.6141
 20
14.7495
 30
-3.24820e-15
  70
    32
  0
VERTEX
  8
0
  5
24F17
 10
51.6318
 20
14.7452
 30
-3.24735e-15
  70
    32
  0
VERTEX
  8
0
  5
24F18
 10
51.6495
 20
14.7409
 30
-3.24651e-15
  70
    32
  0
VERTEX
  8
0
  5
24F19
 10
51.6671
 20
14.7365
 30
-3.24567e-15
  70
    32
  0
VERTEX
  8
0
  5
24F1A
 10
51.6848
 20
14.7322
 30
-3.24483e-15
  70
    32
  0
VERTEX
  8
0
  5
24F1B
 10
51.7025
 20
14.7279
 30
-3.24401e-15
  70
    32
  0
VERTEX
  8
0
  5
24F1C
 10
51.7202
 20
14.7236
 30
-3.24318e-15
  70
    32
  0
VERTEX
  8
0
  5
24F1D
 10
51.7379
 20
14.7194
 30
-3.24237e-15
  70
    32
  0
VERTEX
  8
0
  5
24F1E
 10
51.7556
 20
14.7151
 30
-3.24156e-15
  70
    32
  0
VERTEX
  8
0
  5
24F1F
 10
51.7734
 20
14.7108
 30
-3.24076e-15
  70
    32
  0
VERTEX
  8
0
  5
24F20
 10
51.7911
 20
14.7066
 30
-3.23996e-15
  70
    32
  0
VERTEX
  8
0
  5
24F21
 10
51.8088
 20
14.7024
 30
-3.23917e-15
  70
    32
  0
VERTEX
  8
0
  5
24F22
 10
51.8265
 20
14.6981
 30
-3.23839e-15
  70
    32
  0
VERTEX
  8
0
  5
24F23
 10
51.8443
 20
14.6939
 30
-3.23761e-15
  70
    32
  0
VERTEX
  8
0
  5
24F24
 10
51.8620
 20
14.6897
 30
-3.23684e-15
  70
    32
  0
VERTEX
  8
0
  5
24F25
 10
51.8798
 20
14.6856
 30
-3.23608e-15
  70
    32
  0
VERTEX
  8
0
  5
24F26
 10
51.8976
 20
14.6814
 30
-3.23532e-15
  70
    32
  0
VERTEX
  8
0
  5
24F27
 10
51.9153
 20
14.6772
 30
-3.23457e-15
  70
    32
  0
VERTEX
  8
0
  5
24F28
 10
51.9331
 20
14.6731
 30
-3.23383e-15
  70
    32
  0
VERTEX
  8
0
  5
24F29
 10
51.9509
 20
14.6689
 30
-3.23309e-15
  70
    32
  0
VERTEX
  8
0
  5
24F2A
 10
51.9687
 20
14.6648
 30
-3.23236e-15
  70
    32
  0
VERTEX
  8
0
  5
24F2B
 10
51.9865
 20
14.6607
 30
-3.23164e-15
  70
    32
  0
VERTEX
  8
0
  5
24F2C
 10
52.0042
 20
14.6566
 30
-3.23093e-15
  70
    32
  0
VERTEX
  8
0
  5
24F2D
 10
52.0221
 20
14.6525
 30
-3.23022e-15
  70
    32
  0
VERTEX
  8
0
  5
24F2E
 10
52.0399
 20
14.6484
 30
-3.22951e-15
  70
    32
  0
VERTEX
  8
0
  5
24F2F
 10
52.0577
 20
14.6444
 30
-3.22882e-15
  70
    32
  0
VERTEX
  8
0
  5
24F30
 10
52.0755
 20
14.6403
 30
-3.22813e-15
  70
    32
  0
VERTEX
  8
0
  5
24F31
 10
52.0933
 20
14.6363
 30
-3.22745e-15
  70
    32
  0
VERTEX
  8
0
  5
24F32
 10
52.1111
 20
14.6322
 30
-3.22678e-15
  70
    32
  0
VERTEX
  8
0
  5
24F33
 10
52.1290
 20
14.6282
 30
-3.22611e-15
  70
    32
  0
VERTEX
  8
0
  5
24F34
 10
52.1468
 20
14.6242
 30
-3.22545e-15
  70
    32
  0
VERTEX
  8
0
  5
24F35
 10
52.1647
 20
14.6202
 30
-3.22480e-15
  70
    32
  0
VERTEX
  8
0
  5
24F36
 10
52.1825
 20
14.6162
 30
-3.22416e-15
  70
    32
  0
VERTEX
  8
0
  5
24F37
 10
52.2004
 20
14.6123
 30
-3.22352e-15
  70
    32
  0
VERTEX
  8
0
  5
24F38
 10
52.2182
 20
14.6083
 30
-3.22289e-15
  70
    32
  0
VERTEX
  8
0
  5
24F39
 10
52.2361
 20
14.6044
 30
-3.22227e-15
  70
    32
  0
VERTEX
  8
0
  5
24F3A
 10
52.2540
 20
14.6004
 30
-3.22165e-15
  70
    32
  0
VERTEX
  8
0
  5
24F3B
 10
52.2718
 20
14.5965
 30
-3.22105e-15
  70
    32
  0
VERTEX
  8
0
  5
24F3C
 10
52.2897
 20
14.5926
 30
-3.22045e-15
  70
    32
  0
VERTEX
  8
0
  5
24F3D
 10
52.3076
 20
14.5887
 30
-3.21986e-15
  70
    32
  0
VERTEX
  8
0
  5
24F3E
 10
52.3255
 20
14.5848
 30
-3.21927e-15
  70
    32
  0
VERTEX
  8
0
  5
24F3F
 10
52.3434
 20
14.5810
 30
-3.21870e-15
  70
    32
  0
VERTEX
  8
0
  5
24F40
 10
52.3613
 20
14.5771
 30
-3.21813e-15
  70
    32
  0
VERTEX
  8
0
  5
24F41
 10
52.3792
 20
14.5732
 30
-3.21757e-15
  70
    32
  0
VERTEX
  8
0
  5
24F42
 10
52.3971
 20
14.5694
 30
-3.21701e-15
  70
    32
  0
VERTEX
  8
0
  5
24F43
 10
52.4150
 20
14.5656
 30
-3.21647e-15
  70
    32
  0
VERTEX
  8
0
  5
24F44
 10
52.4329
 20
14.5618
 30
-3.21593e-15
  70
    32
  0
VERTEX
  8
0
  5
24F45
 10
52.4509
 20
14.5580
 30
-3.21541e-15
  70
    32
  0
VERTEX
  8
0
  5
24F46
 10
52.4688
 20
14.5542
 30
-3.21488e-15
  70
    32
  0
VERTEX
  8
0
  5
24F47
 10
52.4867
 20
14.5504
 30
-3.21437e-15
  70
    32
  0
VERTEX
  8
0
  5
24F48
 10
52.5047
 20
14.5467
 30
-3.21387e-15
  70
    32
  0
VERTEX
  8
0
  5
24F49
 10
52.5226
 20
14.5429
 30
-3.21337e-15
  70
    32
  0
VERTEX
  8
0
  5
24F4A
 10
52.5405
 20
14.5392
 30
-3.21288e-15
  70
    32
  0
VERTEX
  8
0
  5
24F4B
 10
52.5585
 20
14.5355
 30
-3.21240e-15
  70
    32
  0
VERTEX
  8
0
  5
24F4C
 10
52.5764
 20
14.5318
 30
-3.21193e-15
  70
    32
  0
VERTEX
  8
0
  5
24F4D
 10
52.5944
 20
14.5281
 30
-3.21147e-15
  70
    32
  0
VERTEX
  8
0
  5
24F4E
 10
52.6123
 20
14.5244
 30
-3.21102e-15
  70
    32
  0
VERTEX
  8
0
  5
24F4F
 10
52.6303
 20
14.5207
 30
-3.21057e-15
  70
    32
  0
VERTEX
  8
0
  5
24F50
 10
52.6483
 20
14.5170
 30
-3.21013e-15
  70
    32
  0
VERTEX
  8
0
  5
24F51
 10
52.6662
 20
14.5134
 30
-3.20971e-15
  70
    32
  0
VERTEX
  8
0
  5
24F52
 10
52.6842
 20
14.5098
 30
-3.20928e-15
  70
    32
  0
VERTEX
  8
0
  5
24F53
 10
52.7022
 20
14.5061
 30
-3.20887e-15
  70
    32
  0
VERTEX
  8
0
  5
24F54
 10
52.7202
 20
14.5025
 30
-3.20847e-15
  70
    32
  0
VERTEX
  8
0
  5
24F55
 10
52.7382
 20
14.4989
 30
-3.20808e-15
  70
    32
  0
VERTEX
  8
0
  5
24F56
 10
52.7562
 20
14.4954
 30
-3.20769e-15
  70
    32
  0
VERTEX
  8
0
  5
24F57
 10
52.7741
 20
14.4918
 30
-3.20732e-15
  70
    32
  0
VERTEX
  8
0
  5
24F58
 10
52.7921
 20
14.4882
 30
-3.20695e-15
  70
    32
  0
VERTEX
  8
0
  5
24F59
 10
52.8101
 20
14.4847
 30
-3.20659e-15
  70
    32
  0
VERTEX
  8
0
  5
24F5A
 10
52.8281
 20
14.4812
 30
-3.20624e-15
  70
    32
  0
VERTEX
  8
0
  5
24F5B
 10
52.8461
 20
14.4777
 30
-3.20590e-15
  70
    32
  0
VERTEX
  8
0
  5
24F5C
 10
52.8642
 20
14.4741
 30
-3.20557e-15
  70
    32
  0
VERTEX
  8
0
  5
24F5D
 10
52.8822
 20
14.4707
 30
-3.20524e-15
  70
    32
  0
VERTEX
  8
0
  5
24F5E
 10
52.9002
 20
14.4672
 30
-3.20493e-15
  70
    32
  0
VERTEX
  8
0
  5
24F5F
 10
52.9182
 20
14.4637
 30
-3.20463e-15
  70
    32
  0
VERTEX
  8
0
  5
24F60
 10
52.9362
 20
14.4603
 30
-3.20433e-15
  70
    32
  0
VERTEX
  8
0
  5
24F61
 10
52.9542
 20
14.4568
 30
-3.20405e-15
  70
    32
  0
VERTEX
  8
0
  5
24F62
 10
52.9723
 20
14.4534
 30
-3.20377e-15
  70
    32
  0
VERTEX
  8
0
  5
24F63
 10
52.9903
 20
14.4500
 30
-3.20350e-15
  70
    32
  0
VERTEX
  8
0
  5
24F64
 10
53.0083
 20
14.4466
 30
-3.20325e-15
  70
    32
  0
VERTEX
  8
0
  5
24F65
 10
53.0264
 20
14.4432
 30
-3.20300e-15
  70
    32
  0
VERTEX
  8
0
  5
24F66
 10
53.0444
 20
14.4398
 30
-3.20276e-15
  70
    32
  0
VERTEX
  8
0
  5
24F67
 10
53.0624
 20
14.4365
 30
-3.20253e-15
  70
    32
  0
VERTEX
  8
0
  5
24F68
 10
53.0805
 20
14.4331
 30
-3.20231e-15
  70
    32
  0
VERTEX
  8
0
  5
24F69
 10
53.0985
 20
14.4298
 30
-3.20210e-15
  70
    32
  0
VERTEX
  8
0
  5
24F6A
 10
53.1166
 20
14.4265
 30
-3.20190e-15
  70
    32
  0
VERTEX
  8
0
  5
24F6B
 10
53.1346
 20
14.4232
 30
-3.20171e-15
  70
    32
  0
VERTEX
  8
0
  5
24F6C
 10
53.1527
 20
14.4199
 30
-3.20153e-15
  70
    32
  0
VERTEX
  8
0
  5
24F6D
 10
53.1707
 20
14.4166
 30
-3.20136e-15
  70
    32
  0
VERTEX
  8
0
  5
24F6E
 10
53.1888
 20
14.4133
 30
-3.20120e-15
  70
    32
  0
VERTEX
  8
0
  5
24F6F
 10
53.2069
 20
14.4101
 30
-3.20105e-15
  70
    32
  0
VERTEX
  8
0
  5
24F70
 10
53.2249
 20
14.4068
 30
-3.20091e-15
  70
    32
  0
VERTEX
  8
0
  5
24F71
 10
53.2430
 20
14.4036
 30
-3.20078e-15
  70
    32
  0
VERTEX
  8
0
  5
24F72
 10
53.2611
 20
14.4004
 30
-3.20066e-15
  70
    32
  0
VERTEX
  8
0
  5
24F73
 10
53.2791
 20
14.3972
 30
-3.20054e-15
  70
    32
  0
VERTEX
  8
0
  5
24F74
 10
53.2972
 20
14.3940
 30
-3.20044e-15
  70
    32
  0
VERTEX
  8
0
  5
24F75
 10
53.3153
 20
14.3908
 30
-3.20035e-15
  70
    32
  0
VERTEX
  8
0
  5
24F76
 10
53.3333
 20
14.3877
 30
-3.20027e-15
  70
    32
  0
VERTEX
  8
0
  5
24F77
 10
53.3514
 20
14.3845
 30
-3.20020e-15
  70
    32
  0
VERTEX
  8
0
  5
24F78
 10
53.3695
 20
14.3814
 30
-3.20014e-15
  70
    32
  0
VERTEX
  8
0
  5
24F79
 10
53.3876
 20
14.3783
 30
-3.20009e-15
  70
    32
  0
VERTEX
  8
0
  5
24F7A
 10
53.4056
 20
14.3752
 30
-3.20005e-15
  70
    32
  0
VERTEX
  8
0
  5
24F7B
 10
53.4237
 20
14.3721
 30
-3.20003e-15
  70
    32
  0
VERTEX
  8
0
  5
24F7C
 10
53.4418
 20
14.3690
 30
-3.20001e-15
  70
    32
  0
VERTEX
  8
0
  5
24F7D
 10
53.4599
 20
14.3660
 30
-3.20000e-15
  70
    32
  0
VERTEX
  8
0
  5
24F7E
 10
53.4780
 20
14.3629
 30
-3.20000e-15
  70
    32
  0
VERTEX
  8
0
  5
24F7F
 10
53.4961
 20
14.3599
 30
-3.20000e-15
  70
    32
  0
VERTEX
  8
0
  5
24F80
 10
53.5142
 20
14.3569
 30
-3.20000e-15
  70
    32
  0
VERTEX
  8
0
  5
24F81
 10
53.5322
 20
14.3538
 30
-3.20000e-15
  70
    32
  0
VERTEX
  8
0
  5
24F82
 10
53.5503
 20
14.3508
 30
-3.20000e-15
  70
    32
  0
VERTEX
  8
0
  5
24F83
 10
53.5684
 20
14.3479
 30
-3.20000e-15
  70
    32
  0
VERTEX
  8
0
  5
24F84
 10
53.5865
 20
14.3449
 30
-3.20000e-15
  70
    32
  0
VERTEX
  8
0
  5
24F85
 10
53.6046
 20
14.3419
 30
-3.20000e-15
  70
    32
  0
VERTEX
  8
0
  5
24F86
 10
53.6227
 20
14.3390
 30
-3.20000e-15
  70
    32
  0
VERTEX
  8
0
  5
24F87
 10
53.6408
 20
14.3361
 30
-3.20000e-15
  70
    32
  0
VERTEX
  8
0
  5
24F88
 10
53.6589
 20
14.3332
 30
-3.20000e-15
  70
    32
  0
VERTEX
  8
0
  5
24F89
 10
53.6770
 20
14.3302
 30
-3.20000e-15
  70
    32
  0
VERTEX
  8
0
  5
24F8A
 10
53.6951
 20
14.3274
 30
-3.20000e-15
  70
    32
  0
VERTEX
  8
0
  5
24F8B
 10
53.7132
 20
14.3245
 30
-3.20000e-15
  70
    32
  0
VERTEX
  8
0
  5
24F8C
 10
53.7313
 20
14.3216
 30
-3.20000e-15
  70
    32
  0
VERTEX
  8
0
  5
24F8D
 10
53.7494
 20
14.3188
 30
-3.20000e-15
  70
    32
  0
SEQEND
  8
0
  5
24F8E
  0
ARC
  5
249D5
  8
0
  6
VERDECKT
 62
     1
 10
-57.7071067811823113
 20
39.5097694721920902
 30
0.0
 40
25.4999999999999787
210
0.0
220
-0.0000000000000002
230
-1.0
 50
261.0713645210283858
 51
278.9286354789715006
  0
POLYLINE
  8
0
  5
24F8F
  62
1
  66
     1
 10
0.00000
 20
0.00000
 30
0.00000
  70
     8
  0
VERTEX
  8
0
  5
24F90
 10
66.1179
 20
15.4368
 30
-3.40000e-15
  70
    32
  0
VERTEX
  8
0
  5
24F91
 10
66.1016
 20
15.4311
 30
-3.39968e-15
  70
    32
  0
VERTEX
  8
0
  5
24F92
 10
66.0854
 20
15.4254
 30
-3.39845e-15
  70
    32
  0
VERTEX
  8
0
  5
24F93
 10
66.0691
 20
15.4198
 30
-3.39720e-15
  70
    32
  0
VERTEX
  8
0
  5
24F94
 10
66.0527
 20
15.4141
 30
-3.39595e-15
  70
    32
  0
VERTEX
  8
0
  5
24F95
 10
66.0364
 20
15.4085
 30
-3.39469e-15
  70
    32
  0
VERTEX
  8
0
  5
24F96
 10
66.0201
 20
15.4028
 30
-3.39344e-15
  70
    32
  0
VERTEX
  8
0
  5
24F97
 10
66.0037
 20
15.3972
 30
-3.39218e-15
  70
    32
  0
VERTEX
  8
0
  5
24F98
 10
65.9874
 20
15.3916
 30
-3.39093e-15
  70
    32
  0
VERTEX
  8
0
  5
24F99
 10
65.9710
 20
15.3860
 30
-3.38968e-15
  70
    32
  0
VERTEX
  8
0
  5
24F9A
 10
65.9546
 20
15.3804
 30
-3.38842e-15
  70
    32
  0
VERTEX
  8
0
  5
24F9B
 10
65.9382
 20
15.3748
 30
-3.38717e-15
  70
    32
  0
VERTEX
  8
0
  5
24F9C
 10
65.9218
 20
15.3692
 30
-3.38592e-15
  70
    32
  0
VERTEX
  8
0
  5
24F9D
 10
65.9053
 20
15.3636
 30
-3.38467e-15
  70
    32
  0
VERTEX
  8
0
  5
24F9E
 10
65.8889
 20
15.3580
 30
-3.38342e-15
  70
    32
  0
VERTEX
  8
0
  5
24F9F
 10
65.8724
 20
15.3525
 30
-3.38217e-15
  70
    32
  0
VERTEX
  8
0
  5
24FA0
 10
65.8560
 20
15.3469
 30
-3.38092e-15
  70
    32
  0
VERTEX
  8
0
  5
24FA1
 10
65.8395
 20
15.3414
 30
-3.37967e-15
  70
    32
  0
VERTEX
  8
0
  5
24FA2
 10
65.8230
 20
15.3358
 30
-3.37842e-15
  70
    32
  0
VERTEX
  8
0
  5
24FA3
 10
65.8065
 20
15.3303
 30
-3.37717e-15
  70
    32
  0
VERTEX
  8
0
  5
24FA4
 10
65.7900
 20
15.3248
 30
-3.37592e-15
  70
    32
  0
VERTEX
  8
0
  5
24FA5
 10
65.7734
 20
15.3193
 30
-3.37467e-15
  70
    32
  0
VERTEX
  8
0
  5
24FA6
 10
65.7569
 20
15.3138
 30
-3.37343e-15
  70
    32
  0
VERTEX
  8
0
  5
24FA7
 10
65.7403
 20
15.3083
 30
-3.37218e-15
  70
    32
  0
VERTEX
  8
0
  5
24FA8
 10
65.7237
 20
15.3028
 30
-3.37094e-15
  70
    32
  0
VERTEX
  8
0
  5
24FA9
 10
65.7072
 20
15.2973
 30
-3.36970e-15
  70
    32
  0
VERTEX
  8
0
  5
24FAA
 10
65.6906
 20
15.2919
 30
-3.36845e-15
  70
    32
  0
VERTEX
  8
0
  5
24FAB
 10
65.6739
 20
15.2864
 30
-3.36721e-15
  70
    32
  0
VERTEX
  8
0
  5
24FAC
 10
65.6573
 20
15.2810
 30
-3.36597e-15
  70
    32
  0
VERTEX
  8
0
  5
24FAD
 10
65.6407
 20
15.2755
 30
-3.36473e-15
  70
    32
  0
VERTEX
  8
0
  5
24FAE
 10
65.6240
 20
15.2701
 30
-3.36350e-15
  70
    32
  0
VERTEX
  8
0
  5
24FAF
 10
65.6074
 20
15.2647
 30
-3.36226e-15
  70
    32
  0
VERTEX
  8
0
  5
24FB0
 10
65.5907
 20
15.2593
 30
-3.36103e-15
  70
    32
  0
VERTEX
  8
0
  5
24FB1
 10
65.5740
 20
15.2539
 30
-3.35979e-15
  70
    32
  0
VERTEX
  8
0
  5
24FB2
 10
65.5573
 20
15.2485
 30
-3.35856e-15
  70
    32
  0
VERTEX
  8
0
  5
24FB3
 10
65.5406
 20
15.2431
 30
-3.35733e-15
  70
    32
  0
VERTEX
  8
0
  5
24FB4
 10
65.5239
 20
15.2377
 30
-3.35610e-15
  70
    32
  0
VERTEX
  8
0
  5
24FB5
 10
65.5072
 20
15.2323
 30
-3.35487e-15
  70
    32
  0
VERTEX
  8
0
  5
24FB6
 10
65.4904
 20
15.2270
 30
-3.35364e-15
  70
    32
  0
VERTEX
  8
0
  5
24FB7
 10
65.4737
 20
15.2216
 30
-3.35242e-15
  70
    32
  0
VERTEX
  8
0
  5
24FB8
 10
65.4569
 20
15.2163
 30
-3.35120e-15
  70
    32
  0
VERTEX
  8
0
  5
24FB9
 10
65.4401
 20
15.2109
 30
-3.34997e-15
  70
    32
  0
VERTEX
  8
0
  5
24FBA
 10
65.4233
 20
15.2056
 30
-3.34876e-15
  70
    32
  0
VERTEX
  8
0
  5
24FBB
 10
65.4065
 20
15.2003
 30
-3.34754e-15
  70
    32
  0
VERTEX
  8
0
  5
24FBC
 10
65.3897
 20
15.1950
 30
-3.34632e-15
  70
    32
  0
VERTEX
  8
0
  5
24FBD
 10
65.3729
 20
15.1897
 30
-3.34511e-15
  70
    32
  0
VERTEX
  8
0
  5
24FBE
 10
65.3560
 20
15.1844
 30
-3.34389e-15
  70
    32
  0
VERTEX
  8
0
  5
24FBF
 10
65.3392
 20
15.1792
 30
-3.34268e-15
  70
    32
  0
VERTEX
  8
0
  5
24FC0
 10
65.3223
 20
15.1739
 30
-3.34148e-15
  70
    32
  0
VERTEX
  8
0
  5
24FC1
 10
65.3055
 20
15.1686
 30
-3.34027e-15
  70
    32
  0
VERTEX
  8
0
  5
24FC2
 10
65.2886
 20
15.1634
 30
-3.33906e-15
  70
    32
  0
VERTEX
  8
0
  5
24FC3
 10
65.2717
 20
15.1581
 30
-3.33786e-15
  70
    32
  0
VERTEX
  8
0
  5
24FC4
 10
65.2548
 20
15.1529
 30
-3.33666e-15
  70
    32
  0
VERTEX
  8
0
  5
24FC5
 10
65.2379
 20
15.1477
 30
-3.33546e-15
  70
    32
  0
VERTEX
  8
0
  5
24FC6
 10
65.2209
 20
15.1425
 30
-3.33427e-15
  70
    32
  0
VERTEX
  8
0
  5
24FC7
 10
65.2040
 20
15.1373
 30
-3.33308e-15
  70
    32
  0
VERTEX
  8
0
  5
24FC8
 10
65.1870
 20
15.1321
 30
-3.33188e-15
  70
    32
  0
VERTEX
  8
0
  5
24FC9
 10
65.1701
 20
15.1269
 30
-3.33070e-15
  70
    32
  0
VERTEX
  8
0
  5
24FCA
 10
65.1531
 20
15.1217
 30
-3.32951e-15
  70
    32
  0
VERTEX
  8
0
  5
24FCB
 10
65.1361
 20
15.1166
 30
-3.32833e-15
  70
    32
  0
VERTEX
  8
0
  5
24FCC
 10
65.1191
 20
15.1114
 30
-3.32715e-15
  70
    32
  0
VERTEX
  8
0
  5
24FCD
 10
65.1021
 20
15.1063
 30
-3.32597e-15
  70
    32
  0
VERTEX
  8
0
  5
24FCE
 10
65.0851
 20
15.1011
 30
-3.32479e-15
  70
    32
  0
VERTEX
  8
0
  5
24FCF
 10
65.0681
 20
15.0960
 30
-3.32362e-15
  70
    32
  0
VERTEX
  8
0
  5
24FD0
 10
65.0511
 20
15.0909
 30
-3.32245e-15
  70
    32
  0
VERTEX
  8
0
  5
24FD1
 10
65.0340
 20
15.0858
 30
-3.32128e-15
  70
    32
  0
VERTEX
  8
0
  5
24FD2
 10
65.0169
 20
15.0807
 30
-3.32012e-15
  70
    32
  0
VERTEX
  8
0
  5
24FD3
 10
64.9999
 20
15.0756
 30
-3.31895e-15
  70
    32
  0
VERTEX
  8
0
  5
24FD4
 10
64.9828
 20
15.0705
 30
-3.31779e-15
  70
    32
  0
VERTEX
  8
0
  5
24FD5
 10
64.9657
 20
15.0655
 30
-3.31664e-15
  70
    32
  0
VERTEX
  8
0
  5
24FD6
 10
64.9486
 20
15.0604
 30
-3.31549e-15
  70
    32
  0
VERTEX
  8
0
  5
24FD7
 10
64.9315
 20
15.0554
 30
-3.31433e-15
  70
    32
  0
VERTEX
  8
0
  5
24FD8
 10
64.9144
 20
15.0503
 30
-3.31319e-15
  70
    32
  0
VERTEX
  8
0
  5
24FD9
 10
64.8973
 20
15.0453
 30
-3.31204e-15
  70
    32
  0
VERTEX
  8
0
  5
24FDA
 10
64.8801
 20
15.0403
 30
-3.31090e-15
  70
    32
  0
VERTEX
  8
0
  5
24FDB
 10
64.8630
 20
15.0353
 30
-3.30977e-15
  70
    32
  0
VERTEX
  8
0
  5
24FDC
 10
64.8458
 20
15.0303
 30
-3.30863e-15
  70
    32
  0
VERTEX
  8
0
  5
24FDD
 10
64.8286
 20
15.0253
 30
-3.30750e-15
  70
    32
  0
VERTEX
  8
0
  5
24FDE
 10
64.8115
 20
15.0203
 30
-3.30637e-15
  70
    32
  0
VERTEX
  8
0
  5
24FDF
 10
64.7943
 20
15.0153
 30
-3.30525e-15
  70
    32
  0
VERTEX
  8
0
  5
24FE0
 10
64.7771
 20
15.0104
 30
-3.30413e-15
  70
    32
  0
VERTEX
  8
0
  5
24FE1
 10
64.7599
 20
15.0054
 30
-3.30301e-15
  70
    32
  0
VERTEX
  8
0
  5
24FE2
 10
64.7427
 20
15.0005
 30
-3.30190e-15
  70
    32
  0
VERTEX
  8
0
  5
24FE3
 10
64.7254
 20
14.9956
 30
-3.30079e-15
  70
    32
  0
VERTEX
  8
0
  5
24FE4
 10
64.7082
 20
14.9907
 30
-3.29968e-15
  70
    32
  0
VERTEX
  8
0
  5
24FE5
 10
64.6910
 20
14.9858
 30
-3.29858e-15
  70
    32
  0
VERTEX
  8
0
  5
24FE6
 10
64.6737
 20
14.9809
 30
-3.29748e-15
  70
    32
  0
VERTEX
  8
0
  5
24FE7
 10
64.6564
 20
14.9760
 30
-3.29638e-15
  70
    32
  0
VERTEX
  8
0
  5
24FE8
 10
64.6392
 20
14.9711
 30
-3.29529e-15
  70
    32
  0
VERTEX
  8
0
  5
24FE9
 10
64.6219
 20
14.9662
 30
-3.29420e-15
  70
    32
  0
VERTEX
  8
0
  5
24FEA
 10
64.6046
 20
14.9614
 30
-3.29312e-15
  70
    32
  0
VERTEX
  8
0
  5
24FEB
 10
64.5873
 20
14.9565
 30
-3.29204e-15
  70
    32
  0
VERTEX
  8
0
  5
24FEC
 10
64.5700
 20
14.9517
 30
-3.29096e-15
  70
    32
  0
VERTEX
  8
0
  5
24FED
 10
64.5527
 20
14.9469
 30
-3.28989e-15
  70
    32
  0
VERTEX
  8
0
  5
24FEE
 10
64.5353
 20
14.9421
 30
-3.28882e-15
  70
    32
  0
VERTEX
  8
0
  5
24FEF
 10
64.5180
 20
14.9372
 30
-3.28775e-15
  70
    32
  0
VERTEX
  8
0
  5
24FF0
 10
64.5006
 20
14.9325
 30
-3.28669e-15
  70
    32
  0
VERTEX
  8
0
  5
24FF1
 10
64.4833
 20
14.9277
 30
-3.28564e-15
  70
    32
  0
VERTEX
  8
0
  5
24FF2
 10
64.4659
 20
14.9229
 30
-3.28459e-15
  70
    32
  0
VERTEX
  8
0
  5
24FF3
 10
64.4486
 20
14.9181
 30
-3.28354e-15
  70
    32
  0
VERTEX
  8
0
  5
24FF4
 10
64.4312
 20
14.9134
 30
-3.28250e-15
  70
    32
  0
VERTEX
  8
0
  5
24FF5
 10
64.4138
 20
14.9086
 30
-3.28146e-15
  70
    32
  0
VERTEX
  8
0
  5
24FF6
 10
64.3964
 20
14.9039
 30
-3.28042e-15
  70
    32
  0
VERTEX
  8
0
  5
24FF7
 10
64.3790
 20
14.8992
 30
-3.27939e-15
  70
    32
  0
VERTEX
  8
0
  5
24FF8
 10
64.3616
 20
14.8945
 30
-3.27837e-15
  70
    32
  0
VERTEX
  8
0
  5
24FF9
 10
64.3441
 20
14.8898
 30
-3.27735e-15
  70
    32
  0
VERTEX
  8
0
  5
24FFA
 10
64.3267
 20
14.8851
 30
-3.27633e-15
  70
    32
  0
VERTEX
  8
0
  5
24FFB
 10
64.3093
 20
14.8804
 30
-3.27532e-15
  70
    32
  0
VERTEX
  8
0
  5
24FFC
 10
64.2918
 20
14.8758
 30
-3.27431e-15
  70
    32
  0
VERTEX
  8
0
  5
24FFD
 10
64.2744
 20
14.8711
 30
-3.27331e-15
  70
    32
  0
VERTEX
  8
0
  5
24FFE
 10
64.2569
 20
14.8665
 30
-3.27231e-15
  70
    32
  0
VERTEX
  8
0
  5
24FFF
 10
64.2394
 20
14.8618
 30
-3.27132e-15
  70
    32
  0
VERTEX
  8
0
  5
25000
 10
64.2219
 20
14.8572
 30
-3.27033e-15
  70
    32
  0
VERTEX
  8
0
  5
25001
 10
64.2044
 20
14.8526
 30
-3.26935e-15
  70
    32
  0
VERTEX
  8
0
  5
25002
 10
64.1870
 20
14.8480
 30
-3.26837e-15
  70
    32
  0
VERTEX
  8
0
  5
25003
 10
64.1694
 20
14.8434
 30
-3.26740e-15
  70
    32
  0
VERTEX
  8
0
  5
25004
 10
64.1519
 20
14.8388
 30
-3.26643e-15
  70
    32
  0
VERTEX
  8
0
  5
25005
 10
64.1344
 20
14.8342
 30
-3.26547e-15
  70
    32
  0
VERTEX
  8
0
  5
25006
 10
64.1169
 20
14.8297
 30
-3.26451e-15
  70
    32
  0
VERTEX
  8
0
  5
25007
 10
64.0993
 20
14.8251
 30
-3.26356e-15
  70
    32
  0
VERTEX
  8
0
  5
25008
 10
64.0818
 20
14.8206
 30
-3.26261e-15
  70
    32
  0
VERTEX
  8
0
  5
25009
 10
64.0643
 20
14.8161
 30
-3.26167e-15
  70
    32
  0
VERTEX
  8
0
  5
2500A
 10
64.0467
 20
14.8116
 30
-3.26073e-15
  70
    32
  0
VERTEX
  8
0
  5
2500B
 10
64.0291
 20
14.8071
 30
-3.25980e-15
  70
    32
  0
VERTEX
  8
0
  5
2500C
 10
64.0116
 20
14.8026
 30
-3.25888e-15
  70
    32
  0
VERTEX
  8
0
  5
2500D
 10
63.9940
 20
14.7981
 30
-3.25796e-15
  70
    32
  0
VERTEX
  8
0
  5
2500E
 10
63.9764
 20
14.7936
 30
-3.25704e-15
  70
    32
  0
VERTEX
  8
0
  5
2500F
 10
63.9588
 20
14.7892
 30
-3.25613e-15
  70
    32
  0
VERTEX
  8
0
  5
25010
 10
63.9412
 20
14.7847
 30
-3.25523e-15
  70
    32
  0
VERTEX
  8
0
  5
25011
 10
63.9236
 20
14.7803
 30
-3.25433e-15
  70
    32
  0
VERTEX
  8
0
  5
25012
 10
63.9060
 20
14.7758
 30
-3.25344e-15
  70
    32
  0
VERTEX
  8
0
  5
25013
 10
63.8883
 20
14.7714
 30
-3.25255e-15
  70
    32
  0
VERTEX
  8
0
  5
25014
 10
63.8707
 20
14.7670
 30
-3.25167e-15
  70
    32
  0
VERTEX
  8
0
  5
25015
 10
63.8531
 20
14.7626
 30
-3.25079e-15
  70
    32
  0
VERTEX
  8
0
  5
25016
 10
63.8354
 20
14.7583
 30
-3.24992e-15
  70
    32
  0
VERTEX
  8
0
  5
25017
 10
63.8178
 20
14.7539
 30
-3.24906e-15
  70
    32
  0
VERTEX
  8
0
  5
25018
 10
63.8001
 20
14.7495
 30
-3.24820e-15
  70
    32
  0
VERTEX
  8
0
  5
25019
 10
63.7824
 20
14.7452
 30
-3.24735e-15
  70
    32
  0
VERTEX
  8
0
  5
2501A
 10
63.7648
 20
14.7409
 30
-3.24651e-15
  70
    32
  0
VERTEX
  8
0
  5
2501B
 10
63.7471
 20
14.7365
 30
-3.24567e-15
  70
    32
  0
VERTEX
  8
0
  5
2501C
 10
63.7294
 20
14.7322
 30
-3.24483e-15
  70
    32
  0
VERTEX
  8
0
  5
2501D
 10
63.7117
 20
14.7279
 30
-3.24401e-15
  70
    32
  0
VERTEX
  8
0
  5
2501E
 10
63.6940
 20
14.7236
 30
-3.24318e-15
  70
    32
  0
VERTEX
  8
0
  5
2501F
 10
63.6763
 20
14.7194
 30
-3.24237e-15
  70
    32
  0
VERTEX
  8
0
  5
25020
 10
63.6586
 20
14.7151
 30
-3.24156e-15
  70
    32
  0
VERTEX
  8
0
  5
25021
 10
63.6409
 20
14.7108
 30
-3.24076e-15
  70
    32
  0
VERTEX
  8
0
  5
25022
 10
63.6231
 20
14.7066
 30
-3.23996e-15
  70
    32
  0
VERTEX
  8
0
  5
25023
 10
63.6054
 20
14.7024
 30
-3.23917e-15
  70
    32
  0
VERTEX
  8
0
  5
25024
 10
63.5877
 20
14.6981
 30
-3.23839e-15
  70
    32
  0
VERTEX
  8
0
  5
25025
 10
63.5699
 20
14.6939
 30
-3.23761e-15
  70
    32
  0
VERTEX
  8
0
  5
25026
 10
63.5522
 20
14.6897
 30
-3.23684e-15
  70
    32
  0
VERTEX
  8
0
  5
25027
 10
63.5344
 20
14.6856
 30
-3.23608e-15
  70
    32
  0
VERTEX
  8
0
  5
25028
 10
63.5167
 20
14.6814
 30
-3.23532e-15
  70
    32
  0
VERTEX
  8
0
  5
25029
 10
63.4989
 20
14.6772
 30
-3.23457e-15
  70
    32
  0
VERTEX
  8
0
  5
2502A
 10
63.4811
 20
14.6731
 30
-3.23383e-15
  70
    32
  0
VERTEX
  8
0
  5
2502B
 10
63.4633
 20
14.6689
 30
-3.23309e-15
  70
    32
  0
VERTEX
  8
0
  5
2502C
 10
63.4456
 20
14.6648
 30
-3.23236e-15
  70
    32
  0
VERTEX
  8
0
  5
2502D
 10
63.4278
 20
14.6607
 30
-3.23164e-15
  70
    32
  0
VERTEX
  8
0
  5
2502E
 10
63.4100
 20
14.6566
 30
-3.23093e-15
  70
    32
  0
VERTEX
  8
0
  5
2502F
 10
63.3922
 20
14.6525
 30
-3.23022e-15
  70
    32
  0
VERTEX
  8
0
  5
25030
 10
63.3744
 20
14.6484
 30
-3.22951e-15
  70
    32
  0
VERTEX
  8
0
  5
25031
 10
63.3565
 20
14.6444
 30
-3.22882e-15
  70
    32
  0
VERTEX
  8
0
  5
25032
 10
63.3387
 20
14.6403
 30
-3.22813e-15
  70
    32
  0
VERTEX
  8
0
  5
25033
 10
63.3209
 20
14.6363
 30
-3.22745e-15
  70
    32
  0
VERTEX
  8
0
  5
25034
 10
63.3031
 20
14.6322
 30
-3.22678e-15
  70
    32
  0
VERTEX
  8
0
  5
25035
 10
63.2852
 20
14.6282
 30
-3.22611e-15
  70
    32
  0
VERTEX
  8
0
  5
25036
 10
63.2674
 20
14.6242
 30
-3.22545e-15
  70
    32
  0
VERTEX
  8
0
  5
25037
 10
63.2495
 20
14.6202
 30
-3.22480e-15
  70
    32
  0
VERTEX
  8
0
  5
25038
 10
63.2317
 20
14.6162
 30
-3.22416e-15
  70
    32
  0
VERTEX
  8
0
  5
25039
 10
63.2138
 20
14.6123
 30
-3.22352e-15
  70
    32
  0
VERTEX
  8
0
  5
2503A
 10
63.1960
 20
14.6083
 30
-3.22289e-15
  70
    32
  0
VERTEX
  8
0
  5
2503B
 10
63.1781
 20
14.6044
 30
-3.22227e-15
  70
    32
  0
VERTEX
  8
0
  5
2503C
 10
63.1602
 20
14.6004
 30
-3.22165e-15
  70
    32
  0
VERTEX
  8
0
  5
2503D
 10
63.1424
 20
14.5965
 30
-3.22105e-15
  70
    32
  0
VERTEX
  8
0
  5
2503E
 10
63.1245
 20
14.5926
 30
-3.22045e-15
  70
    32
  0
VERTEX
  8
0
  5
2503F
 10
63.1066
 20
14.5887
 30
-3.21986e-15
  70
    32
  0
VERTEX
  8
0
  5
25040
 10
63.0887
 20
14.5848
 30
-3.21927e-15
  70
    32
  0
VERTEX
  8
0
  5
25041
 10
63.0708
 20
14.5810
 30
-3.21870e-15
  70
    32
  0
VERTEX
  8
0
  5
25042
 10
63.0529
 20
14.5771
 30
-3.21813e-15
  70
    32
  0
VERTEX
  8
0
  5
25043
 10
63.0350
 20
14.5732
 30
-3.21757e-15
  70
    32
  0
VERTEX
  8
0
  5
25044
 10
63.0171
 20
14.5694
 30
-3.21701e-15
  70
    32
  0
VERTEX
  8
0
  5
25045
 10
62.9992
 20
14.5656
 30
-3.21647e-15
  70
    32
  0
VERTEX
  8
0
  5
25046
 10
62.9813
 20
14.5618
 30
-3.21593e-15
  70
    32
  0
VERTEX
  8
0
  5
25047
 10
62.9634
 20
14.5580
 30
-3.21541e-15
  70
    32
  0
VERTEX
  8
0
  5
25048
 10
62.9454
 20
14.5542
 30
-3.21488e-15
  70
    32
  0
VERTEX
  8
0
  5
25049
 10
62.9275
 20
14.5504
 30
-3.21437e-15
  70
    32
  0
VERTEX
  8
0
  5
2504A
 10
62.9096
 20
14.5467
 30
-3.21387e-15
  70
    32
  0
VERTEX
  8
0
  5
2504B
 10
62.8916
 20
14.5429
 30
-3.21337e-15
  70
    32
  0
VERTEX
  8
0
  5
2504C
 10
62.8737
 20
14.5392
 30
-3.21288e-15
  70
    32
  0
VERTEX
  8
0
  5
2504D
 10
62.8557
 20
14.5355
 30
-3.21240e-15
  70
    32
  0
VERTEX
  8
0
  5
2504E
 10
62.8378
 20
14.5318
 30
-3.21193e-15
  70
    32
  0
VERTEX
  8
0
  5
2504F
 10
62.8198
 20
14.5281
 30
-3.21147e-15
  70
    32
  0
VERTEX
  8
0
  5
25050
 10
62.8019
 20
14.5244
 30
-3.21102e-15
  70
    32
  0
VERTEX
  8
0
  5
25051
 10
62.7839
 20
14.5207
 30
-3.21057e-15
  70
    32
  0
VERTEX
  8
0
  5
25052
 10
62.7659
 20
14.5170
 30
-3.21013e-15
  70
    32
  0
VERTEX
  8
0
  5
25053
 10
62.7480
 20
14.5134
 30
-3.20971e-15
  70
    32
  0
VERTEX
  8
0
  5
25054
 10
62.7300
 20
14.5098
 30
-3.20928e-15
  70
    32
  0
VERTEX
  8
0
  5
25055
 10
62.7120
 20
14.5061
 30
-3.20887e-15
  70
    32
  0
VERTEX
  8
0
  5
25056
 10
62.6940
 20
14.5025
 30
-3.20847e-15
  70
    32
  0
VERTEX
  8
0
  5
25057
 10
62.6760
 20
14.4989
 30
-3.20808e-15
  70
    32
  0
VERTEX
  8
0
  5
25058
 10
62.6581
 20
14.4954
 30
-3.20769e-15
  70
    32
  0
VERTEX
  8
0
  5
25059
 10
62.6401
 20
14.4918
 30
-3.20732e-15
  70
    32
  0
VERTEX
  8
0
  5
2505A
 10
62.6221
 20
14.4882
 30
-3.20695e-15
  70
    32
  0
VERTEX
  8
0
  5
2505B
 10
62.6041
 20
14.4847
 30
-3.20659e-15
  70
    32
  0
VERTEX
  8
0
  5
2505C
 10
62.5861
 20
14.4812
 30
-3.20624e-15
  70
    32
  0
VERTEX
  8
0
  5
2505D
 10
62.5681
 20
14.4777
 30
-3.20590e-15
  70
    32
  0
VERTEX
  8
0
  5
2505E
 10
62.5501
 20
14.4741
 30
-3.20557e-15
  70
    32
  0
VERTEX
  8
0
  5
2505F
 10
62.5320
 20
14.4707
 30
-3.20524e-15
  70
    32
  0
VERTEX
  8
0
  5
25060
 10
62.5140
 20
14.4672
 30
-3.20493e-15
  70
    32
  0
VERTEX
  8
0
  5
25061
 10
62.4960
 20
14.4637
 30
-3.20463e-15
  70
    32
  0
VERTEX
  8
0
  5
25062
 10
62.4780
 20
14.4603
 30
-3.20433e-15
  70
    32
  0
VERTEX
  8
0
  5
25063
 10
62.4600
 20
14.4568
 30
-3.20405e-15
  70
    32
  0
VERTEX
  8
0
  5
25064
 10
62.4419
 20
14.4534
 30
-3.20377e-15
  70
    32
  0
VERTEX
  8
0
  5
25065
 10
62.4239
 20
14.4500
 30
-3.20350e-15
  70
    32
  0
VERTEX
  8
0
  5
25066
 10
62.4059
 20
14.4466
 30
-3.20325e-15
  70
    32
  0
VERTEX
  8
0
  5
25067
 10
62.3878
 20
14.4432
 30
-3.20300e-15
  70
    32
  0
VERTEX
  8
0
  5
25068
 10
62.3698
 20
14.4398
 30
-3.20276e-15
  70
    32
  0
VERTEX
  8
0
  5
25069
 10
62.3518
 20
14.4365
 30
-3.20253e-15
  70
    32
  0
VERTEX
  8
0
  5
2506A
 10
62.3337
 20
14.4331
 30
-3.20231e-15
  70
    32
  0
VERTEX
  8
0
  5
2506B
 10
62.3157
 20
14.4298
 30
-3.20210e-15
  70
    32
  0
VERTEX
  8
0
  5
2506C
 10
62.2976
 20
14.4265
 30
-3.20190e-15
  70
    32
  0
VERTEX
  8
0
  5
2506D
 10
62.2796
 20
14.4232
 30
-3.20171e-15
  70
    32
  0
VERTEX
  8
0
  5
2506E
 10
62.2615
 20
14.4199
 30
-3.20153e-15
  70
    32
  0
VERTEX
  8
0
  5
2506F
 10
62.2435
 20
14.4166
 30
-3.20136e-15
  70
    32
  0
VERTEX
  8
0
  5
25070
 10
62.2254
 20
14.4133
 30
-3.20120e-15
  70
    32
  0
VERTEX
  8
0
  5
25071
 10
62.2074
 20
14.4101
 30
-3.20105e-15
  70
    32
  0
VERTEX
  8
0
  5
25072
 10
62.1893
 20
14.4068
 30
-3.20091e-15
  70
    32
  0
VERTEX
  8
0
  5
25073
 10
62.1712
 20
14.4036
 30
-3.20078e-15
  70
    32
  0
VERTEX
  8
0
  5
25074
 10
62.1532
 20
14.4004
 30
-3.20066e-15
  70
    32
  0
VERTEX
  8
0
  5
25075
 10
62.1351
 20
14.3972
 30
-3.20054e-15
  70
    32
  0
VERTEX
  8
0
  5
25076
 10
62.1170
 20
14.3940
 30
-3.20044e-15
  70
    32
  0
VERTEX
  8
0
  5
25077
 10
62.0990
 20
14.3908
 30
-3.20035e-15
  70
    32
  0
VERTEX
  8
0
  5
25078
 10
62.0809
 20
14.3877
 30
-3.20027e-15
  70
    32
  0
VERTEX
  8
0
  5
25079
 10
62.0628
 20
14.3845
 30
-3.20020e-15
  70
    32
  0
VERTEX
  8
0
  5
2507A
 10
62.0447
 20
14.3814
 30
-3.20014e-15
  70
    32
  0
VERTEX
  8
0
  5
2507B
 10
62.0266
 20
14.3783
 30
-3.20009e-15
  70
    32
  0
VERTEX
  8
0
  5
2507C
 10
62.0086
 20
14.3752
 30
-3.20005e-15
  70
    32
  0
VERTEX
  8
0
  5
2507D
 10
61.9905
 20
14.3721
 30
-3.20003e-15
  70
    32
  0
VERTEX
  8
0
  5
2507E
 10
61.9724
 20
14.3690
 30
-3.20001e-15
  70
    32
  0
VERTEX
  8
0
  5
2507F
 10
61.9543
 20
14.3660
 30
-3.20000e-15
  70
    32
  0
VERTEX
  8
0
  5
25080
 10
61.9362
 20
14.3629
 30
-3.20000e-15
  70
    32
  0
VERTEX
  8
0
  5
25081
 10
61.9181
 20
14.3599
 30
-3.20000e-15
  70
    32
  0
VERTEX
  8
0
  5
25082
 10
61.9001
 20
14.3569
 30
-3.20000e-15
  70
    32
  0
VERTEX
  8
0
  5
25083
 10
61.8820
 20
14.3538
 30
-3.20000e-15
  70
    32
  0
VERTEX
  8
0
  5
25084
 10
61.8639
 20
14.3508
 30
-3.20000e-15
  70
    32
  0
VERTEX
  8
0
  5
25085
 10
61.8458
 20
14.3479
 30
-3.20000e-15
  70
    32
  0
VERTEX
  8
0
  5
25086
 10
61.8277
 20
14.3449
 30
-3.20000e-15
  70
    32
  0
VERTEX
  8
0
  5
25087
 10
61.8096
 20
14.3419
 30
-3.20000e-15
  70
    32
  0
VERTEX
  8
0
  5
25088
 10
61.7915
 20
14.3390
 30
-3.20000e-15
  70
    32
  0
VERTEX
  8
0
  5
25089
 10
61.7734
 20
14.3361
 30
-3.20000e-15
  70
    32
  0
VERTEX
  8
0
  5
2508A
 10
61.7553
 20
14.3332
 30
-3.20000e-15
  70
    32
  0
VERTEX
  8
0
  5
2508B
 10
61.7372
 20
14.3302
 30
-3.20000e-15
  70
    32
  0
VERTEX
  8
0
  5
2508C
 10
61.7191
 20
14.3274
 30
-3.20000e-15
  70
    32
  0
VERTEX
  8
0
  5
2508D
 10
61.7010
 20
14.3245
 30
-3.20000e-15
  70
    32
  0
VERTEX
  8
0
  5
2508E
 10
61.6829
 20
14.3216
 30
-3.20000e-15
  70
    32
  0
VERTEX
  8
0
  5
2508F
 10
61.6648
 20
14.3188
 30
-3.20000e-15
  70
    32
  0
SEQEND
  8
0
  5
25090
  0
LINE
  5
249D7
  8
0
  6
VERDECKT
 62
     1
 10
53.7494013925207668
 20
14.3187677442623809
 30
-0.0000000000000032
 11
61.6648121698440832
 21
14.3187677442623897
 31
-0.0000000000000032
210
0.0
220
1.0
230
-0.0000000000000002
  0
LINE
  5
249D8
  8
0
  6
VERDECKT
 62
     1
 10
75.7071067811828584
 20
0.0000000000030345
 30
0.0
 11
75.7071067811829721
 21
1.5000000000031479
 31
-0.0000000000000003
210
0.0
220
1.0
230
-0.0000000000000002
  0
LINE
  5
249D9
  8
0
  6
VERDECKT
 62
     1
 10
39.707106781182091
 20
-0.000000000000018
 30
0.0
 11
39.707106781182091
 21
1.5000000000000959
 31
-0.0000000000000003
210
0.0
220
1.0
230
-0.0000000000000002
  0
LINE
  5
249DA
  8
0
  6
VERDECKT
 62
     1
 10
108.7691786789045949
 20
0.0000000000004219
 30
0.0
 11
108.7691786789045949
 21
1.50000000000029
 31
-0.0000000000000003
210
0.0
220
1.0
230
-0.0000000000000002
  0
LINE
  5
249DB
  8
0
  6
VERDECKT
 62
     1
 10
96.6450348834572139
 20
0.0000000000005382
 30
0.0
 11
96.645034883457285
 21
1.500000000000407
 31
-0.0000000000000003
210
0.0
220
1.0
230
-0.0000000000000002
  0
LINE
  5
249DC
  8
0
  6
VERDECKT
 62
     1
 10
18.7691786789078101
 20
1.500000000002087
 30
-0.0000000000000003
 11
18.7691786789078101
 21
0.0000000000022187
 31
0.0
210
0.0
220
1.0
230
-0.0000000000000002
  0
LINE
  5
249DD
  8
0
  6
VERDECKT
 62
     1
 10
6.645034883460438
 20
1.500000000002087
 30
-0.0000000000000003
 11
6.645034883460438
 21
0.0000000000022187
 31
0.0
210
0.0
220
1.0
230
-0.0000000000000002
  0
LINE
  5
249DE
  8
0
  6
VERDECKT
 62
     1
 10
90.7071067811826168
 20
12.4368017330122704
 30
-0.0000000000000028
 11
24.7071067811823717
 21
12.4368017330122793
 31
-0.0000000000000028
210
0.0
220
1.0
230
-0.0000000000000002
  0
LINE
  5
249DF
  8
0
  6
VERDECKT
 62
     1
 10
24.7071067811824001
 20
32.2445442376330433
 30
-0.0000000000000072
 11
90.7071067811825742
 21
32.244544237633022
 31
-0.0000000000000072
210
0.0
220
1.0
230
-0.0000000000000002
  0
LINE
  5
249E0
  8
0
  6
VERDECKT
 62
     1
 10
121.2071067811835974
 20
13.9368017330122704
 30
-0.0000000000000031
 11
-5.7928932188186186
 21
13.9368017330122793
 31
-0.0000000000000031
210
0.0
220
1.0
230
-0.0000000000000002
  0
ENDBLK
  5
249E2
  8
0
  0
ENDSEC
  0
SECTION
  2
ENTITIES
  0
TEXT
  5
8F
  8
VOLL
 10
78.076754716981128
 20
31.025947764705851
 30
0.0
 40
1.8
  1

  7
GREEKS
  0
INSERT
  5
18BF
  8
ADSK_ASSOC_ENTITY_BACKUPS
  2
*S0
 10
0.0
 20
0.0
 30
0.0
  0
INSERT
  5
248D6
  8
STEMPEL
  2
A$C761BF35B
 10
58.0
 20
62.5642165690336611
 30
-20.1429451041371905
210
0.0
220
-1.0
230
0.0000000000000001
  0
INSERT
  5
2495E
  8
STEMPEL
  2
A$CC3ED7830
 10
58.0000000000000426
 20
9.7810928224079987
 30
-20.1429451041371905
 50
270.0
210
0.0000000000000001
220
-1.0
230
0.0
  0
INSERT
  5
249E3
  8
STEMPEL
  2
A$CC4FE7493
 10
241.4022285312321117
 20
62.564216569033718
 30
-20.1429451041373113
210
-0.0000000000000005
220
-1.0
230
0.0000000000000001
  0
VIEWPORT
  5
C68
 67
     1
  8
0
 10
-86.7499999999999858
 20
-148.2447509765623863
 30
0.0
 40
567.3581314878892954
 41
298.5415224913494967
 68
     1
 69
     1
1001
ACAD
1000
MVIEW
1002
{
1070
    16
1010
0.0
1020
0.0
1030
0.0
1010
0.0
1020
0.0
1030
1.0
1040
0.0
1040
298.5415224913494967
1040
-86.7499999999999858
1040
-148.2447509765623863
1040
50.0
1040
0.0
1040
0.0
1070
     0
1070
     0
1070
     1
1070
     1
1070
     0
1070
     0
1070
     0
1070
     0
1040
0.0
1040
0.0
1040
0.0
1040
10.0
1040
10.0
1040
10.0
1040
10.0
1070
     0
1002
{
1002
}
1002
}
  0
TEXT
  5
1986
 67
     1
  8
VOLL
 10
405.6964831740547766
 20
-245.0781761654644981
 30
0.0
 40
3.6000000000000001
  1

  7
GREEKS
  0
ENDSEC
  0
EOF
