  0
SECTION
  2
HEADER
  9
$ACADVER
  1
AC1009
  9
$INSBASE
 10
0.0
 20
0.0
 30
0.0
  9
$EXTMIN
 10
-202.4000000000000057
 20
-0.0000000000000422
 30
-0.0000000000000695
  9
$EXTMAX
 10
50.8000006396645887
 20
446.7045868912971969
 30
0.0
  9
$LIMMIN
 10
0.0
 20
0.0
  9
$LIMMAX
 10
840.0000000000002274
 20
593.9999999999997726
  9
$ORTHOMODE
 70
     1
  9
$REGENMODE
 70
     1
  9
$FILLMODE
 70
     1
  9
$QTEXTMODE
 70
     0
  9
$MIRRTEXT
 70
     1
  9
$DRAGMODE
 70
     2
  9
$LTSCALE
 40
20.0
  9
$OSMODE
 70
  2559
  9
$ATTMODE
 70
     1
  9
$TEXTSIZE
 40
3.5
  9
$TRACEWID
 40
1.0
  9
$TEXTSTYLE
  7
STANDARD
  9
$CLAYER
  8
STEMPEL
  9
$CELTYPE
  6
BYLAYER
  9
$CECOLOR
 62
   256
  9
$DIMSCALE
 40
1.0
  9
$DIMASZ
 40
3.5
  9
$DIMEXO
 40
1.0
  9
$DIMDLI
 40
7.0
  9
$DIMRND
 40
0.0
  9
$DIMDLE
 40
0.0
  9
$DIMEXE
 40
1.0
  9
$DIMTP
 40
0.0
  9
$DIMTM
 40
0.0
  9
$DIMTXT
 40
3.5
  9
$DIMCEN
 40
1.5
  9
$DIMTSZ
 40
0.0
  9
$DIMTOL
 70
     0
  9
$DIMLIM
 70
     0
  9
$DIMTIH
 70
     0
  9
$DIMTOH
 70
     0
  9
$DIMSE1
 70
     0
  9
$DIMSE2
 70
     0
  9
$DIMTAD
 70
     1
  9
$DIMZIN
 70
     8
  9
$DIMBLK
  1

  9
$DIMASO
 70
     1
  9
$DIMSHO
 70
     0
  9
$DIMPOST
  1

  9
$DIMAPOST
  1

  9
$DIMALT
 70
     0
  9
$DIMALTD
 70
     2
  9
$DIMALTF
 40
25.3999999999999986
  9
$DIMLFAC
 40
2.0
  9
$DIMTOFL
 70
     1
  9
$DIMTVP
 40
0.0
  9
$DIMTIX
 70
     0
  9
$DIMSOXD
 70
     0
  9
$DIMSAH
 70
     0
  9
$DIMBLK1
  1

  9
$DIMBLK2
  1

  9
$DIMSTYLE
  2
STANDARD
  9
$DIMCLRD
 70
     0
  9
$DIMCLRE
 70
     0
  9
$DIMCLRT
 70
     1
  9
$DIMTFAC
 40
0.5142857142857143
  9
$DIMGAP
 40
1.5
  9
$LUNITS
 70
     2
  9
$LUPREC
 70
     2
  9
$SKETCHINC
 40
1.0
  9
$FILLETRAD
 40
0.0
  9
$AUNITS
 70
     0
  9
$AUPREC
 70
     0
  9
$MENU
  1
ACAD
  9
$ELEVATION
 40
0.0
  9
$PELEVATION
 40
0.0
  9
$THICKNESS
 40
0.0
  9
$LIMCHECK
 70
     0
  9
$BLIPMODE
 70
     0
  9
$CHAMFERA
 40
0.0
  9
$CHAMFERB
 40
0.0
  9
$SKPOLY
 70
     0
  9
$TDCREATE
 40
2455397.867048610933125
  9
$TDUPDATE
 40
2458500.5775694451294839
  9
$TDINDWG
 40
0.5587193633999999
  9
$TDUSRTIMER
 40
0.5587193633999999
  9
$USRTIMER
 70
     1
  9
$ANGBASE
 50
0.0
  9
$ANGDIR
 70
     0
  9
$PDMODE
 70
     0
  9
$PDSIZE
 40
0.0
  9
$PLINEWID
 40
0.0
  9
$COORDS
 70
     1
  9
$SPLFRAME
 70
     0
  9
$SPLINETYPE
 70
     6
  9
$SPLINESEGS
 70
     8
  9
$ATTDIA
 70
     1
  9
$ATTREQ
 70
     1
  9
$HANDLING
 70
     1
  9
$HANDSEED
  5
4DF6
  9
$SURFTAB1
 70
     6
  9
$SURFTAB2
 70
     6
  9
$SURFTYPE
 70
     6
  9
$SURFU
 70
     6
  9
$SURFV
 70
     6
  9
$UCSNAME
  2

  9
$UCSORG
 10
0.0
 20
0.0
 30
0.0
  9
$UCSXDIR
 10
1.0
 20
0.0
 30
0.0
  9
$UCSYDIR
 10
0.0
 20
1.0
 30
0.0
  9
$PUCSNAME
  2

  9
$PUCSORG
 10
0.0
 20
0.0
 30
0.0
  9
$PUCSXDIR
 10
1.0
 20
0.0
 30
0.0
  9
$PUCSYDIR
 10
0.0
 20
1.0
 30
0.0
  9
$USERI1
 70
     0
  9
$USERI2
 70
     0
  9
$USERI3
 70
     0
  9
$USERI4
 70
     0
  9
$USERI5
 70
     0
  9
$USERR1
 40
0.0
  9
$USERR2
 40
0.0
  9
$USERR3
 40
0.0
  9
$USERR4
 40
0.0
  9
$USERR5
 40
0.0
  9
$WORLDVIEW
 70
     1
  9
$SHADEDGE
 70
     3
  9
$SHADEDIF
 70
    70
  9
$TILEMODE
 70
     1
  9
$MAXACTVP
 70
    16
  9
$PLIMCHECK
 70
     0
  9
$PEXTMIN
 10
1.0000000000000000E+20
 20
1.0000000000000000E+20
 30
1.0000000000000000E+20
  9
$PEXTMAX
 10
-1.0000000000000000E+20
 20
-1.0000000000000000E+20
 30
-1.0000000000000000E+20
  9
$PLIMMIN
 10
-5.7377405068367171
 20
-3.1785530134047848
  9
$PLIMMAX
 10
204.4705755150492053
 20
294.1221172219420055
  9
$UNITMODE
 70
     0
  9
$VISRETAIN
 70
     0
  9
$PLINEGEN
 70
     0
  9
$PSLTSCALE
 70
     0
  0
ENDSEC
  0
SECTION
  2
TABLES
  0
TABLE
  2
VPORT
 70
     1
  0
VPORT
  2
*ACTIVE
 70
     0
 10
0.0
 20
0.0
 11
1.0
 21
1.0
 12
0.0178181297816309
 22
0.0181172449445057
 13
0.0
 23
0.0
 14
1.0
 24
1.0
 15
10.0
 25
10.0
 16
-0.0000000000002984
 26
0.0
 36
1320.4380977662849546
 17
-75.7999999999998408
 27
223.3391533394473925
 37
-0.0000000000000328
 40
449.0281974994709913
 41
1.868197278911564
 42
50.0
 43
0.0
 44
0.0
 50
0.0
 51
0.0
 71
     0
 72
  1500
 73
     1
 74
     0
 75
     0
 76
     0
 77
     0
 78
     0
  0
ENDTAB
  0
TABLE
  2
LTYPE
 70
     3
  0
LTYPE
  2
CONTINUOUS
 70
     0
  3
Solid line
 72
    65
 73
     0
 40
0.0
  0
LTYPE
  2
STRICHPUNKT
 70
     0
  3
__ . __ . __ . __ . __ . __ . __ . __ . __ . __
 72
    65
 73
     4
 40
1.0
 49
0.5
 49
-0.25
 49
0.0
 49
-0.25
  0
LTYPE
  2
VERDECKT
 70
     0
  3
_ _ _ _ _ _ _ _ _ _ _ _ _ _ _ _ _ _ _ _ _ _ _
 72
    65
 73
     2
 40
0.375
 49
0.25
 49
-0.125
  0
ENDTAB
  0
TABLE
  2
LAYER
 70
     6
  0
LAYER
  2
0
 70
     0
 62
     7
  6
CONTINUOUS
  0
LAYER
  2
VOLL
 70
     0
 62
     1
  6
CONTINUOUS
  0
LAYER
  2
STEMPEL
 70
     0
 62
     3
  6
CONTINUOUS
  0
LAYER
  2
TEXT
 70
     0
 62
     7
  6
CONTINUOUS
  0
LAYER
  2
DEFPOINTS
 70
     0
 62
     7
  6
CONTINUOUS
  0
LAYER
  2
ADSK_ASSOC_ENTITY_BACKUPS
 70
     1
 62
    -7
  6
CONTINUOUS
  0
ENDTAB
  0
TABLE
  2
STYLE
 70
     2
  0
STYLE
  2
STANDARD
 70
     0
 40
0.0
 41
0.8
 50
0.0
 71
     0
 42
3.5
  3
simplex.shx
  4

  0
STYLE
  2
GREEKS
 70
     0
 40
0.0
 41
0.8
 50
0.0
 71
     0
 42
2.5
  3
SIMPLEX.shx
  4

  0
ENDTAB
  0
TABLE
  2
VIEW
 70
     0
  0
ENDTAB
  0
TABLE
  2
UCS
 70
     0
  0
ENDTAB
  0
TABLE
  2
APPID
 70
    21
  0
APPID
  2
ACAD
 70
     0
  0
APPID
  2
ACAD_EXEMPT_FROM_CAD_STANDARDS
 70
     0
  0
APPID
  2
ACAD_NAV_VCDISPLAY
 70
     0
  0
APPID
  2
ACAD_MLEADERVER
 70
     0
  0
APPID
  2
ACAD_PSEXT
 70
     0
  0
APPID
  2
ACAECLAYERSTANDARD
 70
     0
  0
APPID
  2
ACCMTRANSPARENCY
 70
     0
  0
APPID
  2
ACAD_STEPID
 70
     0
  0
APPID
  2
ACADANNOTATIVE
 70
     0
  0
APPID
  2
ACDBDYNAMICBLOCKGUID
 70
     0
  0
APPID
  2
ACSYNERGY
 70
     0
  0
APPID
  2
SYNERGY_BODY_TBR_ID
 70
     0
  0
APPID
  2
ACAD_VIEW_EDGE_ID
 70
     0
  0
APPID
  2
ACSYNERGYSKETCH
 70
     0
  0
APPID
  2
ACADANNOPO
 70
     0
  0
APPID
  2
ACAD_MODELDOC_XFORM
 70
     0
  0
APPID
  2
ACAD_DSTYLE_DIMJAG
 70
     0
  0
APPID
  2
ACAD_DSTYLE_DIMTALN
 70
     0
  0
APPID
  2
ACADANNOMONITORALERTICONDI
 70
     0
  0
APPID
  2
ACAUTHENVIRON
 70
     0
  0
APPID
  2
ACDBDYNAMICBLOCKTRUENAME
 70
     0
  0
ENDTAB
  0
TABLE
  2
DIMSTYLE
 70
     1
  0
DIMSTYLE
  2
STANDARD
 70
     0
  3

  4

  5

  6

  7

 40
1.0
 41
0.18
 42
0.0625
 43
0.38
 44
0.18
 45
0.0
 46
0.0
 47
0.0
 48
0.0
140
0.18
141
0.09
142
0.0
143
25.3999999999999986
144
1.0
145
0.0
146
1.0
147
0.09
 71
     0
 72
     0
 73
     1
 74
     1
 75
     0
 76
     0
 77
     0
 78
     0
170
     0
171
     2
172
     0
173
     0
174
     0
175
     0
176
     0
177
     0
178
     0
  0
ENDTAB
  0
ENDSEC
  0
SECTION
  2
BLOCKS
  0
BLOCK
  8
0
  2
$MODEL_SPACE
 70
     0
 10
0.0
 20
0.0
 30
0.0
  3
$MODEL_SPACE
  1

  0
ENDBLK
  5
38
  8
0
  0
BLOCK
 67
     1
  8
0
  2
$PAPER_SPACE
 70
     0
 10
0.0
 20
0.0
 30
0.0
  3
$PAPER_SPACE
  1

  0
ENDBLK
  5
36
 67
     1
  8
0
  0
BLOCK
  8
0
  2
*S0
 70
     1
 10
0.0
 20
0.0
 30
0.0
  3
*S0
  1

  0
ENDBLK
  5
18D9
  8
0
  0
BLOCK
  8
0
  2
A$C13DF3C4A
 70
     0
 10
0.0
 20
0.0
 30
0.0
  3
A$C13DF3C4A
  1

  0
LINE
  5
4B26
  8
0
  6
CONTINUOUS
 62
     3
 10
15.7999999825746205
 20
294.661941009828297
 30
-0.0000000000000654
 11
15.7999999825746205
 21
292.661941009828297
 31
-0.000000000000065
210
0.0
220
1.0
230
-0.0000000000000002
  0
LINE
  5
4B27
  8
0
  6
CONTINUOUS
 62
     3
 10
50.7999999999997414
 20
294.661941009828297
 30
-0.0000000000000654
 11
15.7999999825746205
 21
294.661941009828297
 31
-0.0000000000000654
210
0.0
220
1.0
230
-0.0000000000000002
  0
LINE
  5
4B28
  8
0
  6
CONTINUOUS
 62
     3
 10
15.7999999825746098
 20
292.661941009828297
 30
-0.000000000000065
 11
50.7999999999997414
 21
292.661941009828297
 31
-0.000000000000065
210
0.0
220
1.0
230
-0.0000000000000002
  0
LINE
  5
4B29
  8
0
  6
CONTINUOUS
 62
     3
 10
50.7999999999997414
 20
292.661941009828297
 30
-0.000000000000065
 11
50.7999999999997414
 21
294.661941009828297
 31
-0.0000000000000654
210
0.0
220
1.0
230
-0.0000000000000002
  0
LINE
  5
4B2A
  8
0
  6
CONTINUOUS
 62
     3
 10
-50.800000000000189
 20
172.4426458814691046
 30
-0.0000000000000383
 11
15.8000000169906905
 21
295.1045869225907268
 31
-0.0000000000000655
210
0.0
220
1.0
230
-0.0000000000000002
  0
LINE
  5
4B2B
  8
0
  6
CONTINUOUS
 62
     3
 10
50.7999999999995921
 20
295.1045868912971741
 30
-0.0000000000000655
 11
15.79999999999972
 21
295.1045868912971741
 31
-0.0000000000000655
210
0.0
220
1.0
230
-0.0000000000000002
  0
LINE
  5
4B2C
  8
0
  6
CONTINUOUS
 62
     3
 10
-49.9251133647412786
 20
0.0
 30
0.0
 11
49.9251133647408025
 21
0.0
 31
0.0
210
0.0
220
1.0
230
-0.0000000000000002
  0
LINE
  5
4B2D
  8
0
  6
CONTINUOUS
 62
     3
 10
50.7999999999997414
 20
295.1045868912971741
 30
-0.0000000000000655
 11
50.7999999999997414
 21
9.9999999999997176
 31
-0.0000000000000022
210
0.0
220
1.0
230
-0.0000000000000002
  0
LINE
  5
4B2E
  8
0
  6
CONTINUOUS
 62
     3
 10
-50.800000000000189
 20
172.4426458814691046
 30
-0.0000000000000383
 11
-50.800000000000189
 21
9.9999999999997176
 31
-0.0000000000000022
210
0.0
220
1.0
230
-0.0000000000000002
  0
LINE
  5
4B2F
  8
0
  6
CONTINUOUS
 62
     3
 10
-49.9251133647416196
 20
-0.0000000000000311
 30
0.0
 11
-50.8000000000003098
 21
9.9999999999997051
 31
-0.0000000000000022
210
0.0
220
1.0
230
-0.0000000000000002
  0
LINE
  5
4B30
  8
0
  6
CONTINUOUS
 62
     3
 10
49.9251133647411578
 20
-0.000000000000032
 30
0.0
 11
50.7999999999998479
 21
9.9999999999997051
 31
-0.0000000000000022
210
0.0
220
1.0
230
-0.0000000000000002
  0
LINE
  5
4B31
  8
0
  6
VERDECKT
 62
     1
 10
-48.7296797270314599
 20
0.1045868912971884
 30
0.0
 11
48.7296797270309909
 21
0.1045868912971884
 31
0.0
210
0.0
220
1.0
230
-0.0000000000000002
  0
LINE
  5
4B32
  8
0
  6
VERDECKT
 62
     1
 10
49.5999999999999304
 20
295.1045868912971741
 30
-0.0000000000000655
 11
49.5999999999999304
 21
10.0522934456480506
 31
-0.0000000000000022
210
0.0
220
1.0
230
-0.0000000000000002
  0
LINE
  5
4B33
  8
0
  6
VERDECKT
 62
     1
 10
-49.6000000000003922
 20
174.652770944708891
 30
-0.0000000000000388
 11
-49.6000000000003922
 21
10.0522934456480506
 31
-0.0000000000000022
210
0.0
220
1.0
230
-0.0000000000000002
  0
LINE
  5
4B34
  8
0
  6
VERDECKT
 62
     1
 10
-49.9251133647412715
 20
0.0000000000000142
 30
0.0
 11
-48.7296797270316802
 21
0.1045868912971599
 31
0.0
210
0.0
220
1.0
230
-0.0000000000000002
  0
LINE
  5
4B35
  8
0
  6
VERDECKT
 62
     1
 10
48.7296797270312183
 20
0.1045868912971599
 30
0.0
 11
49.9251133647408025
 21
0.0000000000000142
 31
0.0
210
0.0
220
1.0
230
-0.0000000000000002
  0
LINE
  5
4B36
  8
0
  6
VERDECKT
 62
     1
 10
-48.7296797270313604
 20
0.1045868912971972
 30
0.0
 11
-49.6000000000004988
 21
10.0522934456480595
 31
-0.0000000000000022
210
0.0
220
1.0
230
-0.0000000000000002
  0
LINE
  5
4B37
  8
0
  6
VERDECKT
 62
     1
 10
48.7296797270308986
 20
0.1045868912971964
 30
0.0
 11
49.6000000000000369
 21
10.0522934456480595
 31
-0.0000000000000022
210
0.0
220
1.0
230
-0.0000000000000002
  0
ENDBLK
  5
4B39
  8
0
  0
BLOCK
  8
0
  2
A$C2C4B60F9
 70
     0
 10
0.0
 20
0.0
 30
0.0
  3
A$C2C4B60F9
  1

  0
LINE
  5
4B3D
  8
0
  6
CONTINUOUS
 62
     3
 10
47.0161674379212684
 20
292.6619410098284106
 30
-0.000000000000065
 11
-47.0161674379213395
 21
292.6619410098284106
 31
-0.000000000000065
210
-0.0000000000000002
220
1.0
230
-0.0000000000000002
  0
LINE
  5
4B3E
  8
0
  6
CONTINUOUS
 62
     3
 10
-47.0161674379213395
 20
294.6619410098284106
 30
-0.0000000000000654
 11
47.0161674379212684
 21
294.6619410098284106
 31
-0.0000000000000654
210
-0.0000000000000002
220
1.0
230
-0.0000000000000002
  0
POLYLINE
  5
4B3F
  8
0
  6
CONTINUOUS
 62
     3
 10
48.2804310463304276
 20
295.1045869225906699
 30
-0.0000000000000656
 66
     1
 70
     8
  0
VERTEX
  8
0
  5
4BEE
 10
48.2804
 20
295.105
 30
-6.55693e-14
  70
    32
  0
VERTEX
  8
0
  5
4BEF
 10
48.7252
 20
292.470
 30
-6.49837e-14
  70
    32
  0
VERTEX
  8
0
  5
4BF0
 10
49.1277
 20
289.813
 30
-6.43930e-14
  70
    32
  0
VERTEX
  8
0
  5
4BF1
 10
49.4875
 20
287.135
 30
-6.37976e-14
  70
    32
  0
VERTEX
  8
0
  5
4BF2
 10
49.8042
 20
284.439
 30
-6.31982e-14
  70
    32
  0
VERTEX
  8
0
  5
4BF3
 10
50.0776
 20
281.727
 30
-6.25953e-14
  70
    32
  0
VERTEX
  8
0
  5
4BF4
 10
50.3075
 20
279.001
 30
-6.19893e-14
  70
    32
  0
VERTEX
  8
0
  5
4BF5
 10
50.4937
 20
276.264
 30
-6.13807e-14
  70
    32
  0
VERTEX
  8
0
  5
4BF6
 10
50.6360
 20
273.518
 30
-6.07702e-14
  70
    32
  0
VERTEX
  8
0
  5
4BF7
 10
50.7342
 20
270.765
 30
-6.01583e-14
  70
    32
  0
VERTEX
  8
0
  5
4BF8
 10
50.7884
 20
268.008
 30
-5.95454e-14
  70
    32
  0
VERTEX
  8
0
  5
4BF9
 10
50.7983
 20
265.250
 30
-5.89322e-14
  70
    32
  0
VERTEX
  8
0
  5
4BFA
 10
50.7642
 20
262.492
 30
-5.83190e-14
  70
    32
  0
VERTEX
  8
0
  5
4BFB
 10
50.6859
 20
259.737
 30
-5.77066e-14
  70
    32
  0
VERTEX
  8
0
  5
4BFC
 10
50.5635
 20
256.987
 30
-5.70954e-14
  70
    32
  0
VERTEX
  8
0
  5
4BFD
 10
50.3972
 20
254.246
 30
-5.64859e-14
  70
    32
  0
VERTEX
  8
0
  5
4BFE
 10
50.1871
 20
251.515
 30
-5.58787e-14
  70
    32
  0
VERTEX
  8
0
  5
4BFF
 10
49.9333
 20
248.796
 30
-5.52743e-14
  70
    32
  0
VERTEX
  8
0
  5
4C00
 10
49.6362
 20
246.092
 30
-5.46732e-14
  70
    32
  0
VERTEX
  8
0
  5
4C01
 10
49.2959
 20
243.406
 30
-5.40760e-14
  70
    32
  0
VERTEX
  8
0
  5
4C02
 10
48.9127
 20
240.739
 30
-5.34831e-14
  70
    32
  0
VERTEX
  8
0
  5
4C03
 10
48.4870
 20
238.094
 30
-5.28951e-14
  70
    32
  0
VERTEX
  8
0
  5
4C04
 10
48.0192
 20
235.473
 30
-5.23125e-14
  70
    32
  0
VERTEX
  8
0
  5
4C05
 10
47.5096
 20
232.879
 30
-5.17358e-14
  70
    32
  0
VERTEX
  8
0
  5
4C06
 10
46.9587
 20
230.314
 30
-5.11655e-14
  70
    32
  0
VERTEX
  8
0
  5
4C07
 10
46.3670
 20
227.780
 30
-5.06022e-14
  70
    32
  0
VERTEX
  8
0
  5
4C08
 10
45.7350
 20
225.279
 30
-5.00461e-14
  70
    32
  0
VERTEX
  8
0
  5
4C09
 10
45.0632
 20
222.813
 30
-4.94980e-14
  70
    32
  0
VERTEX
  8
0
  5
4C0A
 10
44.3522
 20
220.385
 30
-4.89582e-14
  70
    32
  0
VERTEX
  8
0
  5
4C0B
 10
43.6027
 20
217.997
 30
-4.84273e-14
  70
    32
  0
VERTEX
  8
0
  5
4C0C
 10
42.8153
 20
215.650
 30
-4.79056e-14
  70
    32
  0
VERTEX
  8
0
  5
4C0D
 10
41.9907
 20
213.347
 30
-4.73936e-14
  70
    32
  0
VERTEX
  8
0
  5
4C0E
 10
41.1296
 20
211.090
 30
-4.68918e-14
  70
    32
  0
VERTEX
  8
0
  5
4C0F
 10
40.2327
 20
208.881
 30
-4.64007e-14
  70
    32
  0
VERTEX
  8
0
  5
4C10
 10
39.3008
 20
206.721
 30
-4.59205e-14
  70
    32
  0
VERTEX
  8
0
  5
4C11
 10
38.3348
 20
204.613
 30
-4.54519e-14
  70
    32
  0
VERTEX
  8
0
  5
4C12
 10
37.3354
 20
202.558
 30
-4.49951e-14
  70
    32
  0
VERTEX
  8
0
  5
4C13
 10
36.3036
 20
200.559
 30
-4.45505e-14
  70
    32
  0
VERTEX
  8
0
  5
4C14
 10
35.2402
 20
198.616
 30
-4.41186e-14
  70
    32
  0
VERTEX
  8
0
  5
4C15
 10
34.1462
 20
196.732
 30
-4.36997e-14
  70
    32
  0
VERTEX
  8
0
  5
4C16
 10
33.0225
 20
194.908
 30
-4.32943e-14
  70
    32
  0
VERTEX
  8
0
  5
4C17
 10
31.8701
 20
193.146
 30
-4.29025e-14
  70
    32
  0
VERTEX
  8
0
  5
4C18
 10
30.6900
 20
191.447
 30
-4.25248e-14
  70
    32
  0
VERTEX
  8
0
  5
4C19
 10
29.4832
 20
189.813
 30
-4.21616e-14
  70
    32
  0
VERTEX
  8
0
  5
4C1A
 10
28.2508
 20
188.245
 30
-4.18131e-14
  70
    32
  0
VERTEX
  8
0
  5
4C1B
 10
26.9938
 20
186.745
 30
-4.14796e-14
  70
    32
  0
VERTEX
  8
0
  5
4C1C
 10
25.7134
 20
185.314
 30
-4.11614e-14
  70
    32
  0
VERTEX
  8
0
  5
4C1D
 10
24.4106
 20
183.952
 30
-4.08588e-14
  70
    32
  0
VERTEX
  8
0
  5
4C1E
 10
23.0866
 20
182.663
 30
-4.05720e-14
  70
    32
  0
VERTEX
  8
0
  5
4C1F
 10
21.7425
 20
181.445
 30
-4.03014e-14
  70
    32
  0
VERTEX
  8
0
  5
4C20
 10
20.3795
 20
180.302
 30
-4.00471e-14
  70
    32
  0
VERTEX
  8
0
  5
4C21
 10
18.9988
 20
179.232
 30
-3.98094e-14
  70
    32
  0
VERTEX
  8
0
  5
4C22
 10
17.6016
 20
178.238
 30
-3.95885e-14
  70
    32
  0
VERTEX
  8
0
  5
4C23
 10
16.1891
 20
177.321
 30
-3.93845e-14
  70
    32
  0
VERTEX
  8
0
  5
4C24
 10
14.7625
 20
176.480
 30
-3.91976e-14
  70
    32
  0
VERTEX
  8
0
  5
4C25
 10
13.3231
 20
175.718
 30
-3.90281e-14
  70
    32
  0
VERTEX
  8
0
  5
4C26
 10
11.8721
 20
175.034
 30
-3.88760e-14
  70
    32
  0
VERTEX
  8
0
  5
4C27
 10
10.4107
 20
174.428
 30
-3.87415e-14
  70
    32
  0
VERTEX
  8
0
  5
4C28
 10
8.94035
 20
173.903
 30
-3.86247e-14
  70
    32
  0
VERTEX
  8
0
  5
4C29
 10
7.46219
 20
173.458
 30
-3.85256e-14
  70
    32
  0
VERTEX
  8
0
  5
4C2A
 10
5.97755
 20
173.093
 30
-3.84445e-14
  70
    32
  0
VERTEX
  8
0
  5
4C2B
 10
4.48772
 20
172.808
 30
-3.83813e-14
  70
    32
  0
VERTEX
  8
0
  5
4C2C
 10
2.99398
 20
172.605
 30
-3.83362e-14
  70
    32
  0
VERTEX
  8
0
  5
4C2D
 10
1.49764
 20
172.483
 30
-3.83090e-14
  70
    32
  0
VERTEX
  8
0
  5
4C2E
 10
-7.33183e-07
 20
172.443
 30
-3.83000e-14
  70
    32
  0
VERTEX
  8
0
  5
4C2F
 10
-1.49764
 20
172.483
 30
-3.83090e-14
  70
    32
  0
VERTEX
  8
0
  5
4C30
 10
-2.99398
 20
172.605
 30
-3.83362e-14
  70
    32
  0
VERTEX
  8
0
  5
4C31
 10
-4.48772
 20
172.808
 30
-3.83813e-14
  70
    32
  0
VERTEX
  8
0
  5
4C32
 10
-5.97756
 20
173.093
 30
-3.84445e-14
  70
    32
  0
VERTEX
  8
0
  5
4C33
 10
-7.46219
 20
173.458
 30
-3.85256e-14
  70
    32
  0
VERTEX
  8
0
  5
4C34
 10
-8.94035
 20
173.903
 30
-3.86247e-14
  70
    32
  0
VERTEX
  8
0
  5
4C35
 10
-10.4107
 20
174.428
 30
-3.87415e-14
  70
    32
  0
VERTEX
  8
0
  5
4C36
 10
-11.8721
 20
175.034
 30
-3.88760e-14
  70
    32
  0
VERTEX
  8
0
  5
4C37
 10
-13.3231
 20
175.718
 30
-3.90281e-14
  70
    32
  0
VERTEX
  8
0
  5
4C38
 10
-14.7625
 20
176.480
 30
-3.91976e-14
  70
    32
  0
VERTEX
  8
0
  5
4C39
 10
-16.1891
 20
177.321
 30
-3.93845e-14
  70
    32
  0
VERTEX
  8
0
  5
4C3A
 10
-17.6016
 20
178.238
 30
-3.95885e-14
  70
    32
  0
VERTEX
  8
0
  5
4C3B
 10
-18.9988
 20
179.232
 30
-3.98094e-14
  70
    32
  0
VERTEX
  8
0
  5
4C3C
 10
-20.3795
 20
180.302
 30
-4.00471e-14
  70
    32
  0
VERTEX
  8
0
  5
4C3D
 10
-21.7425
 20
181.445
 30
-4.03014e-14
  70
    32
  0
VERTEX
  8
0
  5
4C3E
 10
-23.0866
 20
182.663
 30
-4.05720e-14
  70
    32
  0
VERTEX
  8
0
  5
4C3F
 10
-24.4106
 20
183.952
 30
-4.08588e-14
  70
    32
  0
VERTEX
  8
0
  5
4C40
 10
-25.7134
 20
185.314
 30
-4.11614e-14
  70
    32
  0
VERTEX
  8
0
  5
4C41
 10
-26.9938
 20
186.745
 30
-4.14796e-14
  70
    32
  0
VERTEX
  8
0
  5
4C42
 10
-28.2508
 20
188.245
 30
-4.18131e-14
  70
    32
  0
VERTEX
  8
0
  5
4C43
 10
-29.4832
 20
189.813
 30
-4.21616e-14
  70
    32
  0
VERTEX
  8
0
  5
4C44
 10
-30.6900
 20
191.447
 30
-4.25248e-14
  70
    32
  0
VERTEX
  8
0
  5
4C45
 10
-31.8701
 20
193.146
 30
-4.29025e-14
  70
    32
  0
VERTEX
  8
0
  5
4C46
 10
-33.0225
 20
194.908
 30
-4.32943e-14
  70
    32
  0
VERTEX
  8
0
  5
4C47
 10
-34.1462
 20
196.732
 30
-4.36997e-14
  70
    32
  0
VERTEX
  8
0
  5
4C48
 10
-35.2402
 20
198.616
 30
-4.41186e-14
  70
    32
  0
VERTEX
  8
0
  5
4C49
 10
-36.3036
 20
200.559
 30
-4.45505e-14
  70
    32
  0
VERTEX
  8
0
  5
4C4A
 10
-37.3354
 20
202.558
 30
-4.49951e-14
  70
    32
  0
VERTEX
  8
0
  5
4C4B
 10
-38.3348
 20
204.613
 30
-4.54519e-14
  70
    32
  0
VERTEX
  8
0
  5
4C4C
 10
-39.3008
 20
206.721
 30
-4.59205e-14
  70
    32
  0
VERTEX
  8
0
  5
4C4D
 10
-40.2327
 20
208.881
 30
-4.64007e-14
  70
    32
  0
VERTEX
  8
0
  5
4C4E
 10
-41.1296
 20
211.090
 30
-4.68918e-14
  70
    32
  0
VERTEX
  8
0
  5
4C4F
 10
-41.9907
 20
213.347
 30
-4.73936e-14
  70
    32
  0
VERTEX
  8
0
  5
4C50
 10
-42.8153
 20
215.650
 30
-4.79056e-14
  70
    32
  0
VERTEX
  8
0
  5
4C51
 10
-43.6027
 20
217.997
 30
-4.84273e-14
  70
    32
  0
VERTEX
  8
0
  5
4C52
 10
-44.3522
 20
220.385
 30
-4.89582e-14
  70
    32
  0
VERTEX
  8
0
  5
4C53
 10
-45.0632
 20
222.813
 30
-4.94980e-14
  70
    32
  0
VERTEX
  8
0
  5
4C54
 10
-45.7350
 20
225.279
 30
-5.00461e-14
  70
    32
  0
VERTEX
  8
0
  5
4C55
 10
-46.3670
 20
227.780
 30
-5.06022e-14
  70
    32
  0
VERTEX
  8
0
  5
4C56
 10
-46.9587
 20
230.314
 30
-5.11655e-14
  70
    32
  0
VERTEX
  8
0
  5
4C57
 10
-47.5096
 20
232.879
 30
-5.17358e-14
  70
    32
  0
VERTEX
  8
0
  5
4C58
 10
-48.0192
 20
235.473
 30
-5.23125e-14
  70
    32
  0
VERTEX
  8
0
  5
4C59
 10
-48.4870
 20
238.094
 30
-5.28951e-14
  70
    32
  0
VERTEX
  8
0
  5
4C5A
 10
-48.9127
 20
240.739
 30
-5.34831e-14
  70
    32
  0
VERTEX
  8
0
  5
4C5B
 10
-49.2959
 20
243.406
 30
-5.40760e-14
  70
    32
  0
VERTEX
  8
0
  5
4C5C
 10
-49.6362
 20
246.092
 30
-5.46732e-14
  70
    32
  0
VERTEX
  8
0
  5
4C5D
 10
-49.9333
 20
248.796
 30
-5.52743e-14
  70
    32
  0
VERTEX
  8
0
  5
4C5E
 10
-50.1871
 20
251.515
 30
-5.58787e-14
  70
    32
  0
VERTEX
  8
0
  5
4C5F
 10
-50.3972
 20
254.246
 30
-5.64859e-14
  70
    32
  0
VERTEX
  8
0
  5
4C60
 10
-50.5635
 20
256.987
 30
-5.70954e-14
  70
    32
  0
VERTEX
  8
0
  5
4C61
 10
-50.6859
 20
259.737
 30
-5.77066e-14
  70
    32
  0
VERTEX
  8
0
  5
4C62
 10
-50.7642
 20
262.492
 30
-5.83190e-14
  70
    32
  0
VERTEX
  8
0
  5
4C63
 10
-50.7983
 20
265.250
 30
-5.89322e-14
  70
    32
  0
VERTEX
  8
0
  5
4C64
 10
-50.7884
 20
268.008
 30
-5.95454e-14
  70
    32
  0
VERTEX
  8
0
  5
4C65
 10
-50.7342
 20
270.765
 30
-6.01583e-14
  70
    32
  0
VERTEX
  8
0
  5
4C66
 10
-50.6360
 20
273.518
 30
-6.07702e-14
  70
    32
  0
VERTEX
  8
0
  5
4C67
 10
-50.4937
 20
276.264
 30
-6.13807e-14
  70
    32
  0
VERTEX
  8
0
  5
4C68
 10
-50.3075
 20
279.001
 30
-6.19893e-14
  70
    32
  0
VERTEX
  8
0
  5
4C69
 10
-50.0776
 20
281.727
 30
-6.25953e-14
  70
    32
  0
VERTEX
  8
0
  5
4C6A
 10
-49.8042
 20
284.439
 30
-6.31982e-14
  70
    32
  0
VERTEX
  8
0
  5
4C6B
 10
-49.4875
 20
287.135
 30
-6.37976e-14
  70
    32
  0
VERTEX
  8
0
  5
4C6C
 10
-49.1277
 20
289.813
 30
-6.43930e-14
  70
    32
  0
VERTEX
  8
0
  5
4C6D
 10
-48.7252
 20
292.470
 30
-6.49837e-14
  70
    32
  0
VERTEX
  8
0
  5
4C6E
 10
-48.2804
 20
295.105
 30
-6.55693e-14
  70
    32
  0
SEQEND
  8
0
  5
4C6F
  0
LINE
  5
4B40
  8
0
  6
CONTINUOUS
 62
     3
 10
47.0161674320654797
 20
295.1045868912972878
 30
-0.0000000000000655
 11
48.2804308182931905
 21
295.1045868912972878
 31
-0.0000000000000655
210
-0.0000000000000002
220
1.0
230
-0.0000000000000002
  0
POLYLINE
  5
4B41
  8
0
  6
CONTINUOUS
 62
     3
 10
-47.0161672043238568
 20
295.1045868592040051
 30
-0.0000000000000656
 66
     1
 70
     8
  0
VERTEX
  8
0
  5
4C70
 10
-47.0162
 20
295.105
 30
-6.55665e-14
  70
    32
  0
VERTEX
  8
0
  5
4C71
 10
-47.4633
 20
292.528
 30
-6.49940e-14
  70
    32
  0
VERTEX
  8
0
  5
4C72
 10
-47.8689
 20
289.929
 30
-6.44163e-14
  70
    32
  0
VERTEX
  8
0
  5
4C73
 10
-48.2324
 20
287.308
 30
-6.38340e-14
  70
    32
  0
VERTEX
  8
0
  5
4C74
 10
-48.5537
 20
284.669
 30
-6.32475e-14
  70
    32
  0
VERTEX
  8
0
  5
4C75
 10
-48.8325
 20
282.013
 30
-6.26574e-14
  70
    32
  0
VERTEX
  8
0
  5
4C76
 10
-49.0684
 20
279.344
 30
-6.20642e-14
  70
    32
  0
VERTEX
  8
0
  5
4C77
 10
-49.2613
 20
276.662
 30
-6.14683e-14
  70
    32
  0
VERTEX
  8
0
  5
4C78
 10
-49.4110
 20
273.972
 30
-6.08704e-14
  70
    32
  0
VERTEX
  8
0
  5
4C79
 10
-49.5174
 20
271.274
 30
-6.02709e-14
  70
    32
  0
VERTEX
  8
0
  5
4C7A
 10
-49.5804
 20
268.572
 30
-5.96705e-14
  70
    32
  0
VERTEX
  8
0
  5
4C7B
 10
-49.5999
 20
265.867
 30
-5.90695e-14
  70
    32
  0
VERTEX
  8
0
  5
4C7C
 10
-49.5760
 20
263.163
 30
-5.84685e-14
  70
    32
  0
VERTEX
  8
0
  5
4C7D
 10
-49.5086
 20
260.461
 30
-5.78681e-14
  70
    32
  0
VERTEX
  8
0
  5
4C7E
 10
-49.3978
 20
257.764
 30
-5.72687e-14
  70
    32
  0
VERTEX
  8
0
  5
4C7F
 10
-49.2437
 20
255.074
 30
-5.66710e-14
  70
    32
  0
VERTEX
  8
0
  5
4C80
 10
-49.0464
 20
252.394
 30
-5.60754e-14
  70
    32
  0
VERTEX
  8
0
  5
4C81
 10
-48.8061
 20
249.725
 30
-5.54825e-14
  70
    32
  0
VERTEX
  8
0
  5
4C82
 10
-48.5230
 20
247.071
 30
-5.48927e-14
  70
    32
  0
VERTEX
  8
0
  5
4C83
 10
-48.1974
 20
244.434
 30
-5.43066e-14
  70
    32
  0
VERTEX
  8
0
  5
4C84
 10
-47.8296
 20
241.815
 30
-5.37247e-14
  70
    32
  0
VERTEX
  8
0
  5
4C85
 10
-47.4198
 20
239.218
 30
-5.31476e-14
  70
    32
  0
VERTEX
  8
0
  5
4C86
 10
-46.9684
 20
236.644
 30
-5.25756e-14
  70
    32
  0
VERTEX
  8
0
  5
4C87
 10
-46.4759
 20
234.096
 30
-5.20094e-14
  70
    32
  0
VERTEX
  8
0
  5
4C88
 10
-45.9426
 20
231.576
 30
-5.14493e-14
  70
    32
  0
VERTEX
  8
0
  5
4C89
 10
-45.3691
 20
229.086
 30
-5.08960e-14
  70
    32
  0
VERTEX
  8
0
  5
4C8A
 10
-44.7557
 20
226.628
 30
-5.03499e-14
  70
    32
  0
VERTEX
  8
0
  5
4C8B
 10
-44.1032
 20
224.205
 30
-4.98115e-14
  70
    32
  0
VERTEX
  8
0
  5
4C8C
 10
-43.4120
 20
221.819
 30
-4.92812e-14
  70
    32
  0
VERTEX
  8
0
  5
4C8D
 10
-42.6827
 20
219.471
 30
-4.87595e-14
  70
    32
  0
VERTEX
  8
0
  5
4C8E
 10
-41.9160
 20
217.164
 30
-4.82468e-14
  70
    32
  0
VERTEX
  8
0
  5
4C8F
 10
-41.1125
 20
214.900
 30
-4.77437e-14
  70
    32
  0
VERTEX
  8
0
  5
4C90
 10
-40.2731
 20
212.681
 30
-4.72505e-14
  70
    32
  0
VERTEX
  8
0
  5
4C91
 10
-39.3983
 20
210.508
 30
-4.67678e-14
  70
    32
  0
VERTEX
  8
0
  5
4C92
 10
-38.4890
 20
208.385
 30
-4.62958e-14
  70
    32
  0
VERTEX
  8
0
  5
4C93
 10
-37.5459
 20
206.311
 30
-4.58351e-14
  70
    32
  0
VERTEX
  8
0
  5
4C94
 10
-36.5699
 20
204.290
 30
-4.53859e-14
  70
    32
  0
VERTEX
  8
0
  5
4C95
 10
-35.5619
 20
202.323
 30
-4.49489e-14
  70
    32
  0
VERTEX
  8
0
  5
4C96
 10
-34.5227
 20
200.412
 30
-4.45242e-14
  70
    32
  0
VERTEX
  8
0
  5
4C97
 10
-33.4532
 20
198.558
 30
-4.41123e-14
  70
    32
  0
VERTEX
  8
0
  5
4C98
 10
-32.3544
 20
196.764
 30
-4.37135e-14
  70
    32
  0
VERTEX
  8
0
  5
4C99
 10
-31.2272
 20
195.030
 30
-4.33282e-14
  70
    32
  0
VERTEX
  8
0
  5
4C9A
 10
-30.0727
 20
193.359
 30
-4.29568e-14
  70
    32
  0
VERTEX
  8
0
  5
4C9B
 10
-28.8918
 20
191.751
 30
-4.25995e-14
  70
    32
  0
VERTEX
  8
0
  5
4C9C
 10
-27.6855
 20
190.208
 30
-4.22566e-14
  70
    32
  0
VERTEX
  8
0
  5
4C9D
 10
-26.4550
 20
188.732
 30
-4.19286e-14
  70
    32
  0
VERTEX
  8
0
  5
4C9E
 10
-25.2013
 20
187.323
 30
-4.16155e-14
  70
    32
  0
VERTEX
  8
0
  5
4C9F
 10
-23.9255
 20
185.983
 30
-4.13179e-14
  70
    32
  0
VERTEX
  8
0
  5
4CA0
 10
-22.6288
 20
184.714
 30
-4.10358e-14
  70
    32
  0
VERTEX
  8
0
  5
4CA1
 10
-21.3122
 20
183.516
 30
-4.07695e-14
  70
    32
  0
VERTEX
  8
0
  5
4CA2
 10
-19.9769
 20
182.390
 30
-4.05193e-14
  70
    32
  0
VERTEX
  8
0
  5
4CA3
 10
-18.6241
 20
181.337
 30
-4.02854e-14
  70
    32
  0
VERTEX
  8
0
  5
4CA4
 10
-17.2550
 20
180.359
 30
-4.00680e-14
  70
    32
  0
VERTEX
  8
0
  5
4CA5
 10
-15.8707
 20
179.455
 30
-3.98672e-14
  70
    32
  0
VERTEX
  8
0
  5
4CA6
 10
-14.4726
 20
178.628
 30
-3.96834e-14
  70
    32
  0
VERTEX
  8
0
  5
4CA7
 10
-13.0617
 20
177.877
 30
-3.95165e-14
  70
    32
  0
VERTEX
  8
0
  5
4CA8
 10
-11.6394
 20
177.204
 30
-3.93669e-14
  70
    32
  0
VERTEX
  8
0
  5
4CA9
 10
-10.2069
 20
176.608
 30
-3.92345e-14
  70
    32
  0
VERTEX
  8
0
  5
4CAA
 10
-8.76544
 20
176.091
 30
-3.91195e-14
  70
    32
  0
VERTEX
  8
0
  5
4CAB
 10
-7.31631
 20
175.652
 30
-3.90221e-14
  70
    32
  0
VERTEX
  8
0
  5
4CAC
 10
-5.86076
 20
175.293
 30
-3.89422e-14
  70
    32
  0
VERTEX
  8
0
  5
4CAD
 10
-4.40007
 20
175.013
 30
-3.88800e-14
  70
    32
  0
VERTEX
  8
0
  5
4CAE
 10
-2.93553
 20
174.813
 30
-3.88356e-14
  70
    32
  0
VERTEX
  8
0
  5
4CAF
 10
-1.46841
 20
174.693
 30
-3.88089e-14
  70
    32
  0
VERTEX
  8
0
  5
4CB0
 10
-7.14936e-07
 20
174.653
 30
-3.88000e-14
  70
    32
  0
VERTEX
  8
0
  5
4CB1
 10
1.46841
 20
174.693
 30
-3.88089e-14
  70
    32
  0
VERTEX
  8
0
  5
4CB2
 10
2.93552
 20
174.813
 30
-3.88356e-14
  70
    32
  0
VERTEX
  8
0
  5
4CB3
 10
4.40007
 20
175.013
 30
-3.88800e-14
  70
    32
  0
VERTEX
  8
0
  5
4CB4
 10
5.86076
 20
175.293
 30
-3.89422e-14
  70
    32
  0
VERTEX
  8
0
  5
4CB5
 10
7.31631
 20
175.652
 30
-3.90221e-14
  70
    32
  0
VERTEX
  8
0
  5
4CB6
 10
8.76544
 20
176.091
 30
-3.91195e-14
  70
    32
  0
VERTEX
  8
0
  5
4CB7
 10
10.2069
 20
176.608
 30
-3.92345e-14
  70
    32
  0
VERTEX
  8
0
  5
4CB8
 10
11.6394
 20
177.204
 30
-3.93669e-14
  70
    32
  0
VERTEX
  8
0
  5
4CB9
 10
13.0617
 20
177.877
 30
-3.95165e-14
  70
    32
  0
VERTEX
  8
0
  5
4CBA
 10
14.4725
 20
178.628
 30
-3.96834e-14
  70
    32
  0
VERTEX
  8
0
  5
4CBB
 10
15.8707
 20
179.455
 30
-3.98672e-14
  70
    32
  0
VERTEX
  8
0
  5
4CBC
 10
17.2550
 20
180.359
 30
-4.00680e-14
  70
    32
  0
VERTEX
  8
0
  5
4CBD
 10
18.6241
 20
181.337
 30
-4.02854e-14
  70
    32
  0
VERTEX
  8
0
  5
4CBE
 10
19.9769
 20
182.390
 30
-4.05193e-14
  70
    32
  0
VERTEX
  8
0
  5
4CBF
 10
21.3122
 20
183.516
 30
-4.07695e-14
  70
    32
  0
VERTEX
  8
0
  5
4CC0
 10
22.6288
 20
184.714
 30
-4.10358e-14
  70
    32
  0
VERTEX
  8
0
  5
4CC1
 10
23.9255
 20
185.983
 30
-4.13179e-14
  70
    32
  0
VERTEX
  8
0
  5
4CC2
 10
25.2013
 20
187.323
 30
-4.16155e-14
  70
    32
  0
VERTEX
  8
0
  5
4CC3
 10
26.4550
 20
188.732
 30
-4.19286e-14
  70
    32
  0
VERTEX
  8
0
  5
4CC4
 10
27.6855
 20
190.208
 30
-4.22566e-14
  70
    32
  0
VERTEX
  8
0
  5
4CC5
 10
28.8918
 20
191.751
 30
-4.25995e-14
  70
    32
  0
VERTEX
  8
0
  5
4CC6
 10
30.0727
 20
193.359
 30
-4.29568e-14
  70
    32
  0
VERTEX
  8
0
  5
4CC7
 10
31.2272
 20
195.030
 30
-4.33282e-14
  70
    32
  0
VERTEX
  8
0
  5
4CC8
 10
32.3544
 20
196.764
 30
-4.37135e-14
  70
    32
  0
VERTEX
  8
0
  5
4CC9
 10
33.4532
 20
198.558
 30
-4.41123e-14
  70
    32
  0
VERTEX
  8
0
  5
4CCA
 10
34.5227
 20
200.412
 30
-4.45242e-14
  70
    32
  0
VERTEX
  8
0
  5
4CCB
 10
35.5619
 20
202.323
 30
-4.49489e-14
  70
    32
  0
VERTEX
  8
0
  5
4CCC
 10
36.5699
 20
204.290
 30
-4.53859e-14
  70
    32
  0
VERTEX
  8
0
  5
4CCD
 10
37.5459
 20
206.311
 30
-4.58351e-14
  70
    32
  0
VERTEX
  8
0
  5
4CCE
 10
38.4890
 20
208.385
 30
-4.62958e-14
  70
    32
  0
VERTEX
  8
0
  5
4CCF
 10
39.3983
 20
210.508
 30
-4.67678e-14
  70
    32
  0
VERTEX
  8
0
  5
4CD0
 10
40.2731
 20
212.681
 30
-4.72505e-14
  70
    32
  0
VERTEX
  8
0
  5
4CD1
 10
41.1125
 20
214.900
 30
-4.77437e-14
  70
    32
  0
VERTEX
  8
0
  5
4CD2
 10
41.9160
 20
217.164
 30
-4.82468e-14
  70
    32
  0
VERTEX
  8
0
  5
4CD3
 10
42.6827
 20
219.471
 30
-4.87595e-14
  70
    32
  0
VERTEX
  8
0
  5
4CD4
 10
43.4120
 20
221.819
 30
-4.92812e-14
  70
    32
  0
VERTEX
  8
0
  5
4CD5
 10
44.1032
 20
224.205
 30
-4.98115e-14
  70
    32
  0
VERTEX
  8
0
  5
4CD6
 10
44.7557
 20
226.628
 30
-5.03499e-14
  70
    32
  0
VERTEX
  8
0
  5
4CD7
 10
45.3691
 20
229.086
 30
-5.08960e-14
  70
    32
  0
VERTEX
  8
0
  5
4CD8
 10
45.9426
 20
231.576
 30
-5.14493e-14
  70
    32
  0
VERTEX
  8
0
  5
4CD9
 10
46.4759
 20
234.096
 30
-5.20094e-14
  70
    32
  0
VERTEX
  8
0
  5
4CDA
 10
46.9684
 20
236.644
 30
-5.25756e-14
  70
    32
  0
VERTEX
  8
0
  5
4CDB
 10
47.4198
 20
239.218
 30
-5.31476e-14
  70
    32
  0
VERTEX
  8
0
  5
4CDC
 10
47.8296
 20
241.815
 30
-5.37247e-14
  70
    32
  0
VERTEX
  8
0
  5
4CDD
 10
48.1974
 20
244.434
 30
-5.43066e-14
  70
    32
  0
VERTEX
  8
0
  5
4CDE
 10
48.5230
 20
247.071
 30
-5.48927e-14
  70
    32
  0
VERTEX
  8
0
  5
4CDF
 10
48.8061
 20
249.725
 30
-5.54825e-14
  70
    32
  0
VERTEX
  8
0
  5
4CE0
 10
49.0464
 20
252.394
 30
-5.60754e-14
  70
    32
  0
VERTEX
  8
0
  5
4CE1
 10
49.2437
 20
255.074
 30
-5.66710e-14
  70
    32
  0
VERTEX
  8
0
  5
4CE2
 10
49.3978
 20
257.764
 30
-5.72687e-14
  70
    32
  0
VERTEX
  8
0
  5
4CE3
 10
49.5086
 20
260.461
 30
-5.78681e-14
  70
    32
  0
VERTEX
  8
0
  5
4CE4
 10
49.5760
 20
263.163
 30
-5.84685e-14
  70
    32
  0
VERTEX
  8
0
  5
4CE5
 10
49.5999
 20
265.867
 30
-5.90695e-14
  70
    32
  0
VERTEX
  8
0
  5
4CE6
 10
49.5804
 20
268.572
 30
-5.96705e-14
  70
    32
  0
VERTEX
  8
0
  5
4CE7
 10
49.5174
 20
271.274
 30
-6.02709e-14
  70
    32
  0
VERTEX
  8
0
  5
4CE8
 10
49.4110
 20
273.972
 30
-6.08704e-14
  70
    32
  0
VERTEX
  8
0
  5
4CE9
 10
49.2613
 20
276.662
 30
-6.14683e-14
  70
    32
  0
VERTEX
  8
0
  5
4CEA
 10
49.0684
 20
279.344
 30
-6.20642e-14
  70
    32
  0
VERTEX
  8
0
  5
4CEB
 10
48.8325
 20
282.013
 30
-6.26574e-14
  70
    32
  0
VERTEX
  8
0
  5
4CEC
 10
48.5537
 20
284.669
 30
-6.32475e-14
  70
    32
  0
VERTEX
  8
0
  5
4CED
 10
48.2324
 20
287.308
 30
-6.38340e-14
  70
    32
  0
VERTEX
  8
0
  5
4CEE
 10
47.8689
 20
289.929
 30
-6.44163e-14
  70
    32
  0
VERTEX
  8
0
  5
4CEF
 10
47.4633
 20
292.528
 30
-6.49940e-14
  70
    32
  0
VERTEX
  8
0
  5
4CF0
 10
47.0162
 20
295.105
 30
-6.55665e-14
  70
    32
  0
SEQEND
  8
0
  5
4CF1
  0
LINE
  5
4B42
  8
0
  6
CONTINUOUS
 62
     3
 10
-48.2804308182932829
 20
295.1045868912972878
 30
-0.0000000000000655
 11
-47.0161674320655578
 21
295.1045868912972878
 31
-0.0000000000000655
210
-0.0000000000000002
220
1.0
230
-0.0000000000000002
  0
LINE
  5
4B43
  8
0
  6
CONTINUOUS
 62
     3
 10
-47.0161674320655365
 20
295.1045868912972878
 30
-0.0000000000000655
 11
47.0161674320654726
 21
295.1045868912972878
 31
-0.0000000000000655
210
-0.0000000000000002
220
1.0
230
-0.0000000000000002
  0
LINE
  5
4B44
  8
0
  6
CONTINUOUS
 62
     3
 10
-49.9251133647410086
 20
-0.0000000000000111
 30
0.0
 11
49.9251133647410796
 21
0.0000000000000111
 31
0.0
210
-0.0000000000000002
220
1.0
230
-0.0000000000000002
  0
LINE
  5
4B45
  8
0
  6
CONTINUOUS
 62
     3
 10
50.7999999999999474
 20
266.0046068919687059
 30
-0.0000000000000591
 11
50.8000000000000114
 21
9.9999999999997282
 31
-0.0000000000000022
210
-0.0000000000000002
220
1.0
230
-0.0000000000000002
  0
LINE
  5
4B46
  8
0
  6
CONTINUOUS
 62
     3
 10
-50.8000000000000114
 20
266.0046068919687059
 30
-0.0000000000000591
 11
-50.7999999999999474
 21
9.9999999999997087
 31
-0.0000000000000022
210
-0.0000000000000002
220
1.0
230
-0.0000000000000002
  0
LINE
  5
4B47
  8
0
  6
CONTINUOUS
 62
     3
 10
-49.925113364741371
 20
-0.0000000000000422
 30
0.0
 11
-50.8000000000000682
 21
9.999999999999698
 31
-0.0000000000000022
210
-0.0000000000000002
220
1.0
230
-0.0000000000000002
  0
LINE
  5
4B48
  8
0
  6
CONTINUOUS
 62
     3
 10
49.925113364741442
 20
-0.00000000000002
 30
0.0
 11
50.800000000000118
 21
9.9999999999997193
 31
-0.0000000000000022
210
-0.0000000000000002
220
1.0
230
-0.0000000000000002
  0
LINE
  5
4B49
  8
0
  6
VERDECKT
 62
     1
 10
-48.2804308239957223
 20
292.6619410098284106
 30
-0.000000000000065
 11
-48.2804308239957223
 21
294.6619410098284106
 31
-0.0000000000000654
210
-0.0000000000000002
220
1.0
230
-0.0000000000000002
  0
LINE
  5
4B4A
  8
0
  6
VERDECKT
 62
     1
 10
48.2804308239956512
 20
292.6619410098284106
 30
-0.000000000000065
 11
47.0161674379212684
 21
292.6619410098284106
 31
-0.000000000000065
210
-0.0000000000000002
220
1.0
230
-0.0000000000000002
  0
LINE
  5
4B4B
  8
0
  6
VERDECKT
 62
     1
 10
-47.0161674379213395
 20
292.6619410098284106
 30
-0.000000000000065
 11
-48.2804308239957223
 21
292.6619410098284106
 31
-0.000000000000065
210
-0.0000000000000002
220
1.0
230
-0.0000000000000002
  0
LINE
  5
4B4C
  8
0
  6
VERDECKT
 62
     1
 10
48.2804308239956512
 20
294.6619410098284106
 30
-0.0000000000000654
 11
48.2804308239956512
 21
292.6619410098284106
 31
-0.000000000000065
210
-0.0000000000000002
220
1.0
230
-0.0000000000000002
  0
LINE
  5
4B4D
  8
0
  6
VERDECKT
 62
     1
 10
-48.2804308239957223
 20
294.6619410098284106
 30
-0.0000000000000654
 11
-47.0161674379213395
 21
294.6619410098284106
 31
-0.0000000000000654
210
-0.0000000000000002
220
1.0
230
-0.0000000000000002
  0
LINE
  5
4B4E
  8
0
  6
VERDECKT
 62
     1
 10
47.0161674379212684
 20
294.6619410098284106
 30
-0.0000000000000654
 11
48.2804308239956512
 21
294.6619410098284106
 31
-0.0000000000000654
210
-0.0000000000000002
220
1.0
230
-0.0000000000000002
  0
LINE
  5
4B4F
  8
0
  6
VERDECKT
 62
     1
 10
-48.7296797270312183
 20
0.1045868912971775
 30
0.0
 11
48.7296797270312823
 21
0.1045868912971992
 31
0.0
210
-0.0000000000000002
220
1.0
230
-0.0000000000000002
  0
LINE
  5
4B50
  8
0
  6
VERDECKT
 62
     1
 10
49.6000000000001506
 20
266.0046068919687059
 30
-0.0000000000000591
 11
49.6000000000002004
 21
10.0522934456480595
 31
-0.0000000000000022
210
-0.0000000000000002
220
1.0
230
-0.0000000000000002
  0
LINE
  5
4B51
  8
0
  6
VERDECKT
 62
     1
 10
-49.6000000000002004
 20
266.0046068919687059
 30
-0.0000000000000591
 11
-49.6000000000001506
 21
10.0522934456480399
 31
-0.0000000000000022
210
-0.0000000000000002
220
1.0
230
-0.0000000000000002
  0
LINE
  5
4B52
  8
0
  6
VERDECKT
 62
     1
 10
-49.9251133647410299
 20
0.0000000000000031
 30
0.0
 11
-48.7296797270314386
 21
0.1045868912971491
 31
0.0
210
-0.0000000000000002
220
1.0
230
-0.0000000000000002
  0
LINE
  5
4B53
  8
0
  6
VERDECKT
 62
     1
 10
48.7296797270315025
 20
0.1045868912971708
 30
0.0
 11
49.9251133647410725
 21
0.0000000000000253
 31
0.0
210
-0.0000000000000002
220
1.0
230
-0.0000000000000002
  0
LINE
  5
4B54
  8
0
  6
VERDECKT
 62
     1
 10
-48.7296797270311117
 20
0.1045868912971864
 30
0.0
 11
-49.6000000000002501
 21
10.0522934456480506
 31
-0.0000000000000022
210
-0.0000000000000002
220
1.0
230
-0.0000000000000002
  0
LINE
  5
4B55
  8
0
  6
VERDECKT
 62
     1
 10
48.7296797270311828
 20
0.1045868912972081
 30
0.0
 11
49.600000000000307
 21
10.0522934456480701
 31
-0.0000000000000022
210
-0.0000000000000002
220
1.0
230
-0.0000000000000002
  0
ENDBLK
  5
4B57
  8
0
  0
BLOCK
  8
0
  2
A$C3DA9587E
 70
     0
 10
0.0
 20
0.0
 30
0.0
  3
A$C3DA9587E
  1

  0
LINE
  5
4B6C
  8
0
  6
CONTINUOUS
 62
     3
 10
-47.0161673181946469
 20
15.7999999825748194
 30
0.0
 11
47.0161674320655081
 21
15.7999999825748105
 31
0.0
  0
POLYLINE
  5
4B6D
  8
0
  6
CONTINUOUS
 62
     3
 10
48.2804310463304489
 20
15.8000000169909107
 30
0.0
 66
     1
 70
     8
  0
VERTEX
  8
0
  5
4CF2
 10
48.2804
 20
15.8000
 30
0.000000
  70
    32
  0
VERTEX
  8
0
  5
4CF3
 10
48.7252
 20
14.3698
 30
0.000000
  70
    32
  0
VERTEX
  8
0
  5
4CF4
 10
49.1277
 20
12.9270
 30
0.000000
  70
    32
  0
VERTEX
  8
0
  5
4CF5
 10
49.4875
 20
11.4731
 30
0.000000
  70
    32
  0
VERTEX
  8
0
  5
4CF6
 10
49.8042
 20
10.0092
 30
0.000000
  70
    32
  0
VERTEX
  8
0
  5
4CF7
 10
50.0776
 20
8.53652
 30
0.000000
  70
    32
  0
VERTEX
  8
0
  5
4CF8
 10
50.3075
 20
7.05647
 30
0.000000
  70
    32
  0
VERTEX
  8
0
  5
4CF9
 10
50.4937
 20
5.57028
 30
0.000000
  70
    32
  0
VERTEX
  8
0
  5
4CFA
 10
50.6360
 20
4.07924
 30
0.000000
  70
    32
  0
VERTEX
  8
0
  5
4CFB
 10
50.7342
 20
2.58466
 30
0.000000
  70
    32
  0
VERTEX
  8
0
  5
4CFC
 10
50.7884
 20
1.08784
 30
0.000000
  70
    32
  0
VERTEX
  8
0
  5
4CFD
 10
50.7983
 20
-0.409932
 30
0.000000
  70
    32
  0
VERTEX
  8
0
  5
4CFE
 10
50.7642
 20
-1.90735
 30
0.000000
  70
    32
  0
VERTEX
  8
0
  5
4CFF
 10
50.6859
 20
-3.40310
 30
0.000000
  70
    32
  0
VERTEX
  8
0
  5
4D00
 10
50.5635
 20
-4.89590
 30
0.000000
  70
    32
  0
VERTEX
  8
0
  5
4D01
 10
50.3972
 20
-6.38444
 30
0.000000
  70
    32
  0
VERTEX
  8
0
  5
4D02
 10
50.1871
 20
-7.86744
 30
0.000000
  70
    32
  0
VERTEX
  8
0
  5
4D03
 10
49.9333
 20
-9.34359
 30
0.000000
  70
    32
  0
VERTEX
  8
0
  5
4D04
 10
49.6362
 20
-10.8116
 30
0.000000
  70
    32
  0
VERTEX
  8
0
  5
4D05
 10
49.2959
 20
-12.2703
 30
0.000000
  70
    32
  0
VERTEX
  8
0
  5
4D06
 10
48.9127
 20
-13.7182
 30
0.000000
  70
    32
  0
VERTEX
  8
0
  5
4D07
 10
48.4870
 20
-15.1543
 30
0.000000
  70
    32
  0
VERTEX
  8
0
  5
4D08
 10
48.0192
 20
-16.5771
 30
0.000000
  70
    32
  0
VERTEX
  8
0
  5
4D09
 10
47.5096
 20
-17.9856
 30
0.000000
  70
    32
  0
VERTEX
  8
0
  5
4D0A
 10
46.9587
 20
-19.3784
 30
0.000000
  70
    32
  0
VERTEX
  8
0
  5
4D0B
 10
46.3670
 20
-20.7544
 30
0.000000
  70
    32
  0
VERTEX
  8
0
  5
4D0C
 10
45.7350
 20
-22.1123
 30
0.000000
  70
    32
  0
VERTEX
  8
0
  5
4D0D
 10
45.0632
 20
-23.4510
 30
0.000000
  70
    32
  0
VERTEX
  8
0
  5
4D0E
 10
44.3522
 20
-24.7693
 30
0.000000
  70
    32
  0
VERTEX
  8
0
  5
4D0F
 10
43.6027
 20
-26.0661
 30
0.000000
  70
    32
  0
VERTEX
  8
0
  5
4D10
 10
42.8153
 20
-27.3402
 30
0.000000
  70
    32
  0
VERTEX
  8
0
  5
4D11
 10
41.9907
 20
-28.5906
 30
0.000000
  70
    32
  0
VERTEX
  8
0
  5
4D12
 10
41.1296
 20
-29.8161
 30
0.000000
  70
    32
  0
VERTEX
  8
0
  5
4D13
 10
40.2327
 20
-31.0157
 30
0.000000
  70
    32
  0
VERTEX
  8
0
  5
4D14
 10
39.3008
 20
-32.1883
 30
0.000000
  70
    32
  0
VERTEX
  8
0
  5
4D15
 10
38.3348
 20
-33.3330
 30
0.000000
  70
    32
  0
VERTEX
  8
0
  5
4D16
 10
37.3354
 20
-34.4486
 30
0.000000
  70
    32
  0
VERTEX
  8
0
  5
4D17
 10
36.3036
 20
-35.5343
 30
0.000000
  70
    32
  0
VERTEX
  8
0
  5
4D18
 10
35.2402
 20
-36.5892
 30
0.000000
  70
    32
  0
VERTEX
  8
0
  5
4D19
 10
34.1462
 20
-37.6122
 30
0.000000
  70
    32
  0
VERTEX
  8
0
  5
4D1A
 10
33.0225
 20
-38.6025
 30
0.000000
  70
    32
  0
VERTEX
  8
0
  5
4D1B
 10
31.8701
 20
-39.5593
 30
0.000000
  70
    32
  0
VERTEX
  8
0
  5
4D1C
 10
30.6900
 20
-40.4816
 30
0.000000
  70
    32
  0
VERTEX
  8
0
  5
4D1D
 10
29.4832
 20
-41.3688
 30
0.000000
  70
    32
  0
VERTEX
  8
0
  5
4D1E
 10
28.2508
 20
-42.2200
 30
0.000000
  70
    32
  0
VERTEX
  8
0
  5
4D1F
 10
26.9938
 20
-43.0345
 30
0.000000
  70
    32
  0
VERTEX
  8
0
  5
4D20
 10
25.7134
 20
-43.8117
 30
0.000000
  70
    32
  0
VERTEX
  8
0
  5
4D21
 10
24.4106
 20
-44.5507
 30
0.000000
  70
    32
  0
VERTEX
  8
0
  5
4D22
 10
23.0866
 20
-45.2510
 30
0.000000
  70
    32
  0
VERTEX
  8
0
  5
4D23
 10
21.7425
 20
-45.9119
 30
0.000000
  70
    32
  0
VERTEX
  8
0
  5
4D24
 10
20.3795
 20
-46.5329
 30
0.000000
  70
    32
  0
VERTEX
  8
0
  5
4D25
 10
18.9988
 20
-47.1135
 30
0.000000
  70
    32
  0
VERTEX
  8
0
  5
4D26
 10
17.6016
 20
-47.6532
 30
0.000000
  70
    32
  0
VERTEX
  8
0
  5
4D27
 10
16.1891
 20
-48.1514
 30
0.000000
  70
    32
  0
VERTEX
  8
0
  5
4D28
 10
14.7625
 20
-48.6077
 30
0.000000
  70
    32
  0
VERTEX
  8
0
  5
4D29
 10
13.3231
 20
-49.0218
 30
0.000000
  70
    32
  0
VERTEX
  8
0
  5
4D2A
 10
11.8721
 20
-49.3933
 30
0.000000
  70
    32
  0
VERTEX
  8
0
  5
4D2B
 10
10.4107
 20
-49.7218
 30
0.000000
  70
    32
  0
VERTEX
  8
0
  5
4D2C
 10
8.94035
 20
-50.0071
 30
0.000000
  70
    32
  0
VERTEX
  8
0
  5
4D2D
 10
7.46219
 20
-50.2489
 30
0.000000
  70
    32
  0
VERTEX
  8
0
  5
4D2E
 10
5.97755
 20
-50.4471
 30
0.000000
  70
    32
  0
VERTEX
  8
0
  5
4D2F
 10
4.48772
 20
-50.6014
 30
0.000000
  70
    32
  0
VERTEX
  8
0
  5
4D30
 10
2.99398
 20
-50.7117
 30
0.000000
  70
    32
  0
VERTEX
  8
0
  5
4D31
 10
1.49764
 20
-50.7779
 30
0.000000
  70
    32
  0
VERTEX
  8
0
  5
4D32
 10
-7.33183e-07
 20
-50.8000
 30
0.000000
  70
    32
  0
VERTEX
  8
0
  5
4D33
 10
-1.49764
 20
-50.7779
 30
0.000000
  70
    32
  0
VERTEX
  8
0
  5
4D34
 10
-2.99398
 20
-50.7117
 30
0.000000
  70
    32
  0
VERTEX
  8
0
  5
4D35
 10
-4.48772
 20
-50.6014
 30
0.000000
  70
    32
  0
VERTEX
  8
0
  5
4D36
 10
-5.97756
 20
-50.4471
 30
0.000000
  70
    32
  0
VERTEX
  8
0
  5
4D37
 10
-7.46219
 20
-50.2489
 30
0.000000
  70
    32
  0
VERTEX
  8
0
  5
4D38
 10
-8.94035
 20
-50.0071
 30
0.000000
  70
    32
  0
VERTEX
  8
0
  5
4D39
 10
-10.4107
 20
-49.7218
 30
0.000000
  70
    32
  0
VERTEX
  8
0
  5
4D3A
 10
-11.8721
 20
-49.3933
 30
0.000000
  70
    32
  0
VERTEX
  8
0
  5
4D3B
 10
-13.3231
 20
-49.0218
 30
0.000000
  70
    32
  0
VERTEX
  8
0
  5
4D3C
 10
-14.7625
 20
-48.6077
 30
0.000000
  70
    32
  0
VERTEX
  8
0
  5
4D3D
 10
-16.1891
 20
-48.1514
 30
0.000000
  70
    32
  0
VERTEX
  8
0
  5
4D3E
 10
-17.6016
 20
-47.6532
 30
0.000000
  70
    32
  0
VERTEX
  8
0
  5
4D3F
 10
-18.9988
 20
-47.1135
 30
0.000000
  70
    32
  0
VERTEX
  8
0
  5
4D40
 10
-20.3795
 20
-46.5329
 30
0.000000
  70
    32
  0
VERTEX
  8
0
  5
4D41
 10
-21.7425
 20
-45.9119
 30
0.000000
  70
    32
  0
VERTEX
  8
0
  5
4D42
 10
-23.0866
 20
-45.2510
 30
0.000000
  70
    32
  0
VERTEX
  8
0
  5
4D43
 10
-24.4106
 20
-44.5507
 30
0.000000
  70
    32
  0
VERTEX
  8
0
  5
4D44
 10
-25.7134
 20
-43.8117
 30
0.000000
  70
    32
  0
VERTEX
  8
0
  5
4D45
 10
-26.9938
 20
-43.0345
 30
0.000000
  70
    32
  0
VERTEX
  8
0
  5
4D46
 10
-28.2508
 20
-42.2200
 30
0.000000
  70
    32
  0
VERTEX
  8
0
  5
4D47
 10
-29.4832
 20
-41.3688
 30
0.000000
  70
    32
  0
VERTEX
  8
0
  5
4D48
 10
-30.6900
 20
-40.4816
 30
0.000000
  70
    32
  0
VERTEX
  8
0
  5
4D49
 10
-31.8701
 20
-39.5593
 30
0.000000
  70
    32
  0
VERTEX
  8
0
  5
4D4A
 10
-33.0225
 20
-38.6025
 30
0.000000
  70
    32
  0
VERTEX
  8
0
  5
4D4B
 10
-34.1462
 20
-37.6122
 30
0.000000
  70
    32
  0
VERTEX
  8
0
  5
4D4C
 10
-35.2402
 20
-36.5892
 30
0.000000
  70
    32
  0
VERTEX
  8
0
  5
4D4D
 10
-36.3036
 20
-35.5343
 30
0.000000
  70
    32
  0
VERTEX
  8
0
  5
4D4E
 10
-37.3354
 20
-34.4486
 30
0.000000
  70
    32
  0
VERTEX
  8
0
  5
4D4F
 10
-38.3348
 20
-33.3330
 30
0.000000
  70
    32
  0
VERTEX
  8
0
  5
4D50
 10
-39.3008
 20
-32.1883
 30
0.000000
  70
    32
  0
VERTEX
  8
0
  5
4D51
 10
-40.2327
 20
-31.0157
 30
0.000000
  70
    32
  0
VERTEX
  8
0
  5
4D52
 10
-41.1296
 20
-29.8161
 30
0.000000
  70
    32
  0
VERTEX
  8
0
  5
4D53
 10
-41.9907
 20
-28.5906
 30
0.000000
  70
    32
  0
VERTEX
  8
0
  5
4D54
 10
-42.8153
 20
-27.3402
 30
0.000000
  70
    32
  0
VERTEX
  8
0
  5
4D55
 10
-43.6027
 20
-26.0661
 30
0.000000
  70
    32
  0
VERTEX
  8
0
  5
4D56
 10
-44.3522
 20
-24.7693
 30
0.000000
  70
    32
  0
VERTEX
  8
0
  5
4D57
 10
-45.0632
 20
-23.4510
 30
0.000000
  70
    32
  0
VERTEX
  8
0
  5
4D58
 10
-45.7350
 20
-22.1123
 30
0.000000
  70
    32
  0
VERTEX
  8
0
  5
4D59
 10
-46.3670
 20
-20.7544
 30
0.000000
  70
    32
  0
VERTEX
  8
0
  5
4D5A
 10
-46.9587
 20
-19.3784
 30
0.000000
  70
    32
  0
VERTEX
  8
0
  5
4D5B
 10
-47.5096
 20
-17.9856
 30
0.000000
  70
    32
  0
VERTEX
  8
0
  5
4D5C
 10
-48.0192
 20
-16.5771
 30
0.000000
  70
    32
  0
VERTEX
  8
0
  5
4D5D
 10
-48.4870
 20
-15.1543
 30
0.000000
  70
    32
  0
VERTEX
  8
0
  5
4D5E
 10
-48.9127
 20
-13.7182
 30
0.000000
  70
    32
  0
VERTEX
  8
0
  5
4D5F
 10
-49.2959
 20
-12.2703
 30
0.000000
  70
    32
  0
VERTEX
  8
0
  5
4D60
 10
-49.6362
 20
-10.8116
 30
0.000000
  70
    32
  0
VERTEX
  8
0
  5
4D61
 10
-49.9333
 20
-9.34359
 30
0.000000
  70
    32
  0
VERTEX
  8
0
  5
4D62
 10
-50.1871
 20
-7.86744
 30
0.000000
  70
    32
  0
VERTEX
  8
0
  5
4D63
 10
-50.3972
 20
-6.38444
 30
0.000000
  70
    32
  0
VERTEX
  8
0
  5
4D64
 10
-50.5635
 20
-4.89590
 30
0.000000
  70
    32
  0
VERTEX
  8
0
  5
4D65
 10
-50.6859
 20
-3.40310
 30
0.000000
  70
    32
  0
VERTEX
  8
0
  5
4D66
 10
-50.7642
 20
-1.90735
 30
0.000000
  70
    32
  0
VERTEX
  8
0
  5
4D67
 10
-50.7983
 20
-0.409932
 30
0.000000
  70
    32
  0
VERTEX
  8
0
  5
4D68
 10
-50.7884
 20
1.08784
 30
0.000000
  70
    32
  0
VERTEX
  8
0
  5
4D69
 10
-50.7342
 20
2.58466
 30
0.000000
  70
    32
  0
VERTEX
  8
0
  5
4D6A
 10
-50.6360
 20
4.07924
 30
0.000000
  70
    32
  0
VERTEX
  8
0
  5
4D6B
 10
-50.4937
 20
5.57028
 30
0.000000
  70
    32
  0
VERTEX
  8
0
  5
4D6C
 10
-50.3075
 20
7.05647
 30
0.000000
  70
    32
  0
VERTEX
  8
0
  5
4D6D
 10
-50.0776
 20
8.53652
 30
0.000000
  70
    32
  0
VERTEX
  8
0
  5
4D6E
 10
-49.8042
 20
10.0092
 30
0.000000
  70
    32
  0
VERTEX
  8
0
  5
4D6F
 10
-49.4875
 20
11.4731
 30
0.000000
  70
    32
  0
VERTEX
  8
0
  5
4D70
 10
-49.1277
 20
12.9270
 30
0.000000
  70
    32
  0
VERTEX
  8
0
  5
4D71
 10
-48.7252
 20
14.3698
 30
0.000000
  70
    32
  0
VERTEX
  8
0
  5
4D72
 10
-48.2804
 20
15.8000
 30
0.000000
  70
    32
  0
SEQEND
  8
0
  5
4D73
  0
LINE
  5
4B6E
  8
0
  6
CONTINUOUS
 62
     3
 10
47.0161674320655081
 20
15.79999999999972
 30
0.0
 11
48.2804308182932118
 21
15.79999999999972
 31
0.0
  0
POLYLINE
  5
4B6F
  8
0
  6
CONTINUOUS
 62
     3
 10
-47.0161672043238141
 20
15.7999999825747572
 30
0.0
 66
     1
 70
     8
  0
VERTEX
  8
0
  5
4D74
 10
-47.0162
 20
15.8000
 30
0.000000
  70
    32
  0
VERTEX
  8
0
  5
4D75
 10
-47.4633
 20
14.4012
 30
0.000000
  70
    32
  0
VERTEX
  8
0
  5
4D76
 10
-47.8689
 20
12.9897
 30
0.000000
  70
    32
  0
VERTEX
  8
0
  5
4D77
 10
-48.2324
 20
11.5669
 30
0.000000
  70
    32
  0
VERTEX
  8
0
  5
4D78
 10
-48.5537
 20
10.1339
 30
0.000000
  70
    32
  0
VERTEX
  8
0
  5
4D79
 10
-48.8325
 20
8.69199
 30
0.000000
  70
    32
  0
VERTEX
  8
0
  5
4D7A
 10
-49.0684
 20
7.24250
 30
0.000000
  70
    32
  0
VERTEX
  8
0
  5
4D7B
 10
-49.2613
 20
5.78666
 30
0.000000
  70
    32
  0
VERTEX
  8
0
  5
4D7C
 10
-49.4110
 20
4.32574
 30
0.000000
  70
    32
  0
VERTEX
  8
0
  5
4D7D
 10
-49.5174
 20
2.86103
 30
0.000000
  70
    32
  0
VERTEX
  8
0
  5
4D7E
 10
-49.5804
 20
1.39382
 30
0.000000
  70
    32
  0
VERTEX
  8
0
  5
4D7F
 10
-49.5999
 20
-0.0746180
 30
0.000000
  70
    32
  0
VERTEX
  8
0
  5
4D80
 10
-49.5760
 20
-1.54299
 30
0.000000
  70
    32
  0
VERTEX
  8
0
  5
4D81
 10
-49.5086
 20
-3.01001
 30
0.000000
  70
    32
  0
VERTEX
  8
0
  5
4D82
 10
-49.3978
 20
-4.47439
 30
0.000000
  70
    32
  0
VERTEX
  8
0
  5
4D83
 10
-49.2437
 20
-5.93485
 30
0.000000
  70
    32
  0
VERTEX
  8
0
  5
4D84
 10
-49.0464
 20
-7.39010
 30
0.000000
  70
    32
  0
VERTEX
  8
0
  5
4D85
 10
-48.8061
 20
-8.83888
 30
0.000000
  70
    32
  0
VERTEX
  8
0
  5
4D86
 10
-48.5230
 20
-10.2799
 30
0.000000
  70
    32
  0
VERTEX
  8
0
  5
4D87
 10
-48.1974
 20
-11.7119
 30
0.000000
  70
    32
  0
VERTEX
  8
0
  5
4D88
 10
-47.8296
 20
-13.1337
 30
0.000000
  70
    32
  0
VERTEX
  8
0
  5
4D89
 10
-47.4198
 20
-14.5439
 30
0.000000
  70
    32
  0
VERTEX
  8
0
  5
4D8A
 10
-46.9684
 20
-15.9414
 30
0.000000
  70
    32
  0
VERTEX
  8
0
  5
4D8B
 10
-46.4759
 20
-17.3249
 30
0.000000
  70
    32
  0
VERTEX
  8
0
  5
4D8C
 10
-45.9426
 20
-18.6932
 30
0.000000
  70
    32
  0
VERTEX
  8
0
  5
4D8D
 10
-45.3691
 20
-20.0452
 30
0.000000
  70
    32
  0
VERTEX
  8
0
  5
4D8E
 10
-44.7557
 20
-21.3795
 30
0.000000
  70
    32
  0
VERTEX
  8
0
  5
4D8F
 10
-44.1032
 20
-22.6951
 30
0.000000
  70
    32
  0
VERTEX
  8
0
  5
4D90
 10
-43.4120
 20
-23.9909
 30
0.000000
  70
    32
  0
VERTEX
  8
0
  5
4D91
 10
-42.6827
 20
-25.2656
 30
0.000000
  70
    32
  0
VERTEX
  8
0
  5
4D92
 10
-41.9160
 20
-26.5181
 30
0.000000
  70
    32
  0
VERTEX
  8
0
  5
4D93
 10
-41.1125
 20
-27.7474
 30
0.000000
  70
    32
  0
VERTEX
  8
0
  5
4D94
 10
-40.2731
 20
-28.9524
 30
0.000000
  70
    32
  0
VERTEX
  8
0
  5
4D95
 10
-39.3983
 20
-30.1320
 30
0.000000
  70
    32
  0
VERTEX
  8
0
  5
4D96
 10
-38.4890
 20
-31.2851
 30
0.000000
  70
    32
  0
VERTEX
  8
0
  5
4D97
 10
-37.5459
 20
-32.4109
 30
0.000000
  70
    32
  0
VERTEX
  8
0
  5
4D98
 10
-36.5699
 20
-33.5082
 30
0.000000
  70
    32
  0
VERTEX
  8
0
  5
4D99
 10
-35.5619
 20
-34.5762
 30
0.000000
  70
    32
  0
VERTEX
  8
0
  5
4D9A
 10
-34.5227
 20
-35.6138
 30
0.000000
  70
    32
  0
VERTEX
  8
0
  5
4D9B
 10
-33.4532
 20
-36.6203
 30
0.000000
  70
    32
  0
VERTEX
  8
0
  5
4D9C
 10
-32.3544
 20
-37.5946
 30
0.000000
  70
    32
  0
VERTEX
  8
0
  5
4D9D
 10
-31.2272
 20
-38.5360
 30
0.000000
  70
    32
  0
VERTEX
  8
0
  5
4D9E
 10
-30.0727
 20
-39.4436
 30
0.000000
  70
    32
  0
VERTEX
  8
0
  5
4D9F
 10
-28.8918
 20
-40.3166
 30
0.000000
  70
    32
  0
VERTEX
  8
0
  5
4DA0
 10
-27.6855
 20
-41.1542
 30
0.000000
  70
    32
  0
VERTEX
  8
0
  5
4DA1
 10
-26.4550
 20
-41.9558
 30
0.000000
  70
    32
  0
VERTEX
  8
0
  5
4DA2
 10
-25.2013
 20
-42.7206
 30
0.000000
  70
    32
  0
VERTEX
  8
0
  5
4DA3
 10
-23.9255
 20
-43.4480
 30
0.000000
  70
    32
  0
VERTEX
  8
0
  5
4DA4
 10
-22.6288
 20
-44.1373
 30
0.000000
  70
    32
  0
VERTEX
  8
0
  5
4DA5
 10
-21.3122
 20
-44.7879
 30
0.000000
  70
    32
  0
VERTEX
  8
0
  5
4DA6
 10
-19.9769
 20
-45.3992
 30
0.000000
  70
    32
  0
VERTEX
  8
0
  5
4DA7
 10
-18.6241
 20
-45.9707
 30
0.000000
  70
    32
  0
VERTEX
  8
0
  5
4DA8
 10
-17.2550
 20
-46.5019
 30
0.000000
  70
    32
  0
VERTEX
  8
0
  5
4DA9
 10
-15.8707
 20
-46.9923
 30
0.000000
  70
    32
  0
VERTEX
  8
0
  5
4DAA
 10
-14.4726
 20
-47.4416
 30
0.000000
  70
    32
  0
VERTEX
  8
0
  5
4DAB
 10
-13.0617
 20
-47.8493
 30
0.000000
  70
    32
  0
VERTEX
  8
0
  5
4DAC
 10
-11.6394
 20
-48.2150
 30
0.000000
  70
    32
  0
VERTEX
  8
0
  5
4DAD
 10
-10.2069
 20
-48.5384
 30
0.000000
  70
    32
  0
VERTEX
  8
0
  5
4DAE
 10
-8.76544
 20
-48.8193
 30
0.000000
  70
    32
  0
VERTEX
  8
0
  5
4DAF
 10
-7.31631
 20
-49.0574
 30
0.000000
  70
    32
  0
VERTEX
  8
0
  5
4DB0
 10
-5.86076
 20
-49.2525
 30
0.000000
  70
    32
  0
VERTEX
  8
0
  5
4DB1
 10
-4.40007
 20
-49.4044
 30
0.000000
  70
    32
  0
VERTEX
  8
0
  5
4DB2
 10
-2.93553
 20
-49.5131
 30
0.000000
  70
    32
  0
VERTEX
  8
0
  5
4DB3
 10
-1.46841
 20
-49.5783
 30
0.000000
  70
    32
  0
VERTEX
  8
0
  5
4DB4
 10
-7.14936e-07
 20
-49.6000
 30
0.000000
  70
    32
  0
VERTEX
  8
0
  5
4DB5
 10
1.46841
 20
-49.5783
 30
0.000000
  70
    32
  0
VERTEX
  8
0
  5
4DB6
 10
2.93552
 20
-49.5131
 30
0.000000
  70
    32
  0
VERTEX
  8
0
  5
4DB7
 10
4.40007
 20
-49.4044
 30
0.000000
  70
    32
  0
VERTEX
  8
0
  5
4DB8
 10
5.86076
 20
-49.2525
 30
0.000000
  70
    32
  0
VERTEX
  8
0
  5
4DB9
 10
7.31631
 20
-49.0574
 30
0.000000
  70
    32
  0
VERTEX
  8
0
  5
4DBA
 10
8.76544
 20
-48.8193
 30
0.000000
  70
    32
  0
VERTEX
  8
0
  5
4DBB
 10
10.2069
 20
-48.5384
 30
0.000000
  70
    32
  0
VERTEX
  8
0
  5
4DBC
 10
11.6394
 20
-48.2150
 30
0.000000
  70
    32
  0
VERTEX
  8
0
  5
4DBD
 10
13.0617
 20
-47.8493
 30
0.000000
  70
    32
  0
VERTEX
  8
0
  5
4DBE
 10
14.4725
 20
-47.4416
 30
0.000000
  70
    32
  0
VERTEX
  8
0
  5
4DBF
 10
15.8707
 20
-46.9923
 30
0.000000
  70
    32
  0
VERTEX
  8
0
  5
4DC0
 10
17.2550
 20
-46.5019
 30
0.000000
  70
    32
  0
VERTEX
  8
0
  5
4DC1
 10
18.6241
 20
-45.9707
 30
0.000000
  70
    32
  0
VERTEX
  8
0
  5
4DC2
 10
19.9769
 20
-45.3992
 30
0.000000
  70
    32
  0
VERTEX
  8
0
  5
4DC3
 10
21.3122
 20
-44.7879
 30
0.000000
  70
    32
  0
VERTEX
  8
0
  5
4DC4
 10
22.6288
 20
-44.1373
 30
0.000000
  70
    32
  0
VERTEX
  8
0
  5
4DC5
 10
23.9255
 20
-43.4480
 30
0.000000
  70
    32
  0
VERTEX
  8
0
  5
4DC6
 10
25.2013
 20
-42.7206
 30
0.000000
  70
    32
  0
VERTEX
  8
0
  5
4DC7
 10
26.4550
 20
-41.9558
 30
0.000000
  70
    32
  0
VERTEX
  8
0
  5
4DC8
 10
27.6855
 20
-41.1542
 30
0.000000
  70
    32
  0
VERTEX
  8
0
  5
4DC9
 10
28.8918
 20
-40.3166
 30
0.000000
  70
    32
  0
VERTEX
  8
0
  5
4DCA
 10
30.0727
 20
-39.4436
 30
0.000000
  70
    32
  0
VERTEX
  8
0
  5
4DCB
 10
31.2272
 20
-38.5360
 30
0.000000
  70
    32
  0
VERTEX
  8
0
  5
4DCC
 10
32.3544
 20
-37.5946
 30
0.000000
  70
    32
  0
VERTEX
  8
0
  5
4DCD
 10
33.4532
 20
-36.6203
 30
0.000000
  70
    32
  0
VERTEX
  8
0
  5
4DCE
 10
34.5227
 20
-35.6138
 30
0.000000
  70
    32
  0
VERTEX
  8
0
  5
4DCF
 10
35.5619
 20
-34.5762
 30
0.000000
  70
    32
  0
VERTEX
  8
0
  5
4DD0
 10
36.5699
 20
-33.5082
 30
0.000000
  70
    32
  0
VERTEX
  8
0
  5
4DD1
 10
37.5459
 20
-32.4109
 30
0.000000
  70
    32
  0
VERTEX
  8
0
  5
4DD2
 10
38.4890
 20
-31.2851
 30
0.000000
  70
    32
  0
VERTEX
  8
0
  5
4DD3
 10
39.3983
 20
-30.1320
 30
0.000000
  70
    32
  0
VERTEX
  8
0
  5
4DD4
 10
40.2731
 20
-28.9524
 30
0.000000
  70
    32
  0
VERTEX
  8
0
  5
4DD5
 10
41.1125
 20
-27.7474
 30
0.000000
  70
    32
  0
VERTEX
  8
0
  5
4DD6
 10
41.9160
 20
-26.5181
 30
0.000000
  70
    32
  0
VERTEX
  8
0
  5
4DD7
 10
42.6827
 20
-25.2656
 30
0.000000
  70
    32
  0
VERTEX
  8
0
  5
4DD8
 10
43.4120
 20
-23.9909
 30
0.000000
  70
    32
  0
VERTEX
  8
0
  5
4DD9
 10
44.1032
 20
-22.6951
 30
0.000000
  70
    32
  0
VERTEX
  8
0
  5
4DDA
 10
44.7557
 20
-21.3795
 30
0.000000
  70
    32
  0
VERTEX
  8
0
  5
4DDB
 10
45.3691
 20
-20.0452
 30
0.000000
  70
    32
  0
VERTEX
  8
0
  5
4DDC
 10
45.9426
 20
-18.6932
 30
0.000000
  70
    32
  0
VERTEX
  8
0
  5
4DDD
 10
46.4759
 20
-17.3249
 30
0.000000
  70
    32
  0
VERTEX
  8
0
  5
4DDE
 10
46.9684
 20
-15.9414
 30
0.000000
  70
    32
  0
VERTEX
  8
0
  5
4DDF
 10
47.4198
 20
-14.5439
 30
0.000000
  70
    32
  0
VERTEX
  8
0
  5
4DE0
 10
47.8296
 20
-13.1337
 30
0.000000
  70
    32
  0
VERTEX
  8
0
  5
4DE1
 10
48.1974
 20
-11.7119
 30
0.000000
  70
    32
  0
VERTEX
  8
0
  5
4DE2
 10
48.5230
 20
-10.2799
 30
0.000000
  70
    32
  0
VERTEX
  8
0
  5
4DE3
 10
48.8061
 20
-8.83888
 30
0.000000
  70
    32
  0
VERTEX
  8
0
  5
4DE4
 10
49.0464
 20
-7.39010
 30
0.000000
  70
    32
  0
VERTEX
  8
0
  5
4DE5
 10
49.2437
 20
-5.93485
 30
0.000000
  70
    32
  0
VERTEX
  8
0
  5
4DE6
 10
49.3978
 20
-4.47439
 30
0.000000
  70
    32
  0
VERTEX
  8
0
  5
4DE7
 10
49.5086
 20
-3.01001
 30
0.000000
  70
    32
  0
VERTEX
  8
0
  5
4DE8
 10
49.5760
 20
-1.54299
 30
0.000000
  70
    32
  0
VERTEX
  8
0
  5
4DE9
 10
49.5999
 20
-0.0746179
 30
0.000000
  70
    32
  0
VERTEX
  8
0
  5
4DEA
 10
49.5804
 20
1.39382
 30
0.000000
  70
    32
  0
VERTEX
  8
0
  5
4DEB
 10
49.5174
 20
2.86103
 30
0.000000
  70
    32
  0
VERTEX
  8
0
  5
4DEC
 10
49.4110
 20
4.32574
 30
0.000000
  70
    32
  0
VERTEX
  8
0
  5
4DED
 10
49.2613
 20
5.78666
 30
0.000000
  70
    32
  0
VERTEX
  8
0
  5
4DEE
 10
49.0684
 20
7.24250
 30
0.000000
  70
    32
  0
VERTEX
  8
0
  5
4DEF
 10
48.8325
 20
8.69199
 30
0.000000
  70
    32
  0
VERTEX
  8
0
  5
4DF0
 10
48.5537
 20
10.1339
 30
0.000000
  70
    32
  0
VERTEX
  8
0
  5
4DF1
 10
48.2324
 20
11.5669
 30
0.000000
  70
    32
  0
VERTEX
  8
0
  5
4DF2
 10
47.8689
 20
12.9897
 30
0.000000
  70
    32
  0
VERTEX
  8
0
  5
4DF3
 10
47.4633
 20
14.4012
 30
0.000000
  70
    32
  0
VERTEX
  8
0
  5
4DF4
 10
47.0162
 20
15.8000
 30
0.000000
  70
    32
  0
SEQEND
  8
0
  5
4DF5
  0
LINE
  5
4B70
  8
0
  6
CONTINUOUS
 62
     3
 10
-48.2804308182932118
 20
15.79999999999972
 30
0.0
 11
-47.0161674320655081
 21
15.79999999999972
 31
0.0
  0
ARC
  5
4B71
  8
0
  6
CONTINUOUS
 62
     3
 10
0.0
 20
0.0
 30
0.0
 40
49.6000000000001506
 50
18.5751601858637088
 51
161.4248398141363054
  0
ARC
  5
4B72
  8
0
  6
CONTINUOUS
 62
     3
 10
0.0
 20
0.0
 30
0.0
 40
50.7999999999999474
 50
18.1209295307145517
 51
161.8790704692854092
  0
ARC
  5
4B73
  8
0
  6
CONTINUOUS
 62
     3
 10
0.0
 20
0.0
 30
0.0
 40
48.7296797270312183
 50
161.080601443980612
 51
18.9193985560195905
  0
CIRCLE
  5
4B74
  8
0
  6
VERDECKT
 62
     1
 10
0.0
 20
0.0
 30
0.0
 40
49.925113364741037
  0
ARC
  5
4B75
  8
0
  6
VERDECKT
 62
     1
 10
-0.0000000000001137
 20
0.0
 30
0.0
 40
48.7296797270312183
 50
18.9193985560195905
 51
89.9999988920946379
  0
ARC
  5
4B76
  8
0
  6
VERDECKT
 62
     1
 10
-0.0000000000001421
 20
0.0000000000002274
 30
0.0
 40
48.7296797270310194
 50
89.9999988920946379
 51
161.080601443980612
  0
ENDBLK
  5
4B67
  8
0
  0
ENDSEC
  0
SECTION
  2
ENTITIES
  0
TEXT
  5
AE3
  8
TEXT
 62
     1
 10
664.6057658946468791
 20
129.0783465745481067
 30
0.0
 40
7.0
  1

 41
0.8
  7
GREEKS
  0
TEXT
  5
166A
  8
VOLL
 10
2258.3182745674262151
 20
200.2207229877182897
 30
0.0
 40
3.6000000000000001
  1

  7
GREEKS
  0
TEXT
  5
166B
  8
VOLL
 10
2501.1238119057879885
 20
614.8615390782432542
 30
0.0
 40
3.6000000000000001
  1

  7
GREEKS
  0
TEXT
  5
166C
  8
VOLL
 10
3160.7902338346279976
 20
247.6826910100569137
 30
0.0
 40
3.6000000000000001
  1

  7
GREEKS
  0
TEXT
  5
166D
  8
VOLL
 10
3153.1256808059529249
 20
225.2750435531351911
 30
0.0
 40
3.6000000000000001
  1

  7
GREEKS
  0
INSERT
  5
18DB
  8
ADSK_ASSOC_ENTITY_BACKUPS
  2
*S0
 10
0.0
 20
0.0
 30
0.0
  0
INSERT
  5
4B3A
  8
STEMPEL
  2
A$C13DF3C4A
 10
-151.5999999999997101
 20
0.0000000000000036
 30
0.0
  0
INSERT
  5
4B58
  8
STEMPEL
  2
A$C2C4B60F9
 10
0.0
 20
0.0
 30
0.0
  0
INSERT
  5
4B68
  8
STEMPEL
  2
A$C3DA9587E
 10
0.0000006496645852
 20
395.9045868912971855
 30
-0.0000000000000655
  0
VIEWPORT
  5
17B9
 67
     1
  8
0
 10
99.3664175041062947
 20
145.4717821042686126
 30
0.0
 40
558.2476521912682301
 41
298.8162216554080146
 68
     1
 69
     1
1001
ACAD
1000
MVIEW
1002
{
1070
    16
1010
0.0
1020
0.0
1030
0.0
1010
0.0
1020
0.0
1030
1.0
1040
0.0
1040
298.8162216554080146
1040
99.3664175041062947
1040
145.4717821042686126
1040
50.0
1040
0.0
1040
0.0
1070
     0
1070
  1500
1070
     1
1070
     1
1070
     0
1070
     0
1070
     0
1070
     0
1040
0.0
1040
0.0
1040
0.0
1040
10.0
1040
10.0
1040
10.0
1040
10.0
1070
     0
1002
{
1002
}
1002
}
  0
ENDSEC
  0
EOF
