  0
SECTION
  2
HEADER
  9
$ACADVER
  1
AC1009
  9
$INSBASE
 10
0.0
 20
0.0
 30
0.0
  9
$EXTMIN
 10
-159.4383301152417971
 20
-0.0000000000000102
 30
-0.0000000000000557
  9
$EXTMAX
 10
36.5000000000000426
 20
347.2368421052615872
 30
0.0
  9
$LIMMIN
 10
0.0
 20
0.0
  9
$LIMMAX
 10
840.0000000000002274
 20
593.9999999999997726
  9
$ORTHOMODE
 70
     1
  9
$REGENMODE
 70
     1
  9
$FILLMODE
 70
     1
  9
$QTEXTMODE
 70
     0
  9
$MIRRTEXT
 70
     1
  9
$DRAGMODE
 70
     2
  9
$LTSCALE
 40
20.0
  9
$OSMODE
 70
  2559
  9
$ATTMODE
 70
     1
  9
$TEXTSIZE
 40
3.5
  9
$TRACEWID
 40
1.0
  9
$TEXTSTYLE
  7
STANDARD
  9
$CLAYER
  8
STEMPEL
  9
$CELTYPE
  6
BYLAYER
  9
$CECOLOR
 62
   256
  9
$DIMSCALE
 40
1.0
  9
$DIMASZ
 40
3.5
  9
$DIMEXO
 40
1.0
  9
$DIMDLI
 40
7.0
  9
$DIMRND
 40
0.0
  9
$DIMDLE
 40
0.0
  9
$DIMEXE
 40
1.0
  9
$DIMTP
 40
0.0
  9
$DIMTM
 40
0.0
  9
$DIMTXT
 40
3.5
  9
$DIMCEN
 40
1.5
  9
$DIMTSZ
 40
0.0
  9
$DIMTOL
 70
     0
  9
$DIMLIM
 70
     0
  9
$DIMTIH
 70
     0
  9
$DIMTOH
 70
     0
  9
$DIMSE1
 70
     0
  9
$DIMSE2
 70
     0
  9
$DIMTAD
 70
     1
  9
$DIMZIN
 70
     8
  9
$DIMBLK
  1

  9
$DIMASO
 70
     1
  9
$DIMSHO
 70
     0
  9
$DIMPOST
  1

  9
$DIMAPOST
  1

  9
$DIMALT
 70
     0
  9
$DIMALTD
 70
     2
  9
$DIMALTF
 40
25.3999999999999986
  9
$DIMLFAC
 40
2.0
  9
$DIMTOFL
 70
     1
  9
$DIMTVP
 40
0.0
  9
$DIMTIX
 70
     0
  9
$DIMSOXD
 70
     0
  9
$DIMSAH
 70
     0
  9
$DIMBLK1
  1

  9
$DIMBLK2
  1

  9
$DIMSTYLE
  2
STANDARD
  9
$DIMCLRD
 70
     0
  9
$DIMCLRE
 70
     0
  9
$DIMCLRT
 70
     1
  9
$DIMTFAC
 40
0.5142857142857143
  9
$DIMGAP
 40
1.5
  9
$LUNITS
 70
     2
  9
$LUPREC
 70
     2
  9
$SKETCHINC
 40
1.0
  9
$FILLETRAD
 40
0.0
  9
$AUNITS
 70
     0
  9
$AUPREC
 70
     0
  9
$MENU
  1
ACAD
  9
$ELEVATION
 40
0.0
  9
$PELEVATION
 40
0.0
  9
$THICKNESS
 40
0.0
  9
$LIMCHECK
 70
     0
  9
$BLIPMODE
 70
     0
  9
$CHAMFERA
 40
0.0
  9
$CHAMFERB
 40
0.0
  9
$SKPOLY
 70
     0
  9
$TDCREATE
 40
2455397.867048610933125
  9
$TDUPDATE
 40
2458500.577685184776783
  9
$TDINDWG
 40
0.5535804745
  9
$TDUSRTIMER
 40
0.5535804745
  9
$USRTIMER
 70
     1
  9
$ANGBASE
 50
0.0
  9
$ANGDIR
 70
     0
  9
$PDMODE
 70
     0
  9
$PDSIZE
 40
0.0
  9
$PLINEWID
 40
0.0
  9
$COORDS
 70
     1
  9
$SPLFRAME
 70
     0
  9
$SPLINETYPE
 70
     6
  9
$SPLINESEGS
 70
     8
  9
$ATTDIA
 70
     1
  9
$ATTREQ
 70
     1
  9
$HANDLING
 70
     1
  9
$HANDSEED
  5
49B1
  9
$SURFTAB1
 70
     6
  9
$SURFTAB2
 70
     6
  9
$SURFTYPE
 70
     6
  9
$SURFU
 70
     6
  9
$SURFV
 70
     6
  9
$UCSNAME
  2

  9
$UCSORG
 10
0.0
 20
0.0
 30
0.0
  9
$UCSXDIR
 10
1.0
 20
0.0
 30
0.0
  9
$UCSYDIR
 10
0.0
 20
1.0
 30
0.0
  9
$PUCSNAME
  2

  9
$PUCSORG
 10
0.0
 20
0.0
 30
0.0
  9
$PUCSXDIR
 10
1.0
 20
0.0
 30
0.0
  9
$PUCSYDIR
 10
0.0
 20
1.0
 30
0.0
  9
$USERI1
 70
     0
  9
$USERI2
 70
     0
  9
$USERI3
 70
     0
  9
$USERI4
 70
     0
  9
$USERI5
 70
     0
  9
$USERR1
 40
0.0
  9
$USERR2
 40
0.0
  9
$USERR3
 40
0.0
  9
$USERR4
 40
0.0
  9
$USERR5
 40
0.0
  9
$WORLDVIEW
 70
     1
  9
$SHADEDGE
 70
     3
  9
$SHADEDIF
 70
    70
  9
$TILEMODE
 70
     1
  9
$MAXACTVP
 70
    16
  9
$PLIMCHECK
 70
     0
  9
$PEXTMIN
 10
1.0000000000000000E+20
 20
1.0000000000000000E+20
 30
1.0000000000000000E+20
  9
$PEXTMAX
 10
-1.0000000000000000E+20
 20
-1.0000000000000000E+20
 30
-1.0000000000000000E+20
  9
$PLIMMIN
 10
-5.7377405068367171
 20
-3.1785530134047848
  9
$PLIMMAX
 10
204.4705755150492053
 20
294.1221172219420055
  9
$UNITMODE
 70
     0
  9
$VISRETAIN
 70
     0
  9
$PLINEGEN
 70
     0
  9
$PSLTSCALE
 70
     0
  0
ENDSEC
  0
SECTION
  2
TABLES
  0
TABLE
  2
VPORT
 70
     1
  0
VPORT
  2
*ACTIVE
 70
     0
 10
0.0
 20
0.0
 11
1.0
 21
1.0
 12
-16.861295469512239
 22
80.8538300275149453
 13
0.0
 23
0.0
 14
1.0
 24
1.0
 15
10.0
 25
10.0
 16
0.000000000000199
 26
0.0
 36
896.1724247744242575
 17
0.0
 27
92.75
 37
110.9999999999999005
 40
340.7232771118395931
 41
1.868197278911564
 42
50.0
 43
0.0
 44
0.0
 50
0.0
 51
0.0
 71
     0
 72
  1500
 73
     1
 74
     0
 75
     0
 76
     0
 77
     0
 78
     0
  0
ENDTAB
  0
TABLE
  2
LTYPE
 70
     3
  0
LTYPE
  2
CONTINUOUS
 70
     0
  3
Solid line
 72
    65
 73
     0
 40
0.0
  0
LTYPE
  2
STRICHPUNKT
 70
     0
  3
__ . __ . __ . __ . __ . __ . __ . __ . __ . __
 72
    65
 73
     4
 40
1.0
 49
0.5
 49
-0.25
 49
0.0
 49
-0.25
  0
LTYPE
  2
VERDECKT
 70
     0
  3
_ _ _ _ _ _ _ _ _ _ _ _ _ _ _ _ _ _ _ _ _ _ _
 72
    65
 73
     2
 40
0.375
 49
0.25
 49
-0.125
  0
ENDTAB
  0
TABLE
  2
LAYER
 70
     6
  0
LAYER
  2
0
 70
     0
 62
     7
  6
CONTINUOUS
  0
LAYER
  2
VOLL
 70
     0
 62
     1
  6
CONTINUOUS
  0
LAYER
  2
STEMPEL
 70
     0
 62
     3
  6
CONTINUOUS
  0
LAYER
  2
TEXT
 70
     0
 62
     7
  6
CONTINUOUS
  0
LAYER
  2
DEFPOINTS
 70
     0
 62
     7
  6
CONTINUOUS
  0
LAYER
  2
ADSK_ASSOC_ENTITY_BACKUPS
 70
     1
 62
    -7
  6
CONTINUOUS
  0
ENDTAB
  0
TABLE
  2
STYLE
 70
     2
  0
STYLE
  2
STANDARD
 70
     0
 40
0.0
 41
0.8
 50
0.0
 71
     0
 42
3.5
  3
simplex.shx
  4

  0
STYLE
  2
GREEKS
 70
     0
 40
0.0
 41
0.8
 50
0.0
 71
     0
 42
2.5
  3
SIMPLEX.shx
  4

  0
ENDTAB
  0
TABLE
  2
VIEW
 70
     0
  0
ENDTAB
  0
TABLE
  2
UCS
 70
     0
  0
ENDTAB
  0
TABLE
  2
APPID
 70
    21
  0
APPID
  2
ACAD
 70
     0
  0
APPID
  2
ACAD_EXEMPT_FROM_CAD_STANDARDS
 70
     0
  0
APPID
  2
ACAD_NAV_VCDISPLAY
 70
     0
  0
APPID
  2
ACAD_MLEADERVER
 70
     0
  0
APPID
  2
ACAD_PSEXT
 70
     0
  0
APPID
  2
ACAECLAYERSTANDARD
 70
     0
  0
APPID
  2
ACCMTRANSPARENCY
 70
     0
  0
APPID
  2
ACAD_STEPID
 70
     0
  0
APPID
  2
ACADANNOTATIVE
 70
     0
  0
APPID
  2
ACDBDYNAMICBLOCKGUID
 70
     0
  0
APPID
  2
ACSYNERGY
 70
     0
  0
APPID
  2
SYNERGY_BODY_TBR_ID
 70
     0
  0
APPID
  2
ACAD_VIEW_EDGE_ID
 70
     0
  0
APPID
  2
ACSYNERGYSKETCH
 70
     0
  0
APPID
  2
ACADANNOPO
 70
     0
  0
APPID
  2
ACAD_MODELDOC_XFORM
 70
     0
  0
APPID
  2
ACAD_DSTYLE_DIMJAG
 70
     0
  0
APPID
  2
ACAD_DSTYLE_DIMTALN
 70
     0
  0
APPID
  2
ACADANNOMONITORALERTICONDI
 70
     0
  0
APPID
  2
ACAUTHENVIRON
 70
     0
  0
APPID
  2
ACDBDYNAMICBLOCKTRUENAME
 70
     0
  0
ENDTAB
  0
TABLE
  2
DIMSTYLE
 70
     1
  0
DIMSTYLE
  2
STANDARD
 70
     0
  3

  4

  5

  6

  7

 40
1.0
 41
0.18
 42
0.0625
 43
0.38
 44
0.18
 45
0.0
 46
0.0
 47
0.0
 48
0.0
140
0.18
141
0.09
142
0.0
143
25.3999999999999986
144
1.0
145
0.0
146
1.0
147
0.09
 71
     0
 72
     0
 73
     1
 74
     1
 75
     0
 76
     0
 77
     0
 78
     0
170
     0
171
     2
172
     0
173
     0
174
     0
175
     0
176
     0
177
     0
178
     0
  0
ENDTAB
  0
ENDSEC
  0
SECTION
  2
BLOCKS
  0
BLOCK
  8
0
  2
$MODEL_SPACE
 70
     0
 10
0.0
 20
0.0
 30
0.0
  3
$MODEL_SPACE
  1

  0
ENDBLK
  5
38
  8
0
  0
BLOCK
 67
     1
  8
0
  2
$PAPER_SPACE
 70
     0
 10
0.0
 20
0.0
 30
0.0
  3
$PAPER_SPACE
  1

  0
ENDBLK
  5
36
 67
     1
  8
0
  0
BLOCK
  8
0
  2
*S0
 70
     1
 10
0.0
 20
0.0
 30
0.0
  3
*S0
  1

  0
ENDBLK
  5
18D9
  8
0
  0
BLOCK
  8
0
  2
A$C705E091A
 70
     0
 10
0.0
 20
0.0
 30
0.0
  3
A$C705E091A
  1

  0
LINE
  5
47ED
  8
0
  6
CONTINUOUS
 62
     3
 10
-36.5
 20
150.0
 30
-0.0000000000000333
 11
1.500000000000014
 21
220.0000000000001137
 31
-0.0000000000000488
210
0.0
220
1.0
230
-0.0000000000000002
  0
LINE
  5
47EE
  8
0
  6
CONTINUOUS
 62
     3
 10
36.5000000000000426
 20
220.0000000000001137
 30
-0.0000000000000488
 11
1.5
 21
220.0000000000001137
 31
-0.0000000000000488
210
0.0
220
1.0
230
-0.0000000000000002
  0
LINE
  5
47EF
  8
0
  6
CONTINUOUS
 62
     3
 10
-35.8875793553185076
 20
0.0
 30
0.0
 11
35.8875793553185076
 21
0.0
 31
0.0
210
0.0
220
1.0
230
-0.0000000000000002
  0
LINE
  5
47F0
  8
0
  6
CONTINUOUS
 62
     3
 10
36.5
 20
220.0000000000001137
 30
-0.0000000000000488
 11
36.5
 21
6.9999999999982956
 31
-0.0000000000000016
210
0.0
220
1.0
230
-0.0000000000000002
  0
LINE
  5
47F1
  8
0
  6
CONTINUOUS
 62
     3
 10
-36.5
 20
150.0
 30
-0.0000000000000333
 11
-36.5
 21
6.9999999999982956
 31
-0.0000000000000016
210
0.0
220
1.0
230
-0.0000000000000002
  0
LINE
  5
47F2
  8
0
  6
CONTINUOUS
 62
     3
 10
-35.8875793553184579
 20
0.000000000000004
 30
0.0
 11
-36.4999999999999503
 21
6.9999999999983009
 31
-0.0000000000000016
210
0.0
220
1.0
230
-0.0000000000000002
  0
LINE
  5
47F3
  8
0
  6
CONTINUOUS
 62
     3
 10
35.8875793553184579
 20
0.000000000000004
 30
0.0
 11
36.4999999999999503
 21
6.9999999999983009
 31
-0.0000000000000016
210
0.0
220
1.0
230
-0.0000000000000002
  0
LINE
  5
47F4
  8
0
  6
CONTINUOUS
 62
     3
 10
1.500000000000014
 20
222.0000000000001137
 30
-0.0000000000000493
 11
1.500000000000014
 21
220.0000000000001137
 31
-0.0000000000000488
210
0.0
220
1.0
230
-0.0000000000000002
  0
LINE
  5
47F5
  8
0
  6
CONTINUOUS
 62
     3
 10
36.5
 20
222.0000000000001137
 30
-0.0000000000000493
 11
1.5000000000000071
 21
222.0000000000001137
 31
-0.0000000000000493
210
0.0
220
1.0
230
-0.0000000000000002
  0
LINE
  5
47F6
  8
0
  6
CONTINUOUS
 62
     3
 10
1.5000000000000111
 20
220.0000000000001137
 30
-0.0000000000000488
 11
36.5
 21
220.0000000000001137
 31
-0.0000000000000488
210
0.0
220
1.0
230
-0.0000000000000002
  0
LINE
  5
47F7
  8
0
  6
CONTINUOUS
 62
     3
 10
36.5
 20
220.0000000000001137
 30
-0.0000000000000488
 11
36.5
 21
222.0000000000001137
 31
-0.0000000000000493
210
0.0
220
1.0
230
-0.0000000000000002
  0
LINE
  5
47F8
  8
0
  6
VERDECKT
 62
     1
 10
-34.6921457176084687
 20
0.104586891297231
 30
0.0
 11
34.6921457176084687
 21
0.104586891297231
 31
0.0
210
0.0
220
1.0
230
-0.0000000000000002
  0
LINE
  5
47F9
  8
0
  6
VERDECKT
 62
     1
 10
35.2999999999999616
 20
220.0000000000001137
 30
-0.0000000000000488
 11
35.2999999999999616
 21
7.0523931314871797
 31
-0.0000000000000016
210
0.0
220
1.0
230
-0.0000000000000002
  0
LINE
  5
47FA
  8
0
  6
VERDECKT
 62
     1
 10
-35.2999999999999616
 20
152.2105263157895934
 30
-0.0000000000000338
 11
-35.2999999999999616
 21
7.0523931314871797
 31
-0.0000000000000016
210
0.0
220
1.0
230
-0.0000000000000002
  0
LINE
  5
47FB
  8
0
  6
VERDECKT
 62
     1
 10
34.6921457176084687
 20
0.104586891297231
 30
0.0
 11
35.8875793553185076
 21
0.0
 31
0.0
210
0.0
220
1.0
230
-0.0000000000000002
  0
LINE
  5
47FC
  8
0
  6
VERDECKT
 62
     1
 10
-34.6921457176084687
 20
0.104586891297231
 30
0.0
 11
-35.8875793553185076
 21
0.0
 31
0.0
210
0.0
220
1.0
230
-0.0000000000000002
  0
LINE
  5
47FD
  8
0
  6
VERDECKT
 62
     1
 10
-34.6921457176084118
 20
0.1045868912972363
 30
0.0
 11
-35.2999999999998977
 21
7.0523931314871851
 31
-0.0000000000000016
210
0.0
220
1.0
230
-0.0000000000000002
  0
LINE
  5
47FE
  8
0
  6
VERDECKT
 62
     1
 10
34.6921457176084118
 20
0.1045868912972363
 30
0.0
 11
35.2999999999998977
 21
7.0523931314871851
 31
-0.0000000000000016
210
0.0
220
1.0
230
-0.0000000000000002
  0
ENDBLK
  5
4800
  8
0
  0
BLOCK
  8
0
  2
A$C70690AA1
 70
     0
 10
0.0
 20
0.0
 30
0.0
  3
A$C70690AA1
  1

  0
ARC
  5
482C
  8
0
  6
CONTINUOUS
 62
     3
 10
0.0000000000000142
 20
-0.0000000000000767
 30
0.0
 40
36.5000000000000213
 50
357.6447156442255277
 51
182.3552843557743017
  0
ARC
  5
482D
  8
0
  6
CONTINUOUS
 62
     3
 10
0.0000000000000142
 20
-0.0000000000000767
 30
0.0
 40
35.2999999999999829
 50
357.5646018608724148
 51
182.4353981391274999
  0
ARC
  5
482E
  8
0
  6
CONTINUOUS
 62
     3
 10
0.0
 20
-0.0000000000000284
 30
0.0
 40
34.6921457176084687
 50
357.5219039256944029
 51
182.4780960743055118
  0
LINE
  5
482F
  8
0
  6
CONTINUOUS
 62
     3
 10
36.4691650576208914
 20
-1.5000000000000979
 30
0.0
 11
-36.4691650576208914
 21
-1.500000000000085
 31
0.0
  0
ARC
  5
4830
  8
0
  6
CONTINUOUS
 62
     3
 10
0.0
 20
-0.0000000000001275
 30
0.0
 40
36.4999999999999503
 50
182.3552843557743017
 51
357.6447156442255846
  0
ARC
  5
4831
  8
0
  6
VERDECKT
 62
     1
 10
0.0000000000000142
 20
-0.0000000000000773
 30
0.0
 40
35.2999999999999474
 50
182.4353981391274999
 51
357.5646018608724717
  0
CIRCLE
  5
4832
  8
0
  6
VERDECKT
 62
     1
 10
0.0
 20
-0.0000000000000284
 30
0.0
 40
35.8875793553185076
  0
ARC
  5
4833
  8
0
  6
VERDECKT
 62
     1
 10
-0.0000000000001137
 20
-0.0000000000001421
 30
0.0
 40
34.6921457176083621
 50
182.4780960743053129
 51
270.0000000000001137
  0
ARC
  5
4834
  8
0
  6
VERDECKT
 62
     1
 10
0.0000000000000426
 20
-0.0000000000000284
 30
0.0
 40
34.6921457176084331
 50
269.9999999999997726
 51
357.5219039256944029
  0
ENDBLK
  5
480E
  8
0
  0
BLOCK
  8
0
  2
A$C4E3D5BB6
 70
     0
 10
0.0
 20
0.0
 30
0.0
  3
A$C4E3D5BB6
  1

  0
POLYLINE
  5
4812
  8
0
  6
CONTINUOUS
 62
     3
 10
36.4691650576209128
 20
220.0000000000001421
 30
-0.0000000000000488
 66
     1
 70
     8
  0
VERTEX
  8
0
  5
48AD
 10
36.4692
 20
220.000
 30
-4.88123e-14
  70
    32
  0
VERTEX
  8
0
  5
48AE
 10
36.4954
 20
218.307
 30
-4.84372e-14
  70
    32
  0
VERTEX
  8
0
  5
48AF
 10
36.4984
 20
216.614
 30
-4.80620e-14
  70
    32
  0
VERTEX
  8
0
  5
48B0
 10
36.4783
 20
214.921
 30
-4.76868e-14
  70
    32
  0
VERTEX
  8
0
  5
48B1
 10
36.4351
 20
213.229
 30
-4.73119e-14
  70
    32
  0
VERTEX
  8
0
  5
48B2
 10
36.3688
 20
211.540
 30
-4.69377e-14
  70
    32
  0
VERTEX
  8
0
  5
48B3
 10
36.2794
 20
209.855
 30
-4.65642e-14
  70
    32
  0
VERTEX
  8
0
  5
48B4
 10
36.1669
 20
208.174
 30
-4.61917e-14
  70
    32
  0
VERTEX
  8
0
  5
48B5
 10
36.0316
 20
206.500
 30
-4.58206e-14
  70
    32
  0
VERTEX
  8
0
  5
48B6
 10
35.8734
 20
204.831
 30
-4.54509e-14
  70
    32
  0
VERTEX
  8
0
  5
48B7
 10
35.6924
 20
203.171
 30
-4.50830e-14
  70
    32
  0
VERTEX
  8
0
  5
48B8
 10
35.4888
 20
201.520
 30
-4.47170e-14
  70
    32
  0
VERTEX
  8
0
  5
48B9
 10
35.2627
 20
199.879
 30
-4.43533e-14
  70
    32
  0
VERTEX
  8
0
  5
48BA
 10
35.0142
 20
198.248
 30
-4.39920e-14
  70
    32
  0
VERTEX
  8
0
  5
48BB
 10
34.7435
 20
196.630
 30
-4.36334e-14
  70
    32
  0
VERTEX
  8
0
  5
48BC
 10
34.4507
 20
195.025
 30
-4.32777e-14
  70
    32
  0
VERTEX
  8
0
  5
48BD
 10
34.1361
 20
193.433
 30
-4.29251e-14
  70
    32
  0
VERTEX
  8
0
  5
48BE
 10
33.7999
 20
191.857
 30
-4.25758e-14
  70
    32
  0
VERTEX
  8
0
  5
48BF
 10
33.4422
 20
190.298
 30
-4.22301e-14
  70
    32
  0
VERTEX
  8
0
  5
48C0
 10
33.0633
 20
188.755
 30
-4.18882e-14
  70
    32
  0
VERTEX
  8
0
  5
48C1
 10
32.6635
 20
187.230
 30
-4.15503e-14
  70
    32
  0
VERTEX
  8
0
  5
48C2
 10
32.2429
 20
185.724
 30
-4.12166e-14
  70
    32
  0
VERTEX
  8
0
  5
48C3
 10
31.8019
 20
184.238
 30
-4.08874e-14
  70
    32
  0
VERTEX
  8
0
  5
48C4
 10
31.3406
 20
182.774
 30
-4.05628e-14
  70
    32
  0
VERTEX
  8
0
  5
48C5
 10
30.8596
 20
181.331
 30
-4.02430e-14
  70
    32
  0
VERTEX
  8
0
  5
48C6
 10
30.3589
 20
179.910
 30
-3.99283e-14
  70
    32
  0
VERTEX
  8
0
  5
48C7
 10
29.8390
 20
178.514
 30
-3.96188e-14
  70
    32
  0
VERTEX
  8
0
  5
48C8
 10
29.3001
 20
177.142
 30
-3.93148e-14
  70
    32
  0
VERTEX
  8
0
  5
48C9
 10
28.7427
 20
175.795
 30
-3.90164e-14
  70
    32
  0
VERTEX
  8
0
  5
48CA
 10
28.1671
 20
174.475
 30
-3.87238e-14
  70
    32
  0
VERTEX
  8
0
  5
48CB
 10
27.5735
 20
173.182
 30
-3.84372e-14
  70
    32
  0
VERTEX
  8
0
  5
48CC
 10
26.9625
 20
171.917
 30
-3.81569e-14
  70
    32
  0
VERTEX
  8
0
  5
48CD
 10
26.3344
 20
170.680
 30
-3.78829e-14
  70
    32
  0
VERTEX
  8
0
  5
48CE
 10
25.6896
 20
169.473
 30
-3.76154e-14
  70
    32
  0
VERTEX
  8
0
  5
48CF
 10
25.0284
 20
168.297
 30
-3.73547e-14
  70
    32
  0
VERTEX
  8
0
  5
48D0
 10
24.3515
 20
167.151
 30
-3.71008e-14
  70
    32
  0
VERTEX
  8
0
  5
48D1
 10
23.6590
 20
166.038
 30
-3.68540e-14
  70
    32
  0
VERTEX
  8
0
  5
48D2
 10
22.9516
 20
164.956
 30
-3.66144e-14
  70
    32
  0
VERTEX
  8
0
  5
48D3
 10
22.2296
 20
163.908
 30
-3.63821e-14
  70
    32
  0
VERTEX
  8
0
  5
48D4
 10
21.4935
 20
162.894
 30
-3.61573e-14
  70
    32
  0
VERTEX
  8
0
  5
48D5
 10
20.7437
 20
161.914
 30
-3.59402e-14
  70
    32
  0
VERTEX
  8
0
  5
48D6
 10
19.9808
 20
160.969
 30
-3.57308e-14
  70
    32
  0
VERTEX
  8
0
  5
48D7
 10
19.2053
 20
160.060
 30
-3.55294e-14
  70
    32
  0
VERTEX
  8
0
  5
48D8
 10
18.4175
 20
159.187
 30
-3.53359e-14
  70
    32
  0
VERTEX
  8
0
  5
48D9
 10
17.6181
 20
158.351
 30
-3.51507e-14
  70
    32
  0
VERTEX
  8
0
  5
48DA
 10
16.8075
 20
157.553
 30
-3.49737e-14
  70
    32
  0
VERTEX
  8
0
  5
48DB
 10
15.9862
 20
156.792
 30
-3.48051e-14
  70
    32
  0
VERTEX
  8
0
  5
48DC
 10
15.1548
 20
156.069
 30
-3.46450e-14
  70
    32
  0
VERTEX
  8
0
  5
48DD
 10
14.3138
 20
155.386
 30
-3.44935e-14
  70
    32
  0
VERTEX
  8
0
  5
48DE
 10
13.4637
 20
154.741
 30
-3.43507e-14
  70
    32
  0
VERTEX
  8
0
  5
48DF
 10
12.6050
 20
154.137
 30
-3.42167e-14
  70
    32
  0
VERTEX
  8
0
  5
48E0
 10
11.7384
 20
153.572
 30
-3.40915e-14
  70
    32
  0
VERTEX
  8
0
  5
48E1
 10
10.8643
 20
153.048
 30
-3.39753e-14
  70
    32
  0
VERTEX
  8
0
  5
48E2
 10
9.98331
 20
152.564
 30
-3.38682e-14
  70
    32
  0
VERTEX
  8
0
  5
48E3
 10
9.09601
 20
152.121
 30
-3.37701e-14
  70
    32
  0
VERTEX
  8
0
  5
48E4
 10
8.20293
 20
151.720
 30
-3.36812e-14
  70
    32
  0
VERTEX
  8
0
  5
48E5
 10
7.30465
 20
151.360
 30
-3.36014e-14
  70
    32
  0
VERTEX
  8
0
  5
48E6
 10
6.40174
 20
151.042
 30
-3.35310e-14
  70
    32
  0
VERTEX
  8
0
  5
48E7
 10
5.49476
 20
150.766
 30
-3.34698e-14
  70
    32
  0
VERTEX
  8
0
  5
48E8
 10
4.58431
 20
150.532
 30
-3.34180e-14
  70
    32
  0
VERTEX
  8
0
  5
48E9
 10
3.67094
 20
150.341
 30
-3.33755e-14
  70
    32
  0
VERTEX
  8
0
  5
48EA
 10
2.75524
 20
150.192
 30
-3.33425e-14
  70
    32
  0
VERTEX
  8
0
  5
48EB
 10
1.83780
 20
150.085
 30
-3.33189e-14
  70
    32
  0
VERTEX
  8
0
  5
48EC
 10
0.919192
 20
150.021
 30
-3.33047e-14
  70
    32
  0
VERTEX
  8
0
  5
48ED
 10
-3.49115e-14
 20
150.000
 30
-3.33000e-14
  70
    32
  0
VERTEX
  8
0
  5
48EE
 10
-0.919192
 20
150.021
 30
-3.33047e-14
  70
    32
  0
VERTEX
  8
0
  5
48EF
 10
-1.83780
 20
150.085
 30
-3.33189e-14
  70
    32
  0
VERTEX
  8
0
  5
48F0
 10
-2.75524
 20
150.192
 30
-3.33425e-14
  70
    32
  0
VERTEX
  8
0
  5
48F1
 10
-3.67094
 20
150.341
 30
-3.33755e-14
  70
    32
  0
VERTEX
  8
0
  5
48F2
 10
-4.58431
 20
150.532
 30
-3.34180e-14
  70
    32
  0
VERTEX
  8
0
  5
48F3
 10
-5.49476
 20
150.766
 30
-3.34698e-14
  70
    32
  0
VERTEX
  8
0
  5
48F4
 10
-6.40174
 20
151.042
 30
-3.35310e-14
  70
    32
  0
VERTEX
  8
0
  5
48F5
 10
-7.30465
 20
151.360
 30
-3.36014e-14
  70
    32
  0
VERTEX
  8
0
  5
48F6
 10
-8.20293
 20
151.720
 30
-3.36812e-14
  70
    32
  0
VERTEX
  8
0
  5
48F7
 10
-9.09601
 20
152.121
 30
-3.37701e-14
  70
    32
  0
VERTEX
  8
0
  5
48F8
 10
-9.98331
 20
152.564
 30
-3.38682e-14
  70
    32
  0
VERTEX
  8
0
  5
48F9
 10
-10.8643
 20
153.048
 30
-3.39753e-14
  70
    32
  0
VERTEX
  8
0
  5
48FA
 10
-11.7384
 20
153.572
 30
-3.40915e-14
  70
    32
  0
VERTEX
  8
0
  5
48FB
 10
-12.6050
 20
154.137
 30
-3.42167e-14
  70
    32
  0
VERTEX
  8
0
  5
48FC
 10
-13.4637
 20
154.741
 30
-3.43507e-14
  70
    32
  0
VERTEX
  8
0
  5
48FD
 10
-14.3138
 20
155.386
 30
-3.44935e-14
  70
    32
  0
VERTEX
  8
0
  5
48FE
 10
-15.1548
 20
156.069
 30
-3.46450e-14
  70
    32
  0
VERTEX
  8
0
  5
48FF
 10
-15.9862
 20
156.792
 30
-3.48051e-14
  70
    32
  0
VERTEX
  8
0
  5
4900
 10
-16.8075
 20
157.553
 30
-3.49737e-14
  70
    32
  0
VERTEX
  8
0
  5
4901
 10
-17.6181
 20
158.351
 30
-3.51507e-14
  70
    32
  0
VERTEX
  8
0
  5
4902
 10
-18.4175
 20
159.187
 30
-3.53359e-14
  70
    32
  0
VERTEX
  8
0
  5
4903
 10
-19.2053
 20
160.060
 30
-3.55294e-14
  70
    32
  0
VERTEX
  8
0
  5
4904
 10
-19.9808
 20
160.969
 30
-3.57308e-14
  70
    32
  0
VERTEX
  8
0
  5
4905
 10
-20.7437
 20
161.914
 30
-3.59402e-14
  70
    32
  0
VERTEX
  8
0
  5
4906
 10
-21.4935
 20
162.894
 30
-3.61573e-14
  70
    32
  0
VERTEX
  8
0
  5
4907
 10
-22.2296
 20
163.908
 30
-3.63821e-14
  70
    32
  0
VERTEX
  8
0
  5
4908
 10
-22.9516
 20
164.956
 30
-3.66144e-14
  70
    32
  0
VERTEX
  8
0
  5
4909
 10
-23.6590
 20
166.038
 30
-3.68540e-14
  70
    32
  0
VERTEX
  8
0
  5
490A
 10
-24.3515
 20
167.151
 30
-3.71008e-14
  70
    32
  0
VERTEX
  8
0
  5
490B
 10
-25.0284
 20
168.297
 30
-3.73547e-14
  70
    32
  0
VERTEX
  8
0
  5
490C
 10
-25.6896
 20
169.473
 30
-3.76154e-14
  70
    32
  0
VERTEX
  8
0
  5
490D
 10
-26.3344
 20
170.680
 30
-3.78829e-14
  70
    32
  0
VERTEX
  8
0
  5
490E
 10
-26.9625
 20
171.917
 30
-3.81569e-14
  70
    32
  0
VERTEX
  8
0
  5
490F
 10
-27.5735
 20
173.182
 30
-3.84372e-14
  70
    32
  0
VERTEX
  8
0
  5
4910
 10
-28.1671
 20
174.475
 30
-3.87238e-14
  70
    32
  0
VERTEX
  8
0
  5
4911
 10
-28.7427
 20
175.795
 30
-3.90164e-14
  70
    32
  0
VERTEX
  8
0
  5
4912
 10
-29.3001
 20
177.142
 30
-3.93148e-14
  70
    32
  0
VERTEX
  8
0
  5
4913
 10
-29.8390
 20
178.514
 30
-3.96188e-14
  70
    32
  0
VERTEX
  8
0
  5
4914
 10
-30.3589
 20
179.910
 30
-3.99283e-14
  70
    32
  0
VERTEX
  8
0
  5
4915
 10
-30.8596
 20
181.331
 30
-4.02430e-14
  70
    32
  0
VERTEX
  8
0
  5
4916
 10
-31.3406
 20
182.774
 30
-4.05628e-14
  70
    32
  0
VERTEX
  8
0
  5
4917
 10
-31.8019
 20
184.238
 30
-4.08874e-14
  70
    32
  0
VERTEX
  8
0
  5
4918
 10
-32.2429
 20
185.724
 30
-4.12166e-14
  70
    32
  0
VERTEX
  8
0
  5
4919
 10
-32.6635
 20
187.230
 30
-4.15503e-14
  70
    32
  0
VERTEX
  8
0
  5
491A
 10
-33.0633
 20
188.755
 30
-4.18882e-14
  70
    32
  0
VERTEX
  8
0
  5
491B
 10
-33.4422
 20
190.298
 30
-4.22301e-14
  70
    32
  0
VERTEX
  8
0
  5
491C
 10
-33.7999
 20
191.857
 30
-4.25758e-14
  70
    32
  0
VERTEX
  8
0
  5
491D
 10
-34.1361
 20
193.433
 30
-4.29251e-14
  70
    32
  0
VERTEX
  8
0
  5
491E
 10
-34.4507
 20
195.025
 30
-4.32777e-14
  70
    32
  0
VERTEX
  8
0
  5
491F
 10
-34.7435
 20
196.630
 30
-4.36334e-14
  70
    32
  0
VERTEX
  8
0
  5
4920
 10
-35.0142
 20
198.248
 30
-4.39920e-14
  70
    32
  0
VERTEX
  8
0
  5
4921
 10
-35.2627
 20
199.879
 30
-4.43533e-14
  70
    32
  0
VERTEX
  8
0
  5
4922
 10
-35.4888
 20
201.520
 30
-4.47170e-14
  70
    32
  0
VERTEX
  8
0
  5
4923
 10
-35.6924
 20
203.171
 30
-4.50830e-14
  70
    32
  0
VERTEX
  8
0
  5
4924
 10
-35.8734
 20
204.831
 30
-4.54509e-14
  70
    32
  0
VERTEX
  8
0
  5
4925
 10
-36.0316
 20
206.500
 30
-4.58206e-14
  70
    32
  0
VERTEX
  8
0
  5
4926
 10
-36.1669
 20
208.174
 30
-4.61917e-14
  70
    32
  0
VERTEX
  8
0
  5
4927
 10
-36.2794
 20
209.855
 30
-4.65642e-14
  70
    32
  0
VERTEX
  8
0
  5
4928
 10
-36.3688
 20
211.540
 30
-4.69377e-14
  70
    32
  0
VERTEX
  8
0
  5
4929
 10
-36.4351
 20
213.229
 30
-4.73119e-14
  70
    32
  0
VERTEX
  8
0
  5
492A
 10
-36.4783
 20
214.921
 30
-4.76868e-14
  70
    32
  0
VERTEX
  8
0
  5
492B
 10
-36.4984
 20
216.614
 30
-4.80620e-14
  70
    32
  0
VERTEX
  8
0
  5
492C
 10
-36.4954
 20
218.307
 30
-4.84372e-14
  70
    32
  0
VERTEX
  8
0
  5
492D
 10
-36.4692
 20
220.000
 30
-4.88123e-14
  70
    32
  0
SEQEND
  8
0
  5
492E
  0
LINE
  5
4813
  8
0
  6
CONTINUOUS
 62
     3
 10
35.2681159122513392
 20
220.0000000000001137
 30
-0.0000000000000488
 11
36.4691650576209412
 21
220.0000000000001137
 31
-0.0000000000000488
210
-0.0000000000000002
220
1.0
230
-0.0000000000000002
  0
POLYLINE
  5
4814
  8
0
  6
CONTINUOUS
 62
     3
 10
-35.2681159122514032
 20
220.0000000000000853
 30
-0.0000000000000488
 66
     1
 70
     8
  0
VERTEX
  8
0
  5
492F
 10
-35.2681
 20
220.000
 30
-4.88119e-14
  70
    32
  0
VERTEX
  8
0
  5
4930
 10
-35.2947
 20
218.362
 30
-4.84491e-14
  70
    32
  0
VERTEX
  8
0
  5
4931
 10
-35.2989
 20
216.722
 30
-4.80861e-14
  70
    32
  0
VERTEX
  8
0
  5
4932
 10
-35.2806
 20
215.084
 30
-4.77232e-14
  70
    32
  0
VERTEX
  8
0
  5
4933
 10
-35.2400
 20
213.446
 30
-4.73606e-14
  70
    32
  0
VERTEX
  8
0
  5
4934
 10
-35.1769
 20
211.811
 30
-4.69985e-14
  70
    32
  0
VERTEX
  8
0
  5
4935
 10
-35.0915
 20
210.180
 30
-4.66372e-14
  70
    32
  0
VERTEX
  8
0
  5
4936
 10
-34.9838
 20
208.553
 30
-4.62769e-14
  70
    32
  0
VERTEX
  8
0
  5
4937
 10
-34.8539
 20
206.931
 30
-4.59178e-14
  70
    32
  0
VERTEX
  8
0
  5
4938
 10
-34.7018
 20
205.316
 30
-4.55602e-14
  70
    32
  0
VERTEX
  8
0
  5
4939
 10
-34.5276
 20
203.709
 30
-4.52042e-14
  70
    32
  0
VERTEX
  8
0
  5
493A
 10
-34.3316
 20
202.110
 30
-4.48501e-14
  70
    32
  0
VERTEX
  8
0
  5
493B
 10
-34.1137
 20
200.521
 30
-4.44982e-14
  70
    32
  0
VERTEX
  8
0
  5
493C
 10
-33.8741
 20
198.942
 30
-4.41486e-14
  70
    32
  0
VERTEX
  8
0
  5
493D
 10
-33.6130
 20
197.375
 30
-4.38016e-14
  70
    32
  0
VERTEX
  8
0
  5
493E
 10
-33.3306
 20
195.821
 30
-4.34574e-14
  70
    32
  0
VERTEX
  8
0
  5
493F
 10
-33.0270
 20
194.280
 30
-4.31162e-14
  70
    32
  0
VERTEX
  8
0
  5
4940
 10
-32.7023
 20
192.754
 30
-4.27782e-14
  70
    32
  0
VERTEX
  8
0
  5
4941
 10
-32.3570
 20
191.243
 30
-4.24437e-14
  70
    32
  0
VERTEX
  8
0
  5
4942
 10
-31.9910
 20
189.749
 30
-4.21128e-14
  70
    32
  0
VERTEX
  8
0
  5
4943
 10
-31.6047
 20
188.272
 30
-4.17859e-14
  70
    32
  0
VERTEX
  8
0
  5
4944
 10
-31.1984
 20
186.814
 30
-4.14629e-14
  70
    32
  0
VERTEX
  8
0
  5
4945
 10
-30.7722
 20
185.375
 30
-4.11443e-14
  70
    32
  0
VERTEX
  8
0
  5
4946
 10
-30.3265
 20
183.957
 30
-4.08301e-14
  70
    32
  0
VERTEX
  8
0
  5
4947
 10
-29.8615
 20
182.559
 30
-4.05207e-14
  70
    32
  0
VERTEX
  8
0
  5
4948
 10
-29.3775
 20
181.184
 30
-4.02161e-14
  70
    32
  0
VERTEX
  8
0
  5
4949
 10
-28.8748
 20
179.831
 30
-3.99165e-14
  70
    32
  0
VERTEX
  8
0
  5
494A
 10
-28.3539
 20
178.502
 30
-3.96223e-14
  70
    32
  0
VERTEX
  8
0
  5
494B
 10
-27.8148
 20
177.198
 30
-3.93335e-14
  70
    32
  0
VERTEX
  8
0
  5
494C
 10
-27.2582
 20
175.919
 30
-3.90503e-14
  70
    32
  0
VERTEX
  8
0
  5
494D
 10
-26.6842
 20
174.667
 30
-3.87729e-14
  70
    32
  0
VERTEX
  8
0
  5
494E
 10
-26.0932
 20
173.441
 30
-3.85016e-14
  70
    32
  0
VERTEX
  8
0
  5
494F
 10
-25.4857
 20
172.244
 30
-3.82363e-14
  70
    32
  0
VERTEX
  8
0
  5
4950
 10
-24.8620
 20
171.075
 30
-3.79775e-14
  70
    32
  0
VERTEX
  8
0
  5
4951
 10
-24.2224
 20
169.935
 30
-3.77251e-14
  70
    32
  0
VERTEX
  8
0
  5
4952
 10
-23.5675
 20
168.825
 30
-3.74794e-14
  70
    32
  0
VERTEX
  8
0
  5
4953
 10
-22.8976
 20
167.747
 30
-3.72404e-14
  70
    32
  0
VERTEX
  8
0
  5
4954
 10
-22.2132
 20
166.699
 30
-3.70085e-14
  70
    32
  0
VERTEX
  8
0
  5
4955
 10
-21.5146
 20
165.684
 30
-3.67837e-14
  70
    32
  0
VERTEX
  8
0
  5
4956
 10
-20.8024
 20
164.701
 30
-3.65661e-14
  70
    32
  0
VERTEX
  8
0
  5
4957
 10
-20.0770
 20
163.752
 30
-3.63559e-14
  70
    32
  0
VERTEX
  8
0
  5
4958
 10
-19.3388
 20
162.837
 30
-3.61532e-14
  70
    32
  0
VERTEX
  8
0
  5
4959
 10
-18.5883
 20
161.956
 30
-3.59582e-14
  70
    32
  0
VERTEX
  8
0
  5
495A
 10
-17.8260
 20
161.111
 30
-3.57710e-14
  70
    32
  0
VERTEX
  8
0
  5
495B
 10
-17.0523
 20
160.301
 30
-3.55916e-14
  70
    32
  0
VERTEX
  8
0
  5
495C
 10
-16.2679
 20
159.527
 30
-3.54203e-14
  70
    32
  0
VERTEX
  8
0
  5
495D
 10
-15.4731
 20
158.790
 30
-3.52571e-14
  70
    32
  0
VERTEX
  8
0
  5
495E
 10
-14.6685
 20
158.090
 30
-3.51021e-14
  70
    32
  0
VERTEX
  8
0
  5
495F
 10
-13.8545
 20
157.428
 30
-3.49554e-14
  70
    32
  0
VERTEX
  8
0
  5
4960
 10
-13.0318
 20
156.804
 30
-3.48172e-14
  70
    32
  0
VERTEX
  8
0
  5
4961
 10
-12.2007
 20
156.218
 30
-3.46875e-14
  70
    32
  0
VERTEX
  8
0
  5
4962
 10
-11.3619
 20
155.671
 30
-3.45663e-14
  70
    32
  0
VERTEX
  8
0
  5
4963
 10
-10.5159
 20
155.163
 30
-3.44538e-14
  70
    32
  0
VERTEX
  8
0
  5
4964
 10
-9.66326
 20
154.694
 30
-3.43501e-14
  70
    32
  0
VERTEX
  8
0
  5
4965
 10
-8.80443
 20
154.266
 30
-3.42551e-14
  70
    32
  0
VERTEX
  8
0
  5
4966
 10
-7.94001
 20
153.877
 30
-3.41690e-14
  70
    32
  0
VERTEX
  8
0
  5
4967
 10
-7.07054
 20
153.528
 30
-3.40918e-14
  70
    32
  0
VERTEX
  8
0
  5
4968
 10
-6.19658
 20
153.220
 30
-3.40236e-14
  70
    32
  0
VERTEX
  8
0
  5
4969
 10
-5.31869
 20
152.953
 30
-3.39644e-14
  70
    32
  0
VERTEX
  8
0
  5
496A
 10
-4.43741
 20
152.726
 30
-3.39142e-14
  70
    32
  0
VERTEX
  8
0
  5
496B
 10
-3.55332
 20
152.541
 30
-3.38731e-14
  70
    32
  0
VERTEX
  8
0
  5
496C
 10
-2.66697
 20
152.396
 30
-3.38412e-14
  70
    32
  0
VERTEX
  8
0
  5
496D
 10
-1.77892
 20
152.293
 30
-3.38183e-14
  70
    32
  0
VERTEX
  8
0
  5
496E
 10
-0.889743
 20
152.231
 30
-3.38046e-14
  70
    32
  0
VERTEX
  8
0
  5
496F
 10
-7.49230e-14
 20
152.211
 30
-3.38000e-14
  70
    32
  0
VERTEX
  8
0
  5
4970
 10
0.889743
 20
152.231
 30
-3.38046e-14
  70
    32
  0
VERTEX
  8
0
  5
4971
 10
1.77892
 20
152.293
 30
-3.38183e-14
  70
    32
  0
VERTEX
  8
0
  5
4972
 10
2.66697
 20
152.396
 30
-3.38412e-14
  70
    32
  0
VERTEX
  8
0
  5
4973
 10
3.55332
 20
152.541
 30
-3.38731e-14
  70
    32
  0
VERTEX
  8
0
  5
4974
 10
4.43741
 20
152.726
 30
-3.39142e-14
  70
    32
  0
VERTEX
  8
0
  5
4975
 10
5.31869
 20
152.953
 30
-3.39644e-14
  70
    32
  0
VERTEX
  8
0
  5
4976
 10
6.19658
 20
153.220
 30
-3.40236e-14
  70
    32
  0
VERTEX
  8
0
  5
4977
 10
7.07054
 20
153.528
 30
-3.40918e-14
  70
    32
  0
VERTEX
  8
0
  5
4978
 10
7.94001
 20
153.877
 30
-3.41690e-14
  70
    32
  0
VERTEX
  8
0
  5
4979
 10
8.80443
 20
154.266
 30
-3.42551e-14
  70
    32
  0
VERTEX
  8
0
  5
497A
 10
9.66326
 20
154.694
 30
-3.43501e-14
  70
    32
  0
VERTEX
  8
0
  5
497B
 10
10.5159
 20
155.163
 30
-3.44538e-14
  70
    32
  0
VERTEX
  8
0
  5
497C
 10
11.3619
 20
155.671
 30
-3.45663e-14
  70
    32
  0
VERTEX
  8
0
  5
497D
 10
12.2007
 20
156.218
 30
-3.46875e-14
  70
    32
  0
VERTEX
  8
0
  5
497E
 10
13.0318
 20
156.804
 30
-3.48172e-14
  70
    32
  0
VERTEX
  8
0
  5
497F
 10
13.8545
 20
157.428
 30
-3.49554e-14
  70
    32
  0
VERTEX
  8
0
  5
4980
 10
14.6685
 20
158.090
 30
-3.51021e-14
  70
    32
  0
VERTEX
  8
0
  5
4981
 10
15.4731
 20
158.790
 30
-3.52571e-14
  70
    32
  0
VERTEX
  8
0
  5
4982
 10
16.2679
 20
159.527
 30
-3.54203e-14
  70
    32
  0
VERTEX
  8
0
  5
4983
 10
17.0523
 20
160.301
 30
-3.55916e-14
  70
    32
  0
VERTEX
  8
0
  5
4984
 10
17.8260
 20
161.111
 30
-3.57710e-14
  70
    32
  0
VERTEX
  8
0
  5
4985
 10
18.5883
 20
161.956
 30
-3.59582e-14
  70
    32
  0
VERTEX
  8
0
  5
4986
 10
19.3388
 20
162.837
 30
-3.61532e-14
  70
    32
  0
VERTEX
  8
0
  5
4987
 10
20.0770
 20
163.752
 30
-3.63559e-14
  70
    32
  0
VERTEX
  8
0
  5
4988
 10
20.8024
 20
164.701
 30
-3.65661e-14
  70
    32
  0
VERTEX
  8
0
  5
4989
 10
21.5146
 20
165.684
 30
-3.67837e-14
  70
    32
  0
VERTEX
  8
0
  5
498A
 10
22.2132
 20
166.699
 30
-3.70085e-14
  70
    32
  0
VERTEX
  8
0
  5
498B
 10
22.8976
 20
167.747
 30
-3.72404e-14
  70
    32
  0
VERTEX
  8
0
  5
498C
 10
23.5675
 20
168.825
 30
-3.74794e-14
  70
    32
  0
VERTEX
  8
0
  5
498D
 10
24.2224
 20
169.935
 30
-3.77251e-14
  70
    32
  0
VERTEX
  8
0
  5
498E
 10
24.8620
 20
171.075
 30
-3.79775e-14
  70
    32
  0
VERTEX
  8
0
  5
498F
 10
25.4857
 20
172.244
 30
-3.82363e-14
  70
    32
  0
VERTEX
  8
0
  5
4990
 10
26.0932
 20
173.441
 30
-3.85016e-14
  70
    32
  0
VERTEX
  8
0
  5
4991
 10
26.6842
 20
174.667
 30
-3.87729e-14
  70
    32
  0
VERTEX
  8
0
  5
4992
 10
27.2582
 20
175.919
 30
-3.90503e-14
  70
    32
  0
VERTEX
  8
0
  5
4993
 10
27.8148
 20
177.198
 30
-3.93335e-14
  70
    32
  0
VERTEX
  8
0
  5
4994
 10
28.3539
 20
178.502
 30
-3.96223e-14
  70
    32
  0
VERTEX
  8
0
  5
4995
 10
28.8748
 20
179.831
 30
-3.99165e-14
  70
    32
  0
VERTEX
  8
0
  5
4996
 10
29.3775
 20
181.184
 30
-4.02161e-14
  70
    32
  0
VERTEX
  8
0
  5
4997
 10
29.8615
 20
182.559
 30
-4.05207e-14
  70
    32
  0
VERTEX
  8
0
  5
4998
 10
30.3265
 20
183.957
 30
-4.08301e-14
  70
    32
  0
VERTEX
  8
0
  5
4999
 10
30.7722
 20
185.375
 30
-4.11443e-14
  70
    32
  0
VERTEX
  8
0
  5
499A
 10
31.1984
 20
186.814
 30
-4.14629e-14
  70
    32
  0
VERTEX
  8
0
  5
499B
 10
31.6047
 20
188.272
 30
-4.17859e-14
  70
    32
  0
VERTEX
  8
0
  5
499C
 10
31.9910
 20
189.749
 30
-4.21128e-14
  70
    32
  0
VERTEX
  8
0
  5
499D
 10
32.3570
 20
191.243
 30
-4.24437e-14
  70
    32
  0
VERTEX
  8
0
  5
499E
 10
32.7023
 20
192.754
 30
-4.27782e-14
  70
    32
  0
VERTEX
  8
0
  5
499F
 10
33.0270
 20
194.280
 30
-4.31162e-14
  70
    32
  0
VERTEX
  8
0
  5
49A0
 10
33.3306
 20
195.821
 30
-4.34574e-14
  70
    32
  0
VERTEX
  8
0
  5
49A1
 10
33.6130
 20
197.375
 30
-4.38016e-14
  70
    32
  0
VERTEX
  8
0
  5
49A2
 10
33.8741
 20
198.942
 30
-4.41486e-14
  70
    32
  0
VERTEX
  8
0
  5
49A3
 10
34.1137
 20
200.521
 30
-4.44982e-14
  70
    32
  0
VERTEX
  8
0
  5
49A4
 10
34.3316
 20
202.110
 30
-4.48501e-14
  70
    32
  0
VERTEX
  8
0
  5
49A5
 10
34.5276
 20
203.709
 30
-4.52042e-14
  70
    32
  0
VERTEX
  8
0
  5
49A6
 10
34.7018
 20
205.316
 30
-4.55602e-14
  70
    32
  0
VERTEX
  8
0
  5
49A7
 10
34.8539
 20
206.931
 30
-4.59178e-14
  70
    32
  0
VERTEX
  8
0
  5
49A8
 10
34.9838
 20
208.553
 30
-4.62769e-14
  70
    32
  0
VERTEX
  8
0
  5
49A9
 10
35.0915
 20
210.180
 30
-4.66372e-14
  70
    32
  0
VERTEX
  8
0
  5
49AA
 10
35.1769
 20
211.811
 30
-4.69985e-14
  70
    32
  0
VERTEX
  8
0
  5
49AB
 10
35.2400
 20
213.446
 30
-4.73606e-14
  70
    32
  0
VERTEX
  8
0
  5
49AC
 10
35.2806
 20
215.084
 30
-4.77232e-14
  70
    32
  0
VERTEX
  8
0
  5
49AD
 10
35.2989
 20
216.722
 30
-4.80861e-14
  70
    32
  0
VERTEX
  8
0
  5
49AE
 10
35.2947
 20
218.362
 30
-4.84491e-14
  70
    32
  0
VERTEX
  8
0
  5
49AF
 10
35.2681
 20
220.000
 30
-4.88119e-14
  70
    32
  0
SEQEND
  8
0
  5
49B0
  0
LINE
  5
4815
  8
0
  6
CONTINUOUS
 62
     3
 10
-36.4691650576209696
 20
220.0000000000001137
 30
-0.0000000000000488
 11
-35.2681159122513819
 21
220.0000000000001137
 31
-0.0000000000000488
210
-0.0000000000000002
220
1.0
230
-0.0000000000000002
  0
LINE
  5
4816
  8
0
  6
CONTINUOUS
 62
     3
 10
-35.8875793553184934
 20
-0.0000000000000102
 30
0.0
 11
35.8875793553185432
 21
0.0000000000000102
 31
0.0
210
-0.0000000000000002
220
1.0
230
-0.0000000000000002
  0
LINE
  5
4817
  8
0
  6
CONTINUOUS
 62
     3
 10
36.4999999999999716
 20
217.2368421052632073
 30
-0.0000000000000482
 11
36.5000000000000426
 21
6.9999999999983054
 31
-0.0000000000000016
210
-0.0000000000000002
220
1.0
230
-0.0000000000000002
  0
LINE
  5
4818
  8
0
  6
CONTINUOUS
 62
     3
 10
-36.5000000000000426
 20
217.2368421052632073
 30
-0.0000000000000482
 11
-36.4999999999999787
 21
6.9999999999982894
 31
-0.0000000000000016
210
-0.0000000000000002
220
1.0
230
-0.0000000000000002
  0
LINE
  5
4819
  8
0
  6
CONTINUOUS
 62
     3
 10
-35.8875793553184366
 20
-0.0000000000000062
 30
0.0
 11
-36.4999999999999289
 21
6.9999999999982911
 31
-0.0000000000000016
210
-0.0000000000000002
220
1.0
230
-0.0000000000000002
  0
LINE
  5
481A
  8
0
  6
CONTINUOUS
 62
     3
 10
35.8875793553184934
 20
0.0000000000000142
 30
0.0
 11
36.4999999999999929
 21
6.9999999999983116
 31
-0.0000000000000016
210
-0.0000000000000002
220
1.0
230
-0.0000000000000002
  0
LINE
  5
481B
  8
0
  6
CONTINUOUS
 62
     3
 10
-36.4691650576209128
 20
220.0000000000001137
 30
-0.0000000000000488
 11
-36.4691650576209128
 21
222.0000000000001137
 31
-0.0000000000000493
210
-0.0000000000000002
220
1.0
230
-0.0000000000000002
  0
LINE
  5
481C
  8
0
  6
CONTINUOUS
 62
     3
 10
36.4691650576208701
 20
220.0000000000001137
 30
-0.0000000000000488
 11
-36.4691650576209128
 21
220.0000000000001137
 31
-0.0000000000000488
210
-0.0000000000000002
220
1.0
230
-0.0000000000000002
  0
LINE
  5
481D
  8
0
  6
CONTINUOUS
 62
     3
 10
36.4691650576208701
 20
222.0000000000001137
 30
-0.0000000000000493
 11
36.4691650576208701
 21
220.0000000000001137
 31
-0.0000000000000488
210
-0.0000000000000002
220
1.0
230
-0.0000000000000002
  0
LINE
  5
481E
  8
0
  6
CONTINUOUS
 62
     3
 10
-36.4691650576209128
 20
222.0000000000001137
 30
-0.0000000000000493
 11
36.4691650576208701
 21
222.0000000000001137
 31
-0.0000000000000493
210
-0.0000000000000002
220
1.0
230
-0.0000000000000002
  0
LINE
  5
481F
  8
0
  6
VERDECKT
 62
     1
 10
-34.6921457176084473
 20
0.1045868912972212
 30
0.0
 11
34.6921457176085113
 21
0.1045868912972408
 31
0.0
210
-0.0000000000000002
220
1.0
230
-0.0000000000000002
  0
LINE
  5
4820
  8
0
  6
VERDECKT
 62
     1
 10
35.2999999999999332
 20
217.2368421052632073
 30
-0.0000000000000482
 11
35.2999999999999901
 21
7.0523931314871904
 31
-0.0000000000000016
210
-0.0000000000000002
220
1.0
230
-0.0000000000000002
  0
LINE
  5
4821
  8
0
  6
VERDECKT
 62
     1
 10
-35.2999999999999972
 20
217.2368421052632073
 30
-0.0000000000000482
 11
-35.2999999999999403
 21
7.0523931314871744
 31
-0.0000000000000016
210
-0.0000000000000002
220
1.0
230
-0.0000000000000002
  0
LINE
  5
4822
  8
0
  6
VERDECKT
 62
     1
 10
34.6921457176085113
 20
0.1045868912972408
 30
0.0
 11
35.8875793553185432
 21
0.0000000000000102
 31
0.0
210
-0.0000000000000002
220
1.0
230
-0.0000000000000002
  0
LINE
  5
4823
  8
0
  6
VERDECKT
 62
     1
 10
-34.6921457176084473
 20
0.1045868912972212
 30
0.0
 11
-35.8875793553184934
 21
-0.0000000000000102
 31
0.0
210
-0.0000000000000002
220
1.0
230
-0.0000000000000002
  0
LINE
  5
4824
  8
0
  6
VERDECKT
 62
     1
 10
-34.6921457176083905
 20
0.1045868912972264
 30
0.0
 11
-35.2999999999998835
 21
7.0523931314871771
 31
-0.0000000000000016
210
-0.0000000000000002
220
1.0
230
-0.0000000000000002
  0
LINE
  5
4825
  8
0
  6
VERDECKT
 62
     1
 10
34.6921457176084473
 20
0.1045868912972463
 30
0.0
 11
35.2999999999999403
 21
7.0523931314871948
 31
-0.0000000000000016
210
-0.0000000000000002
220
1.0
230
-0.0000000000000002
  0
ENDBLK
  5
4827
  8
0
  0
ENDSEC
  0
SECTION
  2
ENTITIES
  0
TEXT
  5
AE3
  8
TEXT
 62
     1
 10
664.6057658946468791
 20
129.0783465745481067
 30
0.0
 40
7.0
  1

 41
0.8
  7
GREEKS
  0
TEXT
  5
166A
  8
VOLL
 10
2258.3182745674262151
 20
200.2207229877182897
 30
0.0
 40
3.6000000000000001
  1

  7
GREEKS
  0
TEXT
  5
166B
  8
VOLL
 10
2501.1238119057879885
 20
614.8615390782432542
 30
0.0
 40
3.6000000000000001
  1

  7
GREEKS
  0
TEXT
  5
166C
  8
VOLL
 10
3160.7902338346279976
 20
247.6826910100569137
 30
0.0
 40
3.6000000000000001
  1

  7
GREEKS
  0
TEXT
  5
166D
  8
VOLL
 10
3153.1256808059529249
 20
225.2750435531351911
 30
0.0
 40
3.6000000000000001
  1

  7
GREEKS
  0
INSERT
  5
18DB
  8
ADSK_ASSOC_ENTITY_BACKUPS
  2
*S0
 10
0.0
 20
0.0
 30
0.0
  0
INSERT
  5
4801
  8
STEMPEL
  2
A$C705E091A
 10
-122.9383301152417971
 20
0.0000000000000284
 30
0.0
  0
INSERT
  5
4828
  8
STEMPEL
  2
A$C4E3D5BB6
 10
0.0
 20
0.0
 30
0.0
  0
INSERT
  5
483B
  8
STEMPEL
  2
A$C70690AA1
 10
-0.0000000000000505
 20
310.7368421052615872
 30
0.0
 41
-1.0
 50
180.0
  0
VIEWPORT
  5
17B9
 67
     1
  8
0
 10
99.3664175041062947
 20
145.4717821042686126
 30
0.0
 40
558.2476521912682301
 41
298.8162216554080146
 68
     1
 69
     1
1001
ACAD
1000
MVIEW
1002
{
1070
    16
1010
0.0
1020
0.0
1030
0.0
1010
0.0
1020
0.0
1030
1.0
1040
0.0
1040
298.8162216554080146
1040
99.3664175041062947
1040
145.4717821042686126
1040
50.0
1040
0.0
1040
0.0
1070
     0
1070
  1500
1070
     1
1070
     1
1070
     0
1070
     0
1070
     0
1070
     0
1040
0.0
1040
0.0
1040
0.0
1040
10.0
1040
10.0
1040
10.0
1040
10.0
1070
     0
1002
{
1002
}
1002
}
  0
ENDSEC
  0
EOF
