  0
SECTION
  2
HEADER
  9
$ACADVER
  1
AC1009
  9
$INSBASE
 10
0.0
 20
0.0
 30
0.0
  9
$EXTMIN
 10
-270.0
 20
-356.5000000000002842
 30
-0.0000000000000444
  9
$EXTMAX
 10
426.5000000000002842
 20
200.0000000000003126
 30
0.0000000000001026
  9
$LIMMIN
 10
0.0
 20
0.0
  9
$LIMMAX
 10
419.9999999999998863
 20
594.0
  9
$ORTHOMODE
 70
     1
  9
$REGENMODE
 70
     1
  9
$FILLMODE
 70
     1
  9
$QTEXTMODE
 70
     0
  9
$MIRRTEXT
 70
     1
  9
$DRAGMODE
 70
     2
  9
$LTSCALE
 40
20.0
  9
$OSMODE
 70
   511
  9
$ATTMODE
 70
     1
  9
$TEXTSIZE
 40
3.5
  9
$TRACEWID
 40
1.0
  9
$TEXTSTYLE
  7
STANDARD
  9
$CLAYER
  8
STEMPEL
  9
$CELTYPE
  6
BYLAYER
  9
$CECOLOR
 62
   256
  9
$DIMSCALE
 40
1.0
  9
$DIMASZ
 40
3.5
  9
$DIMEXO
 40
1.0
  9
$DIMDLI
 40
0.38
  9
$DIMRND
 40
0.0
  9
$DIMDLE
 40
0.0
  9
$DIMEXE
 40
1.0
  9
$DIMTP
 40
0.0
  9
$DIMTM
 40
0.000000001
  9
$DIMTXT
 40
3.5
  9
$DIMCEN
 40
0.09
  9
$DIMTSZ
 40
0.0
  9
$DIMTOL
 70
     0
  9
$DIMLIM
 70
     0
  9
$DIMTIH
 70
     0
  9
$DIMTOH
 70
     0
  9
$DIMSE1
 70
     0
  9
$DIMSE2
 70
     0
  9
$DIMTAD
 70
     1
  9
$DIMZIN
 70
     8
  9
$DIMBLK
  1

  9
$DIMASO
 70
     1
  9
$DIMSHO
 70
     0
  9
$DIMPOST
  1

  9
$DIMAPOST
  1

  9
$DIMALT
 70
     0
  9
$DIMALTD
 70
     2
  9
$DIMALTF
 40
25.3999999999999986
  9
$DIMLFAC
 40
5.0
  9
$DIMTOFL
 70
     1
  9
$DIMTVP
 40
0.0
  9
$DIMTIX
 70
     0
  9
$DIMSOXD
 70
     0
  9
$DIMSAH
 70
     0
  9
$DIMBLK1
  1

  9
$DIMBLK2
  1

  9
$DIMSTYLE
  2
LORO
  9
$DIMCLRD
 70
     0
  9
$DIMCLRE
 70
     0
  9
$DIMCLRT
 70
     1
  9
$DIMTFAC
 40
0.5
  9
$DIMGAP
 40
1.5
  9
$LUNITS
 70
     2
  9
$LUPREC
 70
     2
  9
$SKETCHINC
 40
1.0
  9
$FILLETRAD
 40
0.5
  9
$AUNITS
 70
     0
  9
$AUPREC
 70
     0
  9
$MENU
  1
ACAD
  9
$ELEVATION
 40
0.0
  9
$PELEVATION
 40
0.0
  9
$THICKNESS
 40
0.0
  9
$LIMCHECK
 70
     0
  9
$BLIPMODE
 70
     0
  9
$CHAMFERA
 40
0.0
  9
$CHAMFERB
 40
0.0
  9
$SKPOLY
 70
     0
  9
$TDCREATE
 40
2455397.867048610933125
  9
$TDUPDATE
 40
2459627.300960648804903
  9
$TDINDWG
 40
0.8578064005
  9
$TDUSRTIMER
 40
0.8578064005
  9
$USRTIMER
 70
     1
  9
$ANGBASE
 50
0.0
  9
$ANGDIR
 70
     0
  9
$PDMODE
 70
     0
  9
$PDSIZE
 40
0.0
  9
$PLINEWID
 40
0.0
  9
$COORDS
 70
     1
  9
$SPLFRAME
 70
     0
  9
$SPLINETYPE
 70
     6
  9
$SPLINESEGS
 70
     8
  9
$ATTDIA
 70
     1
  9
$ATTREQ
 70
     1
  9
$HANDLING
 70
     1
  9
$HANDSEED
  5
5B3E
  9
$SURFTAB1
 70
     6
  9
$SURFTAB2
 70
     6
  9
$SURFTYPE
 70
     6
  9
$SURFU
 70
     6
  9
$SURFV
 70
     6
  9
$UCSNAME
  2

  9
$UCSORG
 10
0.0
 20
0.0
 30
0.0
  9
$UCSXDIR
 10
1.0
 20
0.0
 30
0.0
  9
$UCSYDIR
 10
0.0
 20
1.0
 30
0.0
  9
$PUCSNAME
  2

  9
$PUCSORG
 10
0.0
 20
0.0
 30
0.0
  9
$PUCSXDIR
 10
1.0
 20
0.0
 30
0.0
  9
$PUCSYDIR
 10
0.0
 20
1.0
 30
0.0
  9
$USERI1
 70
     0
  9
$USERI2
 70
     0
  9
$USERI3
 70
     0
  9
$USERI4
 70
     0
  9
$USERI5
 70
     0
  9
$USERR1
 40
0.0
  9
$USERR2
 40
0.0
  9
$USERR3
 40
0.0
  9
$USERR4
 40
0.0
  9
$USERR5
 40
0.0
  9
$WORLDVIEW
 70
     1
  9
$SHADEDGE
 70
     3
  9
$SHADEDIF
 70
    70
  9
$TILEMODE
 70
     1
  9
$MAXACTVP
 70
    16
  9
$PLIMCHECK
 70
     0
  9
$PEXTMIN
 10
1.0000000000000000E+20
 20
1.0000000000000000E+20
 30
1.0000000000000000E+20
  9
$PEXTMAX
 10
-1.0000000000000000E+20
 20
-1.0000000000000000E+20
 30
-1.0000000000000000E+20
  9
$PLIMMIN
 10
-4.2768050505048896
 20
-3.0123785804774448
  9
$PLIMMAX
 10
415.7231949494951095
 20
293.9876214195224975
  9
$UNITMODE
 70
     0
  9
$VISRETAIN
 70
     0
  9
$PLINEGEN
 70
     0
  9
$PSLTSCALE
 70
     0
  0
ENDSEC
  0
SECTION
  2
TABLES
  0
TABLE
  2
VPORT
 70
     1
  0
VPORT
  2
*ACTIVE
 70
     0
 10
0.0
 20
0.0
 11
1.0
 21
1.0
 12
109.8951973137143057
 22
155.8320597111058134
 13
0.0
 23
0.0
 14
1.0
 24
1.0
 15
10.0
 25
10.0
 16
0.0000000000002238
 26
0.0
 36
992.6732013127028722
 17
-31.6451973137141707
 27
-234.0820597111058134
 37
0.0000000000000077
 40
559.3465473145786291
 41
1.8720136518771331
 42
50.0
 43
0.0
 44
0.0
 50
0.0
 51
0.0
 71
     0
 72
  1500
 73
     1
 74
     1
 75
     0
 76
     0
 77
     0
 78
     0
  0
ENDTAB
  0
TABLE
  2
LTYPE
 70
     3
  0
LTYPE
  2
CONTINUOUS
 70
     0
  3
Solid line
 72
    65
 73
     0
 40
0.0
  0
LTYPE
  2
STRICHPUNKT
 70
     0
  3
__ . __ . __ . __ . __ . __ . __ . __ . __ . __
 72
    65
 73
     4
 40
1.0
 49
0.5
 49
-0.25
 49
0.0
 49
-0.25
  0
LTYPE
  2
VERDECKT
 70
     0
  3
Verdeckt __ __ __ __ __ __ __ __ __ __ __ __ __
 72
    65
 73
     2
 40
0.375
 49
0.25
 49
-0.125
  0
ENDTAB
  0
TABLE
  2
LAYER
 70
     7
  0
LAYER
  2
0
 70
     0
 62
     7
  6
CONTINUOUS
  0
LAYER
  2
VOLL
 70
     0
 62
     1
  6
CONTINUOUS
  0
LAYER
  2
STEMPEL
 70
     0
 62
     3
  6
CONTINUOUS
  0
LAYER
  2
DEFPOINTS
 70
     0
 62
     7
  6
CONTINUOUS
  0
LAYER
  2
ADSK_ASSOC_ENTITY_BACKUPS
 70
     1
 62
    -7
  6
CONTINUOUS
  0
ENDTAB
  0
TABLE
  2
STYLE
 70
     3
  0
STYLE
  2
STANDARD
 70
     0
 40
0.0
 41
0.8
 50
0.0
 71
     0
 42
3.5
  3
simplex.shx
  4

  0
STYLE
  2
GREEKS
 70
     0
 40
0.0
 41
0.8
 50
0.0
 71
     0
 42
2.5
  3
SIMPLEX.shx
  4

  0
ENDTAB
  0
TABLE
  2
VIEW
 70
     0
  0
ENDTAB
  0
TABLE
  2
UCS
 70
     0
  0
ENDTAB
  0
TABLE
  2
APPID
 70
    26
  0
APPID
  2
ACAD
 70
     0
  0
APPID
  2
ACAECLAYERSTANDARD
 70
     0
  0
APPID
  2
ACCMTRANSPARENCY
 70
     0
  0
APPID
  2
ACAD_NAV_VCDISPLAY
 70
     0
  0
APPID
  2
ACAD_PSEXT
 70
     0
  0
APPID
  2
ACAD_EXEMPT_FROM_CAD_STANDARDS
 70
     0
  0
APPID
  2
ACSYNERGY
 70
     0
  0
APPID
  2
SYNERGY_BODY_TBR_ID
 70
     0
  0
APPID
  2
ACAD_VIEW_EDGE_ID
 70
     0
  0
APPID
  2
ACSYNERGYSKETCH
 70
     0
  0
APPID
  2
ACAD_MODELDOC_XFORM
 70
     0
  0
APPID
  2
ACAD_MLEADERVER
 70
     0
  0
APPID
  2
ACADANNOMONITORALERTICONDI
 70
     0
  0
APPID
  2
ACAD_DSTYLE_DIMJAG
 70
     0
  0
APPID
  2
ACAD_DSTYLE_DIMTALN
 70
     0
  0
APPID
  2
ACDBDYNAMICBLOCKGUID
 70
     0
  0
APPID
  2
ACAD_STEPID
 70
     0
  0
APPID
  2
PLOTTRANSPARENCY
 70
     0
  0
APPID
  2
ACADANNOPO
 70
     0
  0
APPID
  2
ACAD_DIMASSOC_CALC_DIMLFAC
 70
     0
  0
APPID
  2
ACAD_DIMASSOC_DIMLFAC
 70
     0
  0
APPID
  2
ACAD_DIMASSOC_OVERRIDDEN_D
 70
     0
  0
APPID
  2
ACAD_DSTYLE_DIMRADIAL_EXTENSION
 70
     0
  0
APPID
  2
ACAD_DSTYLE_DIMBREAK
 70
     0
  0
APPID
  2
ACAD_TC
 70
     0
  0
APPID
  2
ACAD_ASSOCPERSSUBENTMANAGER
 70
     0
  0
ENDTAB
  0
TABLE
  2
DIMSTYLE
 70
     2
  0
DIMSTYLE
  2
STANDARD
 70
     0
  3

  4

  5

  6

  7

 40
1.0
 41
0.18
 42
0.0625
 43
0.38
 44
0.18
 45
0.0
 46
0.0
 47
0.0
 48
0.0
140
0.18
141
0.09
142
0.0
143
25.3999999999999986
144
1.0
145
0.0
146
1.0
147
0.09
 71
     0
 72
     0
 73
     1
 74
     1
 75
     0
 76
     0
 77
     0
 78
     0
170
     0
171
     2
172
     0
173
     0
174
     0
175
     0
176
     0
177
     0
178
     0
  0
DIMSTYLE
  2
LORO
 70
     0
  3

  4

  5

  6

  7

 40
1.0
 41
3.5
 42
1.0
 43
0.38
 44
1.0
 45
0.0
 46
0.0
 47
0.0
 48
0.000000001
140
3.5
141
0.09
142
0.0
143
25.3999999999999986
144
5.0
145
0.0
146
0.5
147
1.5
 71
     0
 72
     0
 73
     0
 74
     0
 75
     0
 76
     0
 77
     1
 78
     8
170
     0
171
     2
172
     1
173
     0
174
     0
175
     0
176
     0
177
     0
178
     1
  0
ENDTAB
  0
ENDSEC
  0
SECTION
  2
BLOCKS
  0
BLOCK
  8
0
  2
$MODEL_SPACE
 70
     0
 10
0.0
 20
0.0
 30
0.0
  3
$MODEL_SPACE
  1

  0
ENDBLK
  5
38
  8
0
  0
BLOCK
 67
     1
  8
0
  2
$PAPER_SPACE
 70
     0
 10
0.0
 20
0.0
 30
0.0
  3
$PAPER_SPACE
  1

  0
ENDBLK
  5
36
 67
     1
  8
0
  0
BLOCK
  8
0
  2
*S0
 70
     1
 10
0.0
 20
0.0
 30
0.0
  3
*S0
  1

  0
ENDBLK
  5
ACE
  8
0
  0
BLOCK
  8
0
  2
A$C7291F3CB
 70
     0
 10
0.0
 20
0.0
 30
0.0
  3
A$C7291F3CB
  1

  0
CIRCLE
  5
59E2
  8
0
  6
CONTINUOUS
 62
     3
 10
250.0
 20
180.0
 30
0.0
 40
2.9999999999999978
210
0.0
220
-0.0000000000000002
230
-1.0
  0
CIRCLE
  5
59E3
  8
0
  6
CONTINUOUS
 62
     3
 10
-250.0
 20
180.0
 30
0.0
 40
3.0
210
0.0
220
-0.0000000000000002
230
-1.0
  0
CIRCLE
  5
59E4
  8
0
  6
CONTINUOUS
 62
     3
 10
-250.0
 20
-180.0
 30
0.0
 40
2.9999999999999911
210
0.0
220
-0.0000000000000002
230
-1.0
  0
CIRCLE
  5
59E5
  8
0
  6
CONTINUOUS
 62
     3
 10
250.0
 20
-180.0
 30
0.0
 40
2.9999999999999831
210
0.0
220
-0.0000000000000002
230
-1.0
  0
ARC
  5
59E6
  8
0
  6
CONTINUOUS
 62
     3
 10
250.0
 20
180.0
 30
-0.00000000000004
 40
20.0
 50
0.0
 51
90.0
  0
LINE
  5
59E7
  8
0
  6
CONTINUOUS
 62
     3
 10
270.0
 20
-180.0
 30
0.00000000000004
 11
270.0
 21
180.0
 31
-0.00000000000004
210
0.0
220
1.0
230
-0.0000000000000002
  0
ARC
  5
59E8
  8
0
  6
CONTINUOUS
 62
     3
 10
250.0
 20
-180.0
 30
0.00000000000004
 40
20.0
 50
270.0
 51
0.0
  0
LINE
  5
59E9
  8
0
  6
CONTINUOUS
 62
     3
 10
-250.0
 20
-200.0
 30
0.0000000000000444
 11
250.0
 21
-200.0
 31
0.0000000000000444
210
0.0
220
1.0
230
-0.0000000000000002
  0
ARC
  5
59EA
  8
0
  6
CONTINUOUS
 62
     3
 10
-250.0
 20
-180.0
 30
0.00000000000004
 40
20.0
 50
180.0
 51
270.0
  0
LINE
  5
59EB
  8
0
  6
CONTINUOUS
 62
     3
 10
-270.0
 20
180.0
 30
-0.00000000000004
 11
-270.0
 21
-180.0
 31
0.00000000000004
210
0.0
220
1.0
230
-0.0000000000000002
  0
ARC
  5
59EC
  8
0
  6
CONTINUOUS
 62
     3
 10
-250.0
 20
180.0
 30
-0.00000000000004
 40
20.0
 50
90.0
 51
180.0
  0
LINE
  5
59ED
  8
0
  6
CONTINUOUS
 62
     3
 10
250.0
 20
200.0
 30
-0.0000000000000444
 11
-250.0
 21
200.000000000000199
 31
-0.0000000000000444
210
0.0
220
1.0
230
-0.0000000000000002
  0
CIRCLE
  5
59EE
  8
0
  6
CONTINUOUS
 62
     3
 10
70.0000000000003837
 20
-0.0016575748095398
 30
0.0
 40
51.8000000000000114
210
0.0
220
-0.0000000000000002
230
-1.0
  0
CIRCLE
  5
59EF
  8
0
  6
CONTINUOUS
 62
     3
 10
-70.0000000000003837
 20
-0.0016575748095398
 30
0.0
 40
47.5
  0
CIRCLE
  5
59F0
  8
0
  6
CONTINUOUS
 62
     3
 10
70.0000000000003411
 20
-0.0000000000000284
 30
0.0
 40
60.0
210
0.0
220
-0.0000000000000002
230
-1.0
  0
CIRCLE
  5
59F1
  8
0
  6
CONTINUOUS
 62
     3
 10
70.0000000000003411
 20
-0.0000000000000284
 30
0.0
 40
59.5
210
0.0
220
-0.0000000000000002
230
-1.0
  0
CIRCLE
  5
59F2
  8
0
  6
CONTINUOUS
 62
     3
 10
-69.9999999999996021
 20
-0.0016575748095398
 30
0.0
 40
51.8000000000000114
210
0.0
220
-0.0000000000000002
230
-1.0
  0
CIRCLE
  5
59F3
  8
0
  6
CONTINUOUS
 62
     3
 10
69.9999999999996021
 20
-0.0016575748095398
 30
0.0
 40
47.5
  0
CIRCLE
  5
59F4
  8
0
  6
CONTINUOUS
 62
     3
 10
-69.9999999999996589
 20
-0.0000000000000284
 30
0.0
 40
60.0
210
0.0
220
-0.0000000000000002
230
-1.0
  0
CIRCLE
  5
59F5
  8
0
  6
CONTINUOUS
 62
     3
 10
-69.9999999999996589
 20
-0.0000000000000284
 30
0.0
 40
59.5
210
0.0
220
-0.0000000000000002
230
-1.0
  0
CIRCLE
  5
59F6
  8
0
  6
VERDECKT
 62
     1
 10
70.0
 20
0.0000000000000154
 30
0.0
 40
57.2499999999999574
210
0.0
220
-0.0000000000000002
230
-1.0
  0
CIRCLE
  5
59F7
  8
0
  6
VERDECKT
 62
     1
 10
70.0
 20
0.0000000000000166
 30
0.0
 40
54.152011312195107
210
0.0
220
-0.0000000000000002
230
-1.0
  0
CIRCLE
  5
59F8
  8
0
  6
VERDECKT
 62
     1
 10
70.0
 20
0.0000000000000165
 30
0.0
 40
53.5000000000000071
210
0.0
220
-0.0000000000000002
230
-1.0
  0
CIRCLE
  5
59F9
  8
0
  6
VERDECKT
 62
     1
 10
70.0
 20
0.0000000000000154
 30
0.0
 40
56.2499999999999574
210
0.0
220
-0.0000000000000002
230
-1.0
  0
CIRCLE
  5
59FA
  8
0
  6
VERDECKT
 62
     1
 10
70.0
 20
0.0000000000000154
 30
0.0
 40
57.2499999999999574
  0
CIRCLE
  5
59FB
  8
0
  6
VERDECKT
 62
     1
 10
70.0
 20
0.0000000000000166
 30
0.0
 40
54.152011312195107
  0
CIRCLE
  5
59FC
  8
0
  6
VERDECKT
 62
     1
 10
70.0
 20
0.0000000000000165
 30
0.0
 40
53.5000000000000071
  0
CIRCLE
  5
59FD
  8
0
  6
VERDECKT
 62
     1
 10
70.0
 20
0.0000000000000154
 30
0.0
 40
56.2499999999999574
  0
CIRCLE
  5
59FE
  8
0
  6
VERDECKT
 62
     1
 10
70.0000000000003411
 20
-0.0000000000000284
 30
0.0
 40
57.75
210
0.0
220
-0.0000000000000002
230
-1.0
  0
CIRCLE
  5
59FF
  8
0
  6
VERDECKT
 62
     1
 10
70.0000000000003411
 20
-0.0000000000000284
 30
0.0
 40
57.1171444324796695
210
0.0
220
-0.0000000000000002
230
-1.0
  0
CIRCLE
  5
5A00
  8
0
  6
VERDECKT
 62
     1
 10
70.0000000000003411
 20
-0.0000000000000284
 30
0.0
 40
58.0
210
0.0
220
-0.0000000000000002
230
-1.0
  0
CIRCLE
  5
5A01
  8
0
  6
VERDECKT
 62
     1
 10
70.0000000000003411
 20
-0.0000000000000284
 30
0.0
 40
56.5995849235806077
210
0.0
220
-0.0000000000000002
230
-1.0
  0
CIRCLE
  5
5A02
  8
0
  6
VERDECKT
 62
     1
 10
70.0000000000003411
 20
-0.0000000000000284
 30
0.0
 40
54.3989794855663717
210
0.0
220
-0.0000000000000002
230
-1.0
  0
CIRCLE
  5
5A03
  8
0
  6
VERDECKT
 62
     1
 10
-70.0000000000003411
 20
-0.0000000000000284
 30
0.0
 40
54.8394515204001891
  0
CIRCLE
  5
5A04
  8
0
  6
VERDECKT
 62
     1
 10
-69.9999999999996589
 20
-0.0000000000000284
 30
0.0
 40
57.75
210
0.0
220
-0.0000000000000002
230
-1.0
  0
CIRCLE
  5
5A05
  8
0
  6
VERDECKT
 62
     1
 10
-69.9999999999996589
 20
-0.0000000000000284
 30
0.0
 40
57.1171444324796695
210
0.0
220
-0.0000000000000002
230
-1.0
  0
CIRCLE
  5
5A06
  8
0
  6
VERDECKT
 62
     1
 10
-69.9999999999996589
 20
-0.0000000000000284
 30
0.0
 40
58.0
210
0.0
220
-0.0000000000000002
230
-1.0
  0
CIRCLE
  5
5A07
  8
0
  6
VERDECKT
 62
     1
 10
-69.9999999999996589
 20
-0.0000000000000284
 30
0.0
 40
56.5995849235806077
210
0.0
220
-0.0000000000000002
230
-1.0
  0
CIRCLE
  5
5A08
  8
0
  6
VERDECKT
 62
     1
 10
-69.9999999999996589
 20
-0.0000000000000284
 30
0.0
 40
54.3989794855663717
210
0.0
220
-0.0000000000000002
230
-1.0
  0
CIRCLE
  5
5A09
  8
0
  6
VERDECKT
 62
     1
 10
69.9999999999996589
 20
-0.0000000000000284
 30
0.0
 40
54.8394515204001891
  0
ENDBLK
  5
5A0B
  8
0
  0
BLOCK
  8
0
  2
A$CF5CFD134
 70
     0
 10
0.0
 20
0.0
 30
0.0
  3
A$CF5CFD134
  1

  0
LINE
  5
5A0F
  8
0
  6
CONTINUOUS
 62
     3
 10
-15.8479886878049001
 20
-13.0
 30
-0.0000000000000035
 11
-124.1520113121950999
 21
-13.0
 31
-0.0000000000000276
  0
LINE
  5
5A10
  8
0
  6
CONTINUOUS
 62
     3
 10
15.8479886878049001
 20
-13.0
 30
0.0000000000000035
 11
124.1520113121950999
 21
-13.0
 31
0.0000000000000276
  0
LINE
  5
5A11
  8
0
  6
CONTINUOUS
 62
     3
 10
270.0000000000001137
 20
0.0000000000000331
 30
0.0000000000000568
 11
250.0
 21
0.0000000000000367
 31
0.0000000000000568
  0
LINE
  5
5A12
  8
0
  6
CONTINUOUS
 62
     3
 10
250.0
 20
-0.9999999999999633
 30
0.0000000000000568
 11
270.0000000000001137
 21
-0.9999999999999669
 31
0.0000000000000568
  0
LINE
  5
5A13
  8
0
  6
CONTINUOUS
 62
     3
 10
270.0000000000001137
 20
0.0000000000000331
 30
0.0000000000000568
 11
270.0000000000001137
 21
-0.9999999999999669
 31
0.0000000000000568
  0
LINE
  5
5A14
  8
0
  6
CONTINUOUS
 62
     3
 10
-269.9999999999998863
 20
0.0000000000000331
 30
-0.0000000000000568
 11
-269.9999999999998863
 21
-0.9999999999999669
 31
-0.0000000000000568
  0
LINE
  5
5A15
  8
0
  6
CONTINUOUS
 62
     3
 10
-250.0
 20
0.0000000000000367
 30
-0.0000000000000568
 11
-269.9999999999998863
 21
0.0000000000000331
 31
-0.0000000000000568
  0
LINE
  5
5A16
  8
0
  6
CONTINUOUS
 62
     3
 10
-269.9999999999998863
 20
-0.9999999999999669
 30
-0.0000000000000568
 11
-250.0
 21
-0.9999999999999633
 31
-0.0000000000000568
  0
LINE
  5
5A17
  8
0
  6
CONTINUOUS
 62
     3
 10
-250.0
 20
0.0000000000000367
 30
-0.0000000000000568
 11
250.0
 21
0.0000000000000367
 31
0.0000000000000542
  0
LINE
  5
5A18
  8
0
  6
CONTINUOUS
 62
     3
 10
250.0
 20
-0.9999999999999633
 30
0.0000000000000568
 11
-250.0
 21
-0.9999999999999633
 31
-0.0000000000000542
  0
ARC
  5
5A19
  8
0
  6
CONTINUOUS
 62
     3
 10
-129.4999999999998863
 20
-3.2500000000000049
 30
-0.0000000000000288
 40
2.2500000000000049
 50
0.0000000000001527
 51
90.00000000000216
  0
ARC
  5
5A1A
  8
0
  6
CONTINUOUS
 62
     3
 10
-10.5000000000000302
 20
-3.2500000000000009
 30
-0.0000000000000023
 40
2.2500000000000009
 50
90.000000000001009
 51
180.0
  0
LINE
  5
5A1B
  8
0
  6
CONTINUOUS
 62
     3
 10
-127.2499999999999005
 20
-6.25
 30
-0.0000000000000283
 11
-127.2499999999999005
 21
-3.25
 31
-0.0000000000000283
  0
LINE
  5
5A1C
  8
0
  6
CONTINUOUS
 62
     3
 10
-12.7500000000000409
 20
-6.25
 30
-0.0000000000000028
 11
-12.7500000000000409
 21
-3.25
 31
-0.0000000000000028
  0
ARC
  5
5A1D
  8
0
  6
CONTINUOUS
 62
     3
 10
-118.3474442665167032
 20
-6.2499999999999876
 30
-0.0000000000000263
 40
8.9025557334832772
 50
180.0
 51
229.3065815995956029
  0
ARC
  5
5A1E
  8
0
  6
CONTINUOUS
 62
     3
 10
-21.6525557334832897
 20
-6.25
 30
-0.0000000000000048
 40
8.9025557334832524
 50
310.6934184004043118
 51
0.0
  0
ARC
  5
5A1F
  8
0
  6
CONTINUOUS
 62
     3
 10
10.5000000000000409
 20
-3.2499999999999991
 30
0.0000000000000023
 40
2.2499999999999991
 50
0.0
 51
90.0000000000027569
  0
ARC
  5
5A20
  8
0
  6
CONTINUOUS
 62
     3
 10
129.4999999999998863
 20
-3.2499999999999951
 30
0.0000000000000288
 40
2.25
 50
90.0000000000007248
 51
180.0000000000001137
  0
LINE
  5
5A21
  8
0
  6
CONTINUOUS
 62
     3
 10
127.2499999999999005
 20
-3.25
 30
0.0000000000000283
 11
127.2499999999999005
 21
-6.25
 31
0.0000000000000283
  0
LINE
  5
5A22
  8
0
  6
CONTINUOUS
 62
     3
 10
12.7500000000000409
 20
-3.25
 30
0.0000000000000028
 11
12.7500000000000409
 21
-6.25
 31
0.0000000000000028
  0
ARC
  5
5A23
  8
0
  6
CONTINUOUS
 62
     3
 10
21.652555733483279
 20
-6.2500000000000018
 30
0.0000000000000048
 40
8.9025557334832488
 50
180.0
 51
229.3065815995956882
  0
ARC
  5
5A24
  8
0
  6
CONTINUOUS
 62
     3
 10
118.3474442665167032
 20
-6.249999999999992
 30
0.0000000000000263
 40
8.9025557334832683
 50
310.6934184004044255
 51
360.0
  0
LINE
  5
5A25
  8
0
  6
CONTINUOUS
 62
     3
 10
-14.3909535291151105
 20
-106.5000000000002984
 30
-0.0000000000000032
 11
-125.6090464708855023
 21
-106.5000000000002984
 31
-0.0000000000000279
  0
LINE
  5
5A26
  8
0
  6
CONTINUOUS
 62
     3
 10
-12.2500000000003393
 20
-90.500000000000199
 30
-0.0000000000000027
 11
-127.7500000000002984
 21
-90.500000000000199
 31
-0.0000000000000284
  0
LINE
  5
5A27
  8
0
  6
CONTINUOUS
 62
     3
 10
-10.5000000000003393
 20
-89.0000000000001563
 30
-0.0000000000000023
 11
-129.5000000000003126
 21
-89.0000000000001137
 31
-0.0000000000000288
  0
LINE
  5
5A28
  8
0
  6
CONTINUOUS
 62
     3
 10
-10.5000000000003393
 20
-88.0000000000001847
 30
-0.0000000000000023
 11
-129.5000000000003126
 21
-88.0000000000001563
 31
-0.0000000000000288
  0
LINE
  5
5A29
  8
0
  6
CONTINUOUS
 62
     3
 10
-12.8828555675206697
 20
-85.6171444324798188
 30
-0.0000000000000029
 11
-127.1171444324800035
 21
-85.6171444324798188
 31
-0.0000000000000282
  0
LINE
  5
5A2A
  8
0
  6
CONTINUOUS
 62
     3
 10
-10.0000000000003393
 20
-81.5000000000002558
 30
-0.0000000000000022
 11
-130.0000000000003126
 21
-81.5000000000002132
 31
-0.0000000000000289
  0
LINE
  5
5A2B
  8
0
  6
CONTINUOUS
 62
     3
 10
-20.5000000000003411
 20
-79.500000000000199
 30
-0.0000000000000046
 11
-119.5000000000002984
 21
-79.500000000000199
 31
-0.0000000000000265
  0
LINE
  5
5A2C
  8
0
  6
CONTINUOUS
 62
     3
 10
-10.5000000000003393
 20
-99.5000000000001847
 30
-0.0000000000000023
 11
-129.5000000000003126
 21
-99.5000000000001705
 31
-0.0000000000000288
  0
ARC
  5
5A2D
  8
0
  6
CONTINUOUS
 62
     3
 10
-14.3605484796001299
 20
-98.7000000000001307
 30
-0.0000000000000032
 40
0.8000000000000113
 50
160.1447856306758126
 51
270.0
  0
ARC
  5
5A2E
  8
0
  6
CONTINUOUS
 62
     3
 10
-125.6394515204004989
 20
-98.7000000000001307
 30
-0.0000000000000279
 40
0.800000000000004
 50
269.9999999999948841
 51
19.8552143693228906
  0
LINE
  5
5A2F
  8
0
  6
CONTINUOUS
 62
     3
 10
-124.8870084006472041
 20
-98.4282844289780741
 30
-0.0000000000000277
 11
-127.7500000000002984
 21
-90.5000000000002132
 31
-0.0000000000000284
  0
LINE
  5
5A30
  8
0
  6
CONTINUOUS
 62
     3
 10
-15.1129915993534905
 20
-98.4282844289780883
 30
-0.0000000000000034
 11
-12.2500000000003197
 21
-90.5000000000002274
 31
-0.0000000000000027
  0
LINE
  5
5A31
  8
0
  6
CONTINUOUS
 62
     3
 10
-127.7500000000002984
 20
-90.5000000000001847
 30
-0.0000000000000284
 11
-129.5000000000003126
 21
-89.0000000000001137
 31
-0.0000000000000288
  0
LINE
  5
5A32
  8
0
  6
CONTINUOUS
 62
     3
 10
-12.2500000000003499
 20
-90.5000000000002132
 30
-0.0000000000000027
 11
-10.5000000000003499
 21
-89.0000000000001563
 31
-0.0000000000000023
  0
LINE
  5
5A33
  8
0
  6
CONTINUOUS
 62
     3
 10
-129.5000000000003126
 20
-89.0000000000001137
 30
-0.0000000000000288
 11
-129.5000000000003126
 21
-88.0000000000001563
 31
-0.0000000000000288
  0
LINE
  5
5A34
  8
0
  6
CONTINUOUS
 62
     3
 10
-10.5000000000003393
 20
-89.0000000000001847
 30
-0.0000000000000023
 11
-10.5000000000003393
 21
-88.000000000000199
 31
-0.0000000000000023
  0
LINE
  5
5A35
  8
0
  6
CONTINUOUS
 62
     3
 10
-12.8828555675206609
 20
-85.617144432479833
 30
-0.0000000000000029
 11
-10.5000000000003393
 21
-88.000000000000199
 31
-0.0000000000000023
  0
LINE
  5
5A36
  8
0
  6
CONTINUOUS
 62
     3
 10
-127.1171444324800035
 20
-85.6171444324798188
 30
-0.0000000000000282
 11
-129.5000000000003126
 21
-88.0000000000001563
 31
-0.0000000000000288
  0
LINE
  5
5A37
  8
0
  6
CONTINUOUS
 62
     3
 10
-127.1171444324800035
 20
-85.6171444324798045
 30
-0.0000000000000282
 11
-130.0000000000003126
 21
-81.5000000000002132
 31
-0.0000000000000289
  0
LINE
  5
5A38
  8
0
  6
CONTINUOUS
 62
     3
 10
-12.8828555675206804
 20
-85.617144432479833
 30
-0.0000000000000029
 11
-10.0000000000003499
 21
-81.5000000000002558
 31
-0.0000000000000022
  0
ARC
  5
5A39
  8
0
  6
CONTINUOUS
 62
     3
 10
-20.5000000000003801
 20
-84.50000000000027
 30
-0.0000000000000046
 40
5.0000000000000853
 50
36.8698976458439134
 51
89.9999999999995737
  0
ARC
  5
5A3A
  8
0
  6
CONTINUOUS
 62
     3
 10
-119.5000000000002984
 20
-84.5000000000002132
 30
-0.0000000000000265
 40
5.0000000000000249
 50
90.0000000000001705
 51
143.1301023541562927
  0
ARC
  5
5A3B
  8
0
  6
CONTINUOUS
 62
     3
 10
-14.3909535291151105
 20
-105.0000000000002984
 30
-0.0000000000000032
 40
1.4999999999999529
 50
270.0000000000002274
 51
334.1058866215284979
  0
ARC
  5
5A3C
  8
0
  6
CONTINUOUS
 62
     3
 10
-125.6090464708856018
 20
-105.0000000000003979
 30
-0.0000000000000279
 40
1.4999999999998861
 50
205.8941133784672957
 51
270.0
  0
LINE
  5
5A3D
  8
0
  6
CONTINUOUS
 62
     3
 10
-126.9584504483277954
 20
-105.6550640469932034
 30
-0.0000000000000282
 11
-129.0984106065131982
 21
-101.2468374586480024
 31
-0.0000000000000287
  0
LINE
  5
5A3E
  8
0
  6
CONTINUOUS
 62
     3
 10
-13.0415495516728104
 20
-105.6550640469932034
 30
-0.0000000000000029
 11
-10.9015893934874892
 21
-101.2468374586481019
 31
-0.0000000000000024
  0
ARC
  5
5A3F
  8
0
  6
CONTINUOUS
 62
     3
 10
-14.5000000000012594
 20
-99.4999999999998863
 30
-0.0000000000000032
 40
4.0000000000009202
 50
334.1058866215278158
 51
359.999999999995282
  0
ARC
  5
5A40
  8
0
  6
CONTINUOUS
 62
     3
 10
-125.4999999999993037
 20
-99.4999999999998437
 30
-0.0000000000000279
 40
4.0000000000010374
 50
180.0000000000044054
 51
205.8941133784711042
  0
LINE
  5
5A41
  8
0
  6
CONTINUOUS
 62
     3
 10
125.6090464708849055
 20
-106.5000000000002984
 30
0.0000000000000279
 11
14.3909535291144302
 21
-106.5000000000002984
 31
0.0000000000000032
  0
LINE
  5
5A42
  8
0
  6
CONTINUOUS
 62
     3
 10
127.7499999999996021
 20
-90.500000000000199
 30
0.0000000000000284
 11
12.2499999999996607
 21
-90.500000000000199
 31
0.0000000000000027
  0
LINE
  5
5A43
  8
0
  6
CONTINUOUS
 62
     3
 10
129.4999999999996021
 20
-89.0000000000001563
 30
0.0000000000000288
 11
10.4999999999996607
 21
-89.0000000000001137
 31
0.0000000000000023
  0
LINE
  5
5A44
  8
0
  6
CONTINUOUS
 62
     3
 10
129.4999999999996021
 20
-88.0000000000001847
 30
0.0000000000000288
 11
10.4999999999996607
 21
-88.0000000000001563
 31
0.0000000000000023
  0
LINE
  5
5A45
  8
0
  6
CONTINUOUS
 62
     3
 10
127.117144432479293
 20
-85.6171444324798188
 30
0.0000000000000282
 11
12.8828555675199805
 21
-85.6171444324798188
 31
0.0000000000000029
  0
LINE
  5
5A46
  8
0
  6
CONTINUOUS
 62
     3
 10
129.9999999999996021
 20
-81.5000000000002558
 30
0.0000000000000289
 11
9.9999999999996572
 21
-81.5000000000002132
 31
0.0000000000000022
  0
LINE
  5
5A47
  8
0
  6
CONTINUOUS
 62
     3
 10
119.4999999999996021
 20
-79.500000000000199
 30
0.0000000000000265
 11
20.4999999999996589
 21
-79.500000000000199
 31
0.0000000000000046
  0
LINE
  5
5A48
  8
0
  6
CONTINUOUS
 62
     3
 10
129.4999999999996021
 20
-99.5000000000001847
 30
0.0000000000000288
 11
10.4999999999996607
 21
-99.5000000000001705
 31
0.0000000000000023
  0
ARC
  5
5A49
  8
0
  6
CONTINUOUS
 62
     3
 10
125.6394515203999021
 20
-98.7000000000001307
 30
0.0000000000000279
 40
0.8000000000000113
 50
160.1447856306766084
 51
270.0
  0
ARC
  5
5A4A
  8
0
  6
CONTINUOUS
 62
     3
 10
14.3605484795994496
 20
-98.7000000000001307
 30
0.0000000000000032
 40
0.8000000000000174
 50
269.9999999999964189
 51
19.8552143693225389
  0
LINE
  5
5A4B
  8
0
  6
CONTINUOUS
 62
     3
 10
15.1129915993527995
 20
-98.4282844289780741
 30
0.0000000000000034
 11
12.2499999999996305
 21
-90.5000000000002132
 31
0.0000000000000027
  0
LINE
  5
5A4C
  8
0
  6
CONTINUOUS
 62
     3
 10
124.8870084006464936
 20
-98.4282844289780883
 30
0.0000000000000277
 11
127.7499999999996021
 21
-90.5000000000002274
 31
0.0000000000000284
  0
LINE
  5
5A4D
  8
0
  6
CONTINUOUS
 62
     3
 10
12.2499999999996696
 20
-90.5000000000001847
 30
0.0000000000000027
 11
10.4999999999996607
 21
-89.0000000000001137
 31
0.0000000000000023
  0
LINE
  5
5A4E
  8
0
  6
CONTINUOUS
 62
     3
 10
127.7499999999996021
 20
-90.5000000000002132
 30
0.0000000000000284
 11
129.4999999999996021
 21
-89.0000000000001563
 31
0.0000000000000288
  0
LINE
  5
5A4F
  8
0
  6
CONTINUOUS
 62
     3
 10
10.4999999999996607
 20
-89.0000000000001137
 30
0.0000000000000023
 11
10.4999999999996607
 21
-88.0000000000001563
 31
0.0000000000000023
  0
LINE
  5
5A50
  8
0
  6
CONTINUOUS
 62
     3
 10
129.4999999999996021
 20
-89.0000000000001847
 30
0.0000000000000288
 11
129.4999999999996021
 21
-88.000000000000199
 31
0.0000000000000288
  0
LINE
  5
5A51
  8
0
  6
CONTINUOUS
 62
     3
 10
127.117144432479293
 20
-85.617144432479833
 30
0.0000000000000282
 11
129.4999999999996021
 21
-88.000000000000199
 31
0.0000000000000288
  0
LINE
  5
5A52
  8
0
  6
CONTINUOUS
 62
     3
 10
12.8828555675199805
 20
-85.6171444324798188
 30
0.0000000000000029
 11
10.4999999999996607
 21
-88.0000000000001563
 31
0.0000000000000023
  0
LINE
  5
5A53
  8
0
  6
CONTINUOUS
 62
     3
 10
12.8828555675199894
 20
-85.6171444324798045
 30
0.0000000000000029
 11
9.999999999999666
 21
-81.5000000000002132
 31
0.0000000000000022
  0
LINE
  5
5A54
  8
0
  6
CONTINUOUS
 62
     3
 10
127.117144432479293
 20
-85.617144432479833
 30
0.0000000000000282
 11
129.9999999999996021
 21
-81.5000000000002558
 31
0.0000000000000289
  0
ARC
  5
5A55
  8
0
  6
CONTINUOUS
 62
     3
 10
119.4999999999996021
 20
-84.5000000000002132
 30
0.0000000000000265
 40
5.0000000000000284
 50
36.8698976458436078
 51
89.9999999999998437
  0
ARC
  5
5A56
  8
0
  6
CONTINUOUS
 62
     3
 10
20.4999999999997016
 20
-84.50000000000027
 30
0.0000000000000046
 40
5.0000000000000853
 50
90.0000000000004405
 51
143.1301023541560937
  0
ARC
  5
5A57
  8
0
  6
CONTINUOUS
 62
     3
 10
125.6090464708849055
 20
-105.0000000000002984
 30
0.0000000000000279
 40
1.4999999999999469
 50
270.0
 51
334.1058866215283274
  0
ARC
  5
5A58
  8
0
  6
CONTINUOUS
 62
     3
 10
14.3909535291144
 20
-105.0000000000003979
 30
0.0000000000000032
 40
1.4999999999999001
 50
205.8941133784678925
 51
270.0
  0
LINE
  5
5A59
  8
0
  6
CONTINUOUS
 62
     3
 10
13.04154955167213
 20
-105.6550640469932034
 30
0.0000000000000029
 11
10.9015893934868107
 21
-101.2468374586480024
 31
0.0000000000000024
  0
LINE
  5
5A5A
  8
0
  6
CONTINUOUS
 62
     3
 10
126.9584504483271985
 20
-105.6550640469932034
 30
0.0000000000000282
 11
129.0984106065124877
 21
-101.2468374586481019
 31
0.0000000000000287
  0
ARC
  5
5A5B
  8
0
  6
CONTINUOUS
 62
     3
 10
125.4999999999985931
 20
-99.4999999999998863
 30
0.0000000000000279
 40
4.0000000000010374
 50
334.1058866215287821
 51
359.9999999999955094
  0
ARC
  5
5A5C
  8
0
  6
CONTINUOUS
 62
     3
 10
14.5000000000005898
 20
-99.4999999999998863
 30
0.0000000000000032
 40
4.0000000000009317
 50
180.0000000000038085
 51
205.8941133784711894
  0
LINE
  5
5A5D
  8
0
  6
VERDECKT
 62
     1
 10
-16.5000000000000107
 20
-12.2417907618805799
 30
-0.0000000000000037
 11
-123.5
 21
-12.2417907618805799
 31
-0.0000000000000274
  0
LINE
  5
5A5E
  8
0
  6
VERDECKT
 62
     1
 10
16.5000000000000107
 20
-12.2417907618805799
 30
0.0000000000000037
 11
123.5
 21
-12.2417907618805799
 31
0.0000000000000274
  0
LINE
  5
5A5F
  8
0
  6
VERDECKT
 62
     1
 10
-16.4999999999999893
 20
-12.2417907618805799
 30
-0.0000000000000037
 11
-15.8479886878048895
 21
-13.0
 31
-0.0000000000000035
  0
LINE
  5
5A60
  8
0
  6
VERDECKT
 62
     1
 10
-123.5
 20
-12.2417907618805799
 30
-0.0000000000000274
 11
-124.1520113121950999
 21
-13.0
 31
-0.0000000000000276
  0
ARC
  5
5A61
  8
0
  6
VERDECKT
 62
     1
 10
-118.3474442665166038
 20
-6.2499999999999636
 30
-0.0000000000000263
 40
7.9025557334833261
 50
180.000000000000199
 51
229.3065815995956029
  0
ARC
  5
5A62
  8
0
  6
VERDECKT
 62
     1
 10
-21.6525557334833003
 20
-6.2499999999999938
 30
-0.0000000000000048
 40
7.9025557334832683
 50
310.6934184004043118
 51
360.0
  0
LINE
  5
5A63
  8
0
  6
VERDECKT
 62
     1
 10
-126.2499999999999005
 20
-6.25
 30
-0.000000000000028
 11
-126.2499999999999005
 21
-3.2499999999999991
 31
-0.000000000000028
  0
LINE
  5
5A64
  8
0
  6
VERDECKT
 62
     1
 10
-13.7500000000000302
 20
-6.25
 30
-0.0000000000000031
 11
-13.7500000000000302
 21
-3.2499999999999991
 31
-0.0000000000000031
  0
ARC
  5
5A65
  8
0
  6
VERDECKT
 62
     1
 10
-129.4999999999998863
 20
-3.249999999999996
 30
-0.0000000000000288
 40
3.249999999999996
 50
360.0
 51
90.0000000000015064
  0
ARC
  5
5A66
  8
0
  6
VERDECKT
 62
     1
 10
-10.5000000000000302
 20
-3.2499999999999991
 30
-0.0000000000000023
 40
3.25
 50
90.0000000000006253
 51
180.0
  0
LINE
  5
5A67
  8
0
  6
VERDECKT
 62
     1
 10
123.5
 20
-12.2417907618805799
 30
0.0000000000000274
 11
124.1520113121950999
 21
-13.0
 31
0.0000000000000276
  0
LINE
  5
5A68
  8
0
  6
VERDECKT
 62
     1
 10
16.4999999999999893
 20
-12.2417907618805799
 30
0.0000000000000037
 11
15.8479886878048895
 21
-13.0
 31
0.0000000000000035
  0
ARC
  5
5A69
  8
0
  6
VERDECKT
 62
     1
 10
21.6525557334833003
 20
-6.2499999999999973
 30
0.0000000000000048
 40
7.9025557334832586
 50
180.0
 51
229.3065815995956882
  0
ARC
  5
5A6A
  8
0
  6
VERDECKT
 62
     1
 10
118.3474442665166038
 20
-6.2499999999999618
 30
0.0000000000000263
 40
7.9025557334833394
 50
310.693418400404596
 51
359.9999999999997158
  0
LINE
  5
5A6B
  8
0
  6
VERDECKT
 62
     1
 10
126.2499999999999005
 20
-3.2499999999999991
 30
0.000000000000028
 11
126.2499999999999005
 21
-6.25
 31
0.000000000000028
  0
LINE
  5
5A6C
  8
0
  6
VERDECKT
 62
     1
 10
13.7500000000000302
 20
-3.2499999999999991
 30
0.0000000000000031
 11
13.7500000000000302
 21
-6.25
 31
0.0000000000000031
  0
ARC
  5
5A6D
  8
0
  6
VERDECKT
 62
     1
 10
10.5000000000000302
 20
-3.25
 30
0.0000000000000023
 40
3.25
 50
0.0000000000000254
 51
90.0000000000018758
  0
ARC
  5
5A6E
  8
0
  6
VERDECKT
 62
     1
 10
129.4999999999998863
 20
-3.2500000000000022
 30
0.0000000000000288
 40
3.25
 50
90.0000000000004832
 51
179.9999999999998863
  0
LINE
  5
5A6F
  8
0
  6
VERDECKT
 62
     1
 10
-247.0
 20
0.0000000000000331
 30
-0.0000000000000568
 11
-247.0
 21
-0.9999999999999669
 31
-0.0000000000000568
  0
LINE
  5
5A70
  8
0
  6
VERDECKT
 62
     1
 10
-253.0
 20
0.0000000000000331
 30
-0.0000000000000568
 11
-253.0
 21
-0.9999999999999669
 31
-0.0000000000000568
  0
LINE
  5
5A71
  8
0
  6
VERDECKT
 62
     1
 10
253.0
 20
0.0000000000000331
 30
0.0000000000000568
 11
253.0
 21
-0.9999999999999669
 31
0.0000000000000568
  0
LINE
  5
5A72
  8
0
  6
VERDECKT
 62
     1
 10
247.0
 20
0.0000000000000331
 30
0.0000000000000568
 11
247.0
 21
-0.9999999999999669
 31
0.0000000000000568
  0
LINE
  5
5A73
  8
0
  6
VERDECKT
 62
     1
 10
-18.2000000000003901
 20
-96.5867734926429762
 30
-0.000000000000004
 11
-121.8000000000003951
 21
-96.5867734926429762
 31
-0.000000000000027
  0
LINE
  5
5A74
  8
0
  6
VERDECKT
 62
     1
 10
-117.5000000000003979
 20
-81.0560159748483784
 30
-0.0000000000000261
 11
-22.5000000000004015
 21
-81.0560159748483784
 31
-0.000000000000005
  0
LINE
  5
5A75
  8
0
  6
VERDECKT
 62
     1
 10
-13.4004150764197298
 20
-83.5000000000002558
 30
-0.000000000000003
 11
-126.5995849235809061
 21
-83.5000000000002558
 31
-0.0000000000000281
  0
ARC
  5
5A76
  8
0
  6
VERDECKT
 62
     1
 10
-14.3909535291151691
 20
-105.0067734926430063
 30
-0.0000000000000032
 40
1.4999999999999669
 50
194.9999999999992895
 51
264.5529433107689101
  0
ARC
  5
5A77
  8
0
  6
VERDECKT
 62
     1
 10
-125.6090464708856018
 20
-105.0067734926430063
 30
-0.0000000000000279
 40
1.4999999999999849
 50
275.4470566892322267
 51
345.0000000000014211
  0
LINE
  5
5A78
  8
0
  6
VERDECKT
 62
     1
 10
-18.2000000000003794
 20
-96.5867734926430046
 30
-0.000000000000004
 11
-15.8398422685487397
 21
-105.3950020602968038
 31
-0.0000000000000035
  0
LINE
  5
5A79
  8
0
  6
VERDECKT
 62
     1
 10
-121.8000000000003951
 20
-96.5867734926429762
 30
-0.000000000000027
 11
-124.1601577314520028
 21
-105.3950020602967044
 31
-0.0000000000000276
  0
LINE
  5
5A7A
  8
0
  6
VERDECKT
 62
     1
 10
-121.8000000000003951
 20
-96.5867734926429762
 30
-0.000000000000027
 11
-121.8000000000003951
 21
-86.0067734926430063
 31
-0.000000000000027
  0
LINE
  5
5A7B
  8
0
  6
VERDECKT
 62
     1
 10
-18.2000000000003901
 20
-96.5867734926430046
 30
-0.000000000000004
 11
-18.2000000000003901
 21
-86.0067734926430205
 31
-0.000000000000004
  0
ARC
  5
5A7C
  8
0
  6
VERDECKT
 62
     1
 10
-23.2000000000004292
 20
-86.0067734926430347
 30
-0.0000000000000052
 40
5.0000000000000346
 50
0.0000000000001527
 51
81.9521537526881332
  0
ARC
  5
5A7D
  8
0
  6
VERDECKT
 62
     1
 10
-116.8000000000002956
 20
-86.0067734926430632
 30
-0.0000000000000259
 40
5.0000000000000711
 50
98.0478462473121226
 51
179.9999999999992042
  0
LINE
  5
5A7E
  8
0
  6
VERDECKT
 62
     1
 10
-22.5000000000004015
 20
-79.500000000000199
 30
-0.000000000000005
 11
-22.5000000000004015
 21
-81.0560159748484068
 31
-0.000000000000005
  0
LINE
  5
5A7F
  8
0
  6
VERDECKT
 62
     1
 10
-117.5000000000003979
 20
-79.500000000000199
 30
-0.0000000000000261
 11
-117.5000000000003979
 21
-81.0560159748483784
 31
-0.0000000000000261
  0
LINE
  5
5A80
  8
0
  6
VERDECKT
 62
     1
 10
-126.5995849235809061
 20
-83.5000000000002416
 30
-0.0000000000000281
 11
-128.0000000000003126
 21
-81.5000000000002132
 31
-0.0000000000000284
  0
LINE
  5
5A81
  8
0
  6
VERDECKT
 62
     1
 10
-13.4004150764197707
 20
-83.5000000000002558
 30
-0.000000000000003
 11
-12.0000000000003801
 21
-81.5000000000002274
 31
-0.0000000000000027
  0
ARC
  5
5A82
  8
0
  6
VERDECKT
 62
     1
 10
-20.5000000000003588
 20
-84.500000000000199
 30
-0.0000000000000046
 40
5.0000000000000231
 50
11.5369590328147495
 51
36.8698976458434018
  0
ARC
  5
5A83
  8
0
  6
VERDECKT
 62
     1
 10
-119.5000000000004974
 20
-84.5000000000001279
 30
-0.0000000000000265
 40
4.9999999999998277
 50
143.1301023541558948
 51
168.4630409671852931
  0
LINE
  5
5A84
  8
0
  6
VERDECKT
 62
     1
 10
121.7999999999995993
 20
-96.5867734926429762
 30
0.000000000000027
 11
18.1999999999995907
 21
-96.5867734926429762
 31
0.000000000000004
  0
LINE
  5
5A85
  8
0
  6
VERDECKT
 62
     1
 10
22.4999999999995985
 20
-81.0560159748483784
 30
0.000000000000005
 11
117.4999999999996021
 21
-81.0560159748483784
 31
0.0000000000000261
  0
LINE
  5
5A86
  8
0
  6
VERDECKT
 62
     1
 10
126.5995849235801956
 20
-83.5000000000002558
 30
0.0000000000000281
 11
13.4004150764190495
 21
-83.5000000000002558
 31
0.000000000000003
  0
ARC
  5
5A87
  8
0
  6
VERDECKT
 62
     1
 10
125.609046470884806
 20
-105.0067734926430063
 30
0.0000000000000279
 40
1.4999999999999829
 50
194.9999999999996874
 51
264.5529433107682848
  0
ARC
  5
5A88
  8
0
  6
VERDECKT
 62
     1
 10
14.3909535291143609
 20
-105.0067734926430063
 30
0.0000000000000032
 40
1.4999999999999709
 50
275.4470566892314878
 51
345.0000000000018758
  0
LINE
  5
5A89
  8
0
  6
VERDECKT
 62
     1
 10
121.7999999999995993
 20
-96.5867734926430046
 30
0.000000000000027
 11
124.160157731451207
 21
-105.3950020602968038
 31
0.0000000000000276
  0
LINE
  5
5A8A
  8
0
  6
VERDECKT
 62
     1
 10
18.1999999999995907
 20
-96.5867734926429762
 30
0.000000000000004
 11
15.8398422685479598
 21
-105.3950020602967044
 31
0.0000000000000035
  0
LINE
  5
5A8B
  8
0
  6
VERDECKT
 62
     1
 10
18.1999999999995907
 20
-96.5867734926429762
 30
0.000000000000004
 11
18.1999999999995907
 21
-86.0067734926430063
 31
0.000000000000004
  0
LINE
  5
5A8C
  8
0
  6
VERDECKT
 62
     1
 10
121.7999999999995993
 20
-96.5867734926430046
 30
0.000000000000027
 11
121.7999999999995993
 21
-86.0067734926430205
 31
0.000000000000027
  0
ARC
  5
5A8D
  8
0
  6
VERDECKT
 62
     1
 10
116.7999999999994998
 20
-86.0067734926430489
 30
0.0000000000000259
 40
5.0000000000000506
 50
0.0000000000003053
 51
81.9521537526880479
  0
ARC
  5
5A8E
  8
0
  6
VERDECKT
 62
     1
 10
23.1999999999996405
 20
-86.0067734926430489
 30
0.0000000000000052
 40
5.0000000000000488
 50
98.0478462473118952
 51
179.9999999999992895
  0
LINE
  5
5A8F
  8
0
  6
VERDECKT
 62
     1
 10
117.4999999999996021
 20
-79.500000000000199
 30
0.0000000000000261
 11
117.4999999999996021
 21
-81.0560159748484068
 31
0.0000000000000261
  0
LINE
  5
5A90
  8
0
  6
VERDECKT
 62
     1
 10
22.4999999999995985
 20
-79.500000000000199
 30
0.000000000000005
 11
22.4999999999995985
 21
-81.0560159748483784
 31
0.000000000000005
  0
LINE
  5
5A91
  8
0
  6
VERDECKT
 62
     1
 10
13.4004150764190708
 20
-83.5000000000002416
 30
0.000000000000003
 11
11.9999999999996803
 21
-81.5000000000002132
 31
0.0000000000000027
  0
LINE
  5
5A92
  8
0
  6
VERDECKT
 62
     1
 10
126.5995849235801956
 20
-83.5000000000002558
 30
0.0000000000000281
 11
127.9999999999996021
 21
-81.5000000000002274
 31
0.0000000000000284
  0
ARC
  5
5A93
  8
0
  6
VERDECKT
 62
     1
 10
119.499999999999801
 20
-84.5000000000001563
 30
0.0000000000000265
 40
4.9999999999998801
 50
11.5369590328144191
 51
36.869897645843821
  0
ARC
  5
5A94
  8
0
  6
VERDECKT
 62
     1
 10
20.4999999999997016
 20
-84.5000000000002132
 30
0.0000000000000046
 40
5.0000000000000542
 50
143.1301023541566053
 51
168.4630409671848099
  0
ENDBLK
  5
5A96
  8
0
  0
BLOCK
  8
0
  2
A$CFDCFA535
 70
     0
 10
0.0
 20
0.0
 30
0.0
  3
A$CFDCFA535
  1

  0
LINE
  5
5A9A
  8
0
  6
CONTINUOUS
 62
     3
 10
12.9999999999999805
 20
54.1520113121951425
 30
-0.000000000000012
 11
13.0000000000000195
 21
-54.152011312195107
 31
0.000000000000012
210
-0.0000000000000002
220
1.0
230
-0.0000000000000002
  0
LINE
  5
5A9B
  8
0
  6
CONTINUOUS
 62
     3
 10
0.0000000000000811
 20
-200.0000000000001137
 30
0.0000000000000444
 11
1.000000000000081
 21
-200.0000000000001137
 31
0.0000000000000444
210
-0.0000000000000002
220
1.0
230
-0.0000000000000002
  0
LINE
  5
5A9C
  8
0
  6
CONTINUOUS
 62
     3
 10
0.000000000000073
 20
-180.0000000000001137
 30
0.00000000000004
 11
0.0000000000000811
 21
-200.0000000000001137
 31
0.0000000000000444
210
-0.0000000000000002
220
1.0
230
-0.0000000000000002
  0
LINE
  5
5A9D
  8
0
  6
CONTINUOUS
 62
     3
 10
1.000000000000081
 20
-200.0000000000001137
 30
0.0000000000000444
 11
1.0000000000000731
 21
-180.0000000000001137
 31
0.00000000000004
210
-0.0000000000000002
220
1.0
230
-0.0000000000000002
  0
LINE
  5
5A9E
  8
0
  6
CONTINUOUS
 62
     3
 10
0.000000000000073
 20
-180.0000000000001137
 30
0.00000000000004
 11
-0.000000000000073
 21
180.0000000000001137
 31
-0.00000000000004
210
-0.0000000000000002
220
1.0
230
-0.0000000000000002
  0
LINE
  5
5A9F
  8
0
  6
CONTINUOUS
 62
     3
 10
0.9999999999999271
 20
180.0000000000001137
 30
-0.00000000000004
 11
1.0000000000000731
 21
-180.0000000000001137
 31
0.00000000000004
210
-0.0000000000000002
220
1.0
230
-0.0000000000000002
  0
LINE
  5
5AA0
  8
0
  6
CONTINUOUS
 62
     3
 10
-0.0000000000000811
 20
200.0000000000001137
 30
-0.0000000000000444
 11
-0.000000000000073
 21
180.0000000000001137
 31
-0.00000000000004
210
-0.0000000000000002
220
1.0
230
-0.0000000000000002
  0
LINE
  5
5AA1
  8
0
  6
CONTINUOUS
 62
     3
 10
0.9999999999999271
 20
180.0000000000001137
 30
-0.00000000000004
 11
0.999999999999919
 21
200.0000000000001137
 31
-0.0000000000000444
210
-0.0000000000000002
220
1.0
230
-0.0000000000000002
  0
LINE
  5
5AA2
  8
0
  6
CONTINUOUS
 62
     3
 10
-0.0000000000000811
 20
200.0000000000003126
 30
-0.0000000000000444
 11
0.999999999999919
 21
200.0000000000003126
 31
-0.0000000000000444
210
-0.0000000000000002
220
1.0
230
-0.0000000000000002
  0
ARC
  5
5AA3
  8
0
  6
CONTINUOUS
 62
     3
 10
-3.2500000000000209
 20
-59.4999999999999716
 30
0.0
 40
2.249999999999996
210
0.0
220
-0.0000000000000002
230
-1.0
 50
359.9999999999996021
 51
90.0000000000000711
  0
ARC
  5
5AA4
  8
0
  6
CONTINUOUS
 62
     3
 10
-3.2499999999999818
 20
59.5000000000000071
 30
0.0
 40
2.2500000000000071
210
0.0
220
-0.0000000000000002
230
-1.0
 50
270.0
 51
0.0000000000016666
  0
LINE
  5
5AA5
  8
0
  6
CONTINUOUS
 62
     3
 10
6.250000000000024
 20
-57.2499999999999716
 30
0.0000000000000127
 11
3.250000000000024
 21
-57.2499999999999716
 31
0.0000000000000127
210
-0.0000000000000002
220
1.0
230
-0.0000000000000002
  0
LINE
  5
5AA6
  8
0
  6
CONTINUOUS
 62
     3
 10
6.2499999999999778
 20
57.25
 30
-0.0000000000000127
 11
3.2499999999999769
 21
57.25
 31
-0.0000000000000127
210
-0.0000000000000002
220
1.0
230
-0.0000000000000002
  0
ARC
  5
5AA7
  8
0
  6
CONTINUOUS
 62
     3
 10
-6.2499999999999929
 20
-48.3474442665166606
 30
0.0
 40
8.9025557334833127
210
0.0
220
-0.0000000000000002
230
-1.0
 50
220.6934184004043118
 51
269.9999999999997726
  0
ARC
  5
5AA8
  8
0
  6
CONTINUOUS
 62
     3
 10
-6.2499999999999734
 20
48.3474442665167174
 30
0.0
 40
8.9025557334832772
210
0.0
220
-0.0000000000000002
230
-1.0
 50
90.0000000000000568
 51
139.3065815995956029
  0
LINE
  5
5AA9
  8
0
  6
CONTINUOUS
 62
     3
 10
106.5000000000002984
 20
55.6090464708852394
 30
-0.0000000000000123
 11
106.5000000000002984
 21
-55.6090464708852608
 31
0.0000000000000123
210
-0.0000000000000002
220
1.0
230
-0.0000000000000002
  0
LINE
  5
5AAA
  8
0
  6
CONTINUOUS
 62
     3
 10
90.500000000000199
 20
57.7500000000000497
 30
-0.0000000000000128
 11
90.5000000000002274
 21
-57.7500000000000284
 31
0.0000000000000128
210
-0.0000000000000002
220
1.0
230
-0.0000000000000002
  0
LINE
  5
5AAB
  8
0
  6
CONTINUOUS
 62
     3
 10
89.0000000000001421
 20
59.5000000000000213
 30
-0.0000000000000132
 11
89.0000000000001847
 21
-59.5000000000000284
 31
0.0000000000000132
210
-0.0000000000000002
220
1.0
230
-0.0000000000000002
  0
LINE
  5
5AAC
  8
0
  6
CONTINUOUS
 62
     3
 10
88.0000000000001563
 20
59.5000000000000213
 30
-0.0000000000000132
 11
88.000000000000199
 21
-59.5000000000000284
 31
0.0000000000000132
210
-0.0000000000000002
220
1.0
230
-0.0000000000000002
  0
LINE
  5
5AAD
  8
0
  6
CONTINUOUS
 62
     3
 10
85.6171444324798188
 20
57.1171444324796909
 30
-0.0000000000000127
 11
85.617144432479833
 21
-57.117144432479698
 31
0.0000000000000127
210
-0.0000000000000002
220
1.0
230
-0.0000000000000002
  0
LINE
  5
5AAE
  8
0
  6
CONTINUOUS
 62
     3
 10
81.5000000000002274
 20
60.0000000000000213
 30
-0.0000000000000133
 11
81.5000000000002558
 21
-60.0000000000000284
 31
0.0000000000000133
210
-0.0000000000000002
220
1.0
230
-0.0000000000000002
  0
LINE
  5
5AAF
  8
0
  6
CONTINUOUS
 62
     3
 10
79.500000000000199
 20
49.5000000000000071
 30
-0.000000000000011
 11
79.5000000000002274
 21
-49.5000000000000284
 31
0.000000000000011
210
-0.0000000000000002
220
1.0
230
-0.0000000000000002
  0
LINE
  5
5AB0
  8
0
  6
CONTINUOUS
 62
     3
 10
99.5000000000001847
 20
59.5000000000000213
 30
-0.0000000000000132
 11
99.5000000000002132
 21
-59.5000000000000284
 31
0.0000000000000132
210
-0.0000000000000002
220
1.0
230
-0.0000000000000002
  0
ARC
  5
5AB1
  8
0
  6
CONTINUOUS
 62
     3
 10
-98.700000000000145
 20
55.6394515204002218
 30
0.0
 40
0.8000000000000115
210
0.0
220
-0.0000000000000002
230
-1.0
 50
179.9999999999963904
 51
289.8552143693224821
  0
ARC
  5
5AB2
  8
0
  6
CONTINUOUS
 62
     3
 10
-98.7000000000001734
 20
-55.6394515204002289
 30
0.0
 40
0.8000000000000177
210
0.0
220
-0.0000000000000002
230
-1.0
 50
70.1447856306774469
 51
180.0000000000034959
  0
LINE
  5
5AB3
  8
0
  6
CONTINUOUS
 62
     3
 10
98.4282844289781167
 20
-54.8870084006468915
 30
0.0000000000000122
 11
90.5000000000002274
 21
-57.7500000000000568
 31
0.0000000000000128
210
-0.0000000000000002
220
1.0
230
-0.0000000000000002
  0
LINE
  5
5AB4
  8
0
  6
CONTINUOUS
 62
     3
 10
98.4282844289780883
 20
54.8870084006468701
 30
-0.0000000000000122
 11
90.5000000000002132
 21
57.7500000000000497
 31
-0.0000000000000128
210
-0.0000000000000002
220
1.0
230
-0.0000000000000002
  0
LINE
  5
5AB5
  8
0
  6
CONTINUOUS
 62
     3
 10
90.5000000000002274
 20
-57.7500000000000284
 30
0.0000000000000128
 11
89.0000000000001847
 21
-59.5000000000000284
 31
0.0000000000000132
210
-0.0000000000000002
220
1.0
230
-0.0000000000000002
  0
LINE
  5
5AB6
  8
0
  6
CONTINUOUS
 62
     3
 10
90.500000000000199
 20
57.7500000000000213
 30
-0.0000000000000128
 11
89.0000000000001421
 21
59.5000000000000213
 31
-0.0000000000000132
210
-0.0000000000000002
220
1.0
230
-0.0000000000000002
  0
LINE
  5
5AB7
  8
0
  6
CONTINUOUS
 62
     3
 10
89.0000000000001847
 20
-59.5000000000000284
 30
0.0000000000000132
 11
88.000000000000199
 21
-59.5000000000000284
 31
0.0000000000000132
210
-0.0000000000000002
220
1.0
230
-0.0000000000000002
  0
LINE
  5
5AB8
  8
0
  6
CONTINUOUS
 62
     3
 10
89.0000000000001421
 20
59.5000000000000213
 30
-0.0000000000000132
 11
88.0000000000001563
 21
59.5000000000000213
 31
-0.0000000000000132
210
-0.0000000000000002
220
1.0
230
-0.0000000000000002
  0
LINE
  5
5AB9
  8
0
  6
CONTINUOUS
 62
     3
 10
85.6171444324798188
 20
57.1171444324796909
 30
-0.0000000000000127
 11
88.0000000000001563
 21
59.5000000000000071
 31
-0.0000000000000132
210
-0.0000000000000002
220
1.0
230
-0.0000000000000002
  0
LINE
  5
5ABA
  8
0
  6
CONTINUOUS
 62
     3
 10
85.617144432479833
 20
-57.117144432479698
 30
0.0000000000000127
 11
88.000000000000199
 21
-59.5000000000000213
 31
0.0000000000000132
210
-0.0000000000000002
220
1.0
230
-0.0000000000000002
  0
LINE
  5
5ABB
  8
0
  6
CONTINUOUS
 62
     3
 10
85.617144432479833
 20
-57.117144432479698
 30
0.0000000000000127
 11
81.5000000000002558
 21
-60.0000000000000284
 31
0.0000000000000133
210
-0.0000000000000002
220
1.0
230
-0.0000000000000002
  0
LINE
  5
5ABC
  8
0
  6
CONTINUOUS
 62
     3
 10
85.6171444324798188
 20
57.1171444324796909
 30
-0.0000000000000127
 11
81.5000000000002274
 21
60.0000000000000071
 31
-0.0000000000000133
210
-0.0000000000000002
220
1.0
230
-0.0000000000000002
  0
ARC
  5
5ABD
  8
0
  6
CONTINUOUS
 62
     3
 10
-84.50000000000027
 20
49.4999999999999716
 30
0.0
 40
5.0000000000000862
210
0.0
220
-0.0000000000000002
230
-1.0
 50
0.0000000000004834
 51
53.1301023541561221
  0
ARC
  5
5ABE
  8
0
  6
CONTINUOUS
 62
     3
 10
-84.5000000000002842
 20
-49.4999999999999929
 30
0.0
 40
5.0000000000000879
210
0.0
220
-0.0000000000000002
230
-1.0
 50
306.8698976458438779
 51
359.9999999999994884
  0
ARC
  5
5ABF
  8
0
  6
CONTINUOUS
 62
     3
 10
-105.0000000000003979
 20
55.6090464708852679
 30
0.0
 40
1.499999999999897
210
0.0
220
-0.0000000000000002
230
-1.0
 50
115.8941133784689015
 51
180.0000000000009948
  0
ARC
  5
5AC0
  8
0
  6
CONTINUOUS
 62
     3
 10
-105.0000000000003979
 20
-55.6090464708852892
 30
0.0
 40
1.4999999999999001
210
0.0
220
-0.0000000000000002
230
-1.0
 50
179.9999999999988916
 51
244.105886621530999
  0
LINE
  5
5AC1
  8
0
  6
CONTINUOUS
 62
     3
 10
105.6550640469932034
 20
-56.958450448327568
 30
0.0000000000000126
 11
101.2468374586481019
 21
-59.0984106065128785
 31
0.0000000000000131
210
-0.0000000000000002
220
1.0
230
-0.0000000000000002
  0
LINE
  5
5AC2
  8
0
  6
CONTINUOUS
 62
     3
 10
105.6550640469932034
 20
56.9584504483275467
 30
-0.0000000000000126
 11
101.2468374586481019
 21
59.0984106065128714
 31
-0.0000000000000131
210
-0.0000000000000002
220
1.0
230
-0.0000000000000002
  0
ARC
  5
5AC3
  8
0
  6
CONTINUOUS
 62
     3
 10
-99.4999999999998863
 20
55.4999999999989697
 30
0.0
 40
4.0000000000010383
210
0.0
220
-0.0000000000000002
230
-1.0
 50
90.000000000004448
 51
115.8941133784711042
  0
ARC
  5
5AC4
  8
0
  6
CONTINUOUS
 62
     3
 10
-99.4999999999998863
 20
-55.499999999998991
 30
0.0
 40
4.0000000000010436
210
0.0
220
-0.0000000000000002
230
-1.0
 50
244.1058866215286969
 51
269.999999999995282
  0
LINE
  5
5AC5
  8
0
  6
VERDECKT
 62
     1
 10
12.2417907618805604
 20
53.5000000000000284
 30
-0.0000000000000119
 11
12.2417907618806101
 21
-53.5
 31
0.0000000000000119
210
-0.0000000000000002
220
1.0
230
-0.0000000000000002
  0
LINE
  5
5AC6
  8
0
  6
VERDECKT
 62
     1
 10
12.2417907618805604
 20
53.5000000000000426
 30
-0.0000000000000119
 11
12.9999999999999805
 21
54.1520113121951425
 31
-0.000000000000012
210
-0.0000000000000002
220
1.0
230
-0.0000000000000002
  0
LINE
  5
5AC7
  8
0
  6
VERDECKT
 62
     1
 10
12.2417907618806101
 20
-53.5000000000000071
 30
0.0000000000000119
 11
13.0000000000000195
 21
-54.152011312195107
 31
0.000000000000012
210
-0.0000000000000002
220
1.0
230
-0.0000000000000002
  0
ARC
  5
5AC8
  8
0
  6
VERDECKT
 62
     1
 10
-6.2500000000000222
 20
-48.3474442665167174
 30
0.0
 40
7.9025557334832488
210
0.0
220
-0.0000000000000002
230
-1.0
 50
220.6934184004041981
 51
270.0
  0
ARC
  5
5AC9
  8
0
  6
VERDECKT
 62
     1
 10
-6.2499999999999796
 20
48.3474442665167388
 30
0.0
 40
7.902555733483255
210
0.0
220
-0.0000000000000002
230
-1.0
 50
89.9999999999999858
 51
139.3065815995956882
  0
LINE
  5
5ACA
  8
0
  6
VERDECKT
 62
     1
 10
6.2500000000000249
 20
-56.2499999999999787
 30
0.0000000000000125
 11
3.2500000000000231
 21
-56.2499999999999787
 31
0.0000000000000125
210
-0.0000000000000002
220
1.0
230
-0.0000000000000002
  0
LINE
  5
5ACB
  8
0
  6
VERDECKT
 62
     1
 10
6.2499999999999787
 20
56.25
 30
-0.0000000000000125
 11
3.2499999999999769
 21
56.25
 31
-0.0000000000000125
210
-0.0000000000000002
220
1.0
230
-0.0000000000000002
  0
ARC
  5
5ACC
  8
0
  6
VERDECKT
 62
     1
 10
-3.2500000000000231
 20
-59.4999999999999787
 30
0.0
 40
3.2499999999999991
210
0.0
220
-0.0000000000000002
230
-1.0
 50
0.0000000000001145
 51
90.0000000000000284
  0
ARC
  5
5ACD
  8
0
  6
VERDECKT
 62
     1
 10
-3.249999999999972
 20
59.5000000000000071
 30
0.0
 40
3.25
210
0.0
220
-0.0000000000000002
230
-1.0
 50
270.0
 51
0.0000000000014376
  0
LINE
  5
5ACE
  8
0
  6
VERDECKT
 62
     1
 10
-0.0000000000000743
 20
183.0000000000001137
 30
-0.0000000000000406
 11
0.9999999999999259
 21
183.0000000000001137
 31
-0.0000000000000406
210
-0.0000000000000002
220
1.0
230
-0.0000000000000002
  0
LINE
  5
5ACF
  8
0
  6
VERDECKT
 62
     1
 10
-0.0000000000000718
 20
177.0000000000001137
 30
-0.0000000000000393
 11
0.9999999999999284
 21
177.0000000000001137
 31
-0.0000000000000393
210
-0.0000000000000002
220
1.0
230
-0.0000000000000002
  0
LINE
  5
5AD0
  8
0
  6
VERDECKT
 62
     1
 10
0.0000000000000718
 20
-177.0000000000001137
 30
0.0000000000000393
 11
1.0000000000000719
 21
-177.0000000000001137
 31
0.0000000000000393
210
-0.0000000000000002
220
1.0
230
-0.0000000000000002
  0
LINE
  5
5AD1
  8
0
  6
VERDECKT
 62
     1
 10
0.0000000000000743
 20
-183.0
 30
0.0000000000000406
 11
1.0000000000000739
 21
-183.0
 31
0.0000000000000406
210
-0.0000000000000002
220
1.0
230
-0.0000000000000002
  0
LINE
  5
5AD2
  8
0
  6
VERDECKT
 62
     1
 10
96.5867734926430046
 20
51.798342425190512
 30
-0.0000000000000115
 11
96.5867734926430046
 21
-51.8016575748095534
 31
0.0000000000000115
210
-0.0000000000000002
220
1.0
230
-0.0000000000000002
  0
LINE
  5
5AD3
  8
0
  6
VERDECKT
 62
     1
 10
81.0560159748484068
 20
-47.501657574809542
 30
0.0000000000000105
 11
81.0560159748483784
 21
47.4983424251905006
 31
-0.0000000000000105
210
-0.0000000000000002
220
1.0
230
-0.0000000000000002
  0
LINE
  5
5AD4
  8
0
  6
VERDECKT
 62
     1
 10
83.5000000000002558
 20
56.599584923580629
 30
-0.0000000000000126
 11
83.5000000000002842
 21
-56.5995849235806503
 31
0.0000000000000126
210
-0.0000000000000002
220
1.0
230
-0.0000000000000002
  0
ARC
  5
5AD5
  8
0
  6
VERDECKT
 62
     1
 10
-105.0067734926430063
 20
55.6073888960757188
 30
0.0
 40
1.499999999999952
210
0.0
220
-0.0000000000000002
230
-1.0
 50
185.4470566892360921
 51
255.0000000000021885
  0
ARC
  5
5AD6
  8
0
  6
VERDECKT
 62
     1
 10
-105.0067734926431058
 20
-55.6107040456947672
 30
0.0
 40
1.4999999999999689
210
0.0
220
-0.0000000000000002
230
-1.0
 50
104.9999999999980957
 51
174.5529433107685122
  0
LINE
  5
5AD7
  8
0
  6
VERDECKT
 62
     1
 10
96.5867734926430046
 20
51.7983424251904978
 30
-0.0000000000000115
 11
105.3950020602968038
 21
54.1585001566421482
 31
-0.000000000000012
210
-0.0000000000000002
220
1.0
230
-0.0000000000000002
  0
LINE
  5
5AD8
  8
0
  6
VERDECKT
 62
     1
 10
96.5867734926430046
 20
-51.8016575748095391
 30
0.0000000000000115
 11
105.3950020602968038
 21
-54.1618153062611825
 31
0.000000000000012
210
-0.0000000000000002
220
1.0
230
-0.0000000000000002
  0
LINE
  5
5AD9
  8
0
  6
VERDECKT
 62
     1
 10
96.5867734926430046
 20
-51.8016575748095534
 30
0.0000000000000115
 11
86.0067734926430205
 21
-51.8016575748095534
 31
0.0000000000000115
210
-0.0000000000000002
220
1.0
230
-0.0000000000000002
  0
LINE
  5
5ADA
  8
0
  6
VERDECKT
 62
     1
 10
96.5867734926430046
 20
51.798342425190512
 30
-0.0000000000000115
 11
86.0067734926430063
 21
51.798342425190512
 31
-0.0000000000000115
210
-0.0000000000000002
220
1.0
230
-0.0000000000000002
  0
ARC
  5
5ADB
  8
0
  6
VERDECKT
 62
     1
 10
-86.0067734926430489
 20
46.7983424251904694
 30
0.0
 40
5.0000000000000497
210
0.0
220
-0.0000000000000002
230
-1.0
 50
8.0478462473117922
 51
89.9999999999993463
  0
ARC
  5
5ADC
  8
0
  6
VERDECKT
 62
     1
 10
-86.0067734926430632
 20
-46.8016575748095107
 30
0.0
 40
5.0000000000000426
210
0.0
220
-0.0000000000000002
230
-1.0
 50
270.0
 51
351.9521537526875932
  0
LINE
  5
5ADD
  8
0
  6
VERDECKT
 62
     1
 10
79.500000000000199
 20
47.4983424251904935
 30
-0.0000000000000105
 11
81.0560159748483784
 21
47.4983424251905006
 31
-0.0000000000000105
210
-0.0000000000000002
220
1.0
230
-0.0000000000000002
  0
LINE
  5
5ADE
  8
0
  6
VERDECKT
 62
     1
 10
79.5000000000002274
 20
-47.5016575748095491
 30
0.0000000000000105
 11
81.0560159748484068
 21
-47.501657574809542
 31
0.0000000000000105
210
-0.0000000000000002
220
1.0
230
-0.0000000000000002
  0
LINE
  5
5ADF
  8
0
  6
VERDECKT
 62
     1
 10
83.5000000000002842
 20
-56.5995849235806077
 30
0.0000000000000126
 11
81.5000000000002558
 21
-58.0
 31
0.0000000000000129
210
-0.0000000000000002
220
1.0
230
-0.0000000000000002
  0
LINE
  5
5AE0
  8
0
  6
VERDECKT
 62
     1
 10
83.5000000000002416
 20
56.5995849235806006
 30
-0.0000000000000126
 11
81.5000000000002132
 21
57.9999999999999929
 31
-0.0000000000000129
210
-0.0000000000000002
220
1.0
230
-0.0000000000000002
  0
ARC
  5
5AE1
  8
0
  6
VERDECKT
 62
     1
 10
-84.5000000000001563
 20
49.5000000000000995
 30
0.0
 40
4.9999999999999121
210
0.0
220
-0.0000000000000002
230
-1.0
 50
53.1301023541562287
 51
78.4630409671851226
  0
ARC
  5
5AE2
  8
0
  6
VERDECKT
 62
     1
 10
-84.5000000000001847
 20
-49.5000000000001208
 30
0.0
 40
4.9999999999999112
210
0.0
220
-0.0000000000000002
230
-1.0
 50
281.5369590328148774
 51
306.869897645843821
  0
ENDBLK
  5
5AE4
  8
0
  0
ENDSEC
  0
SECTION
  2
ENTITIES
  0
TEXT
  5
3D7
  8
VOLL
 10
78.076754716981128
 20
31.025947764705851
 30
0.0
 40
1.8
  1

  7
GREEKS
  0
INSERT
  5
AD0
  8
ADSK_ASSOC_ENTITY_BACKUPS
  2
*S0
 10
0.0
 20
0.0
 30
0.0
  0
INSERT
  5
5A0C
  8
STEMPEL
  2
A$C7291F3CB
 10
0.0
 20
0.0
 30
0.0
  0
INSERT
  5
5A97
  8
STEMPEL
  2
A$CF5CFD134
 10
0.0
 20
-250.0000000000001137
 30
0.0000000000000457
  0
INSERT
  5
5AE5
  8
STEMPEL
  2
A$CFDCFA535
 10
320.0
 20
0.0
 30
0.0
  0
VIEWPORT
  5
AAD
 67
     1
  8
0
 10
205.7231949494951095
 20
145.4876214195224975
 30
0.0
 40
558.8319832755776133
 41
298.5191815856778135
 68
     1
 69
     1
1001
ACAD
1000
MVIEW
1002
{
1070
    16
1010
0.0
1020
0.0
1030
0.0
1010
0.0
1020
0.0
1030
1.0
1040
0.0
1040
298.5191815856778135
1040
205.7231949494951095
1040
145.4876214195224975
1040
50.0
1040
0.0
1040
0.0
1070
     0
1070
  1500
1070
     1
1070
     1
1070
     0
1070
     0
1070
     0
1070
     0
1040
0.0
1040
0.0
1040
0.0
1040
10.0
1040
10.0
1040
10.0
1040
10.0
1070
     0
1002
{
1002
}
1002
}
  0
TEXT
  5
CB0
 67
     1
  8
VOLL
 10
625.5592565604117681
 20
227.4217200880700887
 30
0.0
 40
3.6000000000000001
  1

  7
GREEKS
  0
ENDSEC
  0
EOF
