  0
SECTION
  2
HEADER
  9
$ACADVER
  1
AC1009
  9
$INSBASE
 10
0.0
 20
0.0
 30
0.0
  9
$EXTMIN
 10
-270.0
 20
-355.0000000000001137
 30
-0.0000000000000568
  9
$EXTMAX
 10
425.0000000000001137
 20
200.0000000000003126
 30
0.0000000000000568
  9
$LIMMIN
 10
0.0
 20
0.0
  9
$LIMMAX
 10
419.9999999999998863
 20
594.0
  9
$ORTHOMODE
 70
     1
  9
$REGENMODE
 70
     1
  9
$FILLMODE
 70
     1
  9
$QTEXTMODE
 70
     0
  9
$MIRRTEXT
 70
     1
  9
$DRAGMODE
 70
     2
  9
$LTSCALE
 40
20.0
  9
$OSMODE
 70
   511
  9
$ATTMODE
 70
     1
  9
$TEXTSIZE
 40
3.5
  9
$TRACEWID
 40
1.0
  9
$TEXTSTYLE
  7
STANDARD
  9
$CLAYER
  8
STEMPEL
  9
$CELTYPE
  6
BYLAYER
  9
$CECOLOR
 62
   256
  9
$DIMSCALE
 40
1.0
  9
$DIMASZ
 40
3.5
  9
$DIMEXO
 40
1.0
  9
$DIMDLI
 40
0.38
  9
$DIMRND
 40
0.0
  9
$DIMDLE
 40
0.0
  9
$DIMEXE
 40
1.0
  9
$DIMTP
 40
0.0
  9
$DIMTM
 40
0.000000001
  9
$DIMTXT
 40
3.5
  9
$DIMCEN
 40
0.09
  9
$DIMTSZ
 40
0.0
  9
$DIMTOL
 70
     0
  9
$DIMLIM
 70
     0
  9
$DIMTIH
 70
     0
  9
$DIMTOH
 70
     0
  9
$DIMSE1
 70
     0
  9
$DIMSE2
 70
     0
  9
$DIMTAD
 70
     1
  9
$DIMZIN
 70
     8
  9
$DIMBLK
  1

  9
$DIMASO
 70
     1
  9
$DIMSHO
 70
     0
  9
$DIMPOST
  1

  9
$DIMAPOST
  1

  9
$DIMALT
 70
     0
  9
$DIMALTD
 70
     2
  9
$DIMALTF
 40
25.3999999999999986
  9
$DIMLFAC
 40
5.0
  9
$DIMTOFL
 70
     1
  9
$DIMTVP
 40
0.0
  9
$DIMTIX
 70
     0
  9
$DIMSOXD
 70
     0
  9
$DIMSAH
 70
     0
  9
$DIMBLK1
  1

  9
$DIMBLK2
  1

  9
$DIMSTYLE
  2
LORO
  9
$DIMCLRD
 70
     0
  9
$DIMCLRE
 70
     0
  9
$DIMCLRT
 70
     1
  9
$DIMTFAC
 40
0.5
  9
$DIMGAP
 40
1.5
  9
$LUNITS
 70
     2
  9
$LUPREC
 70
     2
  9
$SKETCHINC
 40
1.0
  9
$FILLETRAD
 40
0.5
  9
$AUNITS
 70
     0
  9
$AUPREC
 70
     0
  9
$MENU
  1
ACAD
  9
$ELEVATION
 40
0.0
  9
$PELEVATION
 40
0.0
  9
$THICKNESS
 40
0.0
  9
$LIMCHECK
 70
     0
  9
$BLIPMODE
 70
     0
  9
$CHAMFERA
 40
0.0
  9
$CHAMFERB
 40
0.0
  9
$SKPOLY
 70
     0
  9
$TDCREATE
 40
2455397.867048610933125
  9
$TDUPDATE
 40
2459627.2979282401502132
  9
$TDINDWG
 40
0.8700401968
  9
$TDUSRTIMER
 40
0.8700401968
  9
$USRTIMER
 70
     1
  9
$ANGBASE
 50
0.0
  9
$ANGDIR
 70
     0
  9
$PDMODE
 70
     0
  9
$PDSIZE
 40
0.0
  9
$PLINEWID
 40
0.0
  9
$COORDS
 70
     1
  9
$SPLFRAME
 70
     0
  9
$SPLINETYPE
 70
     6
  9
$SPLINESEGS
 70
     8
  9
$ATTDIA
 70
     1
  9
$ATTREQ
 70
     1
  9
$HANDLING
 70
     1
  9
$HANDSEED
  5
59E3
  9
$SURFTAB1
 70
     6
  9
$SURFTAB2
 70
     6
  9
$SURFTYPE
 70
     6
  9
$SURFU
 70
     6
  9
$SURFV
 70
     6
  9
$UCSNAME
  2

  9
$UCSORG
 10
0.0
 20
0.0
 30
0.0
  9
$UCSXDIR
 10
1.0
 20
0.0
 30
0.0
  9
$UCSYDIR
 10
0.0
 20
1.0
 30
0.0
  9
$PUCSNAME
  2

  9
$PUCSORG
 10
0.0
 20
0.0
 30
0.0
  9
$PUCSXDIR
 10
1.0
 20
0.0
 30
0.0
  9
$PUCSYDIR
 10
0.0
 20
1.0
 30
0.0
  9
$USERI1
 70
     0
  9
$USERI2
 70
     0
  9
$USERI3
 70
     0
  9
$USERI4
 70
     0
  9
$USERI5
 70
     0
  9
$USERR1
 40
0.0
  9
$USERR2
 40
0.0
  9
$USERR3
 40
0.0
  9
$USERR4
 40
0.0
  9
$USERR5
 40
0.0
  9
$WORLDVIEW
 70
     1
  9
$SHADEDGE
 70
     3
  9
$SHADEDIF
 70
    70
  9
$TILEMODE
 70
     1
  9
$MAXACTVP
 70
    16
  9
$PLIMCHECK
 70
     0
  9
$PEXTMIN
 10
1.0000000000000000E+20
 20
1.0000000000000000E+20
 30
1.0000000000000000E+20
  9
$PEXTMAX
 10
-1.0000000000000000E+20
 20
-1.0000000000000000E+20
 30
-1.0000000000000000E+20
  9
$PLIMMIN
 10
-4.2768050505048896
 20
-3.0123785804774448
  9
$PLIMMAX
 10
415.7231949494951095
 20
293.9876214195224975
  9
$UNITMODE
 70
     0
  9
$VISRETAIN
 70
     0
  9
$PLINEGEN
 70
     0
  9
$PSLTSCALE
 70
     0
  0
ENDSEC
  0
SECTION
  2
TABLES
  0
TABLE
  2
VPORT
 70
     1
  0
VPORT
  2
*ACTIVE
 70
     0
 10
0.0
 20
0.0
 11
1.0
 21
1.0
 12
-168.7597057365495061
 22
-51.3952217919700729
 13
0.0
 23
0.0
 14
1.0
 24
1.0
 15
10.0
 25
10.0
 16
0.0000000000000853
 26
0.0
 36
236.886252602629412
 17
246.2597057365497051
 27
-26.1047782080298809
 37
-0.0000000000000596
 40
557.8388746803072991
 41
1.8720136518771331
 42
50.0
 43
0.0
 44
0.0
 50
0.0
 51
0.0
 71
     0
 72
  1500
 73
     1
 74
     1
 75
     0
 76
     0
 77
     0
 78
     0
  0
ENDTAB
  0
TABLE
  2
LTYPE
 70
     5
  0
LTYPE
  2
CONTINUOUS
 70
     0
  3
Solid line
 72
    65
 73
     0
 40
0.0
  0
LTYPE
  2
STRICHPUNKT
 70
     0
  3
__ . __ . __ . __ . __ . __ . __ . __ . __ . __
 72
    65
 73
     4
 40
1.0
 49
0.5
 49
-0.25
 49
0.0
 49
-0.25
  0
LTYPE
  2
VERDECKT
 70
     0
  3
Verdeckt __ __ __ __ __ __ __ __ __ __ __ __ __
 72
    65
 73
     2
 40
0.375
 49
0.25
 49
-0.125
  0
ENDTAB
  0
TABLE
  2
LAYER
 70
    18
  0
LAYER
  2
0
 70
     0
 62
     7
  6
CONTINUOUS
  0
LAYER
  2
VOLL
 70
     0
 62
     1
  6
CONTINUOUS
  0
LAYER
  2
STEMPEL
 70
     0
 62
     3
  6
CONTINUOUS
  0
LAYER
  2
DEFPOINTS
 70
     0
 62
     7
  6
CONTINUOUS
  0
LAYER
  2
ADSK_ASSOC_ENTITY_BACKUPS
 70
     1
 62
    -7
  6
CONTINUOUS
  0
ENDTAB
  0
TABLE
  2
STYLE
 70
     5
  0
STYLE
  2
STANDARD
 70
     0
 40
0.0
 41
0.8
 50
0.0
 71
     0
 42
3.5
  3
simplex.shx
  4

  0
STYLE
  2
GREEKS
 70
     0
 40
0.0
 41
0.8
 50
0.0
 71
     0
 42
2.5
  3
SIMPLEX.shx
  4

  0
ENDTAB
  0
TABLE
  2
VIEW
 70
     1
  0
ENDTAB
  0
TABLE
  2
UCS
 70
     0
  0
ENDTAB
  0
TABLE
  2
APPID
 70
    27
  0
APPID
  2
ACAD
 70
     0
  0
APPID
  2
ACAECLAYERSTANDARD
 70
     0
  0
APPID
  2
ACCMTRANSPARENCY
 70
     0
  0
APPID
  2
ACAD_NAV_VCDISPLAY
 70
     0
  0
APPID
  2
ACAD_PSEXT
 70
     0
  0
APPID
  2
ACAD_EXEMPT_FROM_CAD_STANDARDS
 70
     0
  0
APPID
  2
ACSYNERGY
 70
     0
  0
APPID
  2
SYNERGY_BODY_TBR_ID
 70
     0
  0
APPID
  2
ACAD_VIEW_EDGE_ID
 70
     0
  0
APPID
  2
ACSYNERGYSKETCH
 70
     0
  0
APPID
  2
ACAD_MODELDOC_XFORM
 70
     0
  0
APPID
  2
ACAD_MLEADERVER
 70
     0
  0
APPID
  2
ACADANNOMONITORALERTICONDI
 70
     0
  0
APPID
  2
ACAD_DSTYLE_DIMJAG
 70
     0
  0
APPID
  2
ACAD_DSTYLE_DIMTALN
 70
     0
  0
APPID
  2
ACDBDYNAMICBLOCKGUID
 70
     0
  0
APPID
  2
ACAD_STEPID
 70
     0
  0
APPID
  2
PLOTTRANSPARENCY
 70
     0
  0
APPID
  2
ACADANNOPO
 70
     0
  0
APPID
  2
ACAD_DIMASSOC_CALC_DIMLFAC
 70
     0
  0
APPID
  2
ACAD_DIMASSOC_DIMLFAC
 70
     0
  0
APPID
  2
ACAD_DIMASSOC_OVERRIDDEN_D
 70
     0
  0
APPID
  2
ACAD_DSTYLE_DIMRADIAL_EXTENSION
 70
     0
  0
APPID
  2
ACAD_DSTYLE_DIMBREAK
 70
     0
  0
APPID
  2
ACAD_TC
 70
     0
  0
APPID
  2
ACAD_ASSOCPERSSUBENTMANAGER
 70
     0
  0
APPID
  2
AcDbAttr
 70
     0
  0
ENDTAB
  0
TABLE
  2
DIMSTYLE
 70
     3
  0
DIMSTYLE
  2
STANDARD
 70
     0
  3

  4

  5

  6

  7

 40
1.0
 41
0.18
 42
0.0625
 43
0.38
 44
0.18
 45
0.0
 46
0.0
 47
0.0
 48
0.0
140
0.18
141
0.09
142
0.0
143
25.3999999999999986
144
1.0
145
0.0
146
1.0
147
0.09
 71
     0
 72
     0
 73
     1
 74
     1
 75
     0
 76
     0
 77
     0
 78
     0
170
     0
171
     2
172
     0
173
     0
174
     0
175
     0
176
     0
177
     0
178
     0
  0
DIMSTYLE
  2
LORO
 70
     0
  3

  4

  5

  6

  7

 40
1.0
 41
3.5
 42
1.0
 43
0.38
 44
1.0
 45
0.0
 46
0.0
 47
0.0
 48
0.000000001
140
3.5
141
0.09
142
0.0
143
25.3999999999999986
144
5.0
145
0.0
146
0.5
147
1.5
 71
     0
 72
     0
 73
     0
 74
     0
 75
     0
 76
     0
 77
     1
 78
     8
170
     0
171
     2
172
     1
173
     0
174
     0
175
     0
176
     0
177
     0
178
     1
  0
ENDTAB
  0
ENDSEC
  0
SECTION
  2
BLOCKS
  0
BLOCK
  8
0
  2
$MODEL_SPACE
 70
     0
 10
0.0
 20
0.0
 30
0.0
  3
$MODEL_SPACE
  1

  0
ENDBLK
  5
38
  8
0
  0
BLOCK
 67
     1
  8
0
  2
$PAPER_SPACE
 70
     0
 10
0.0
 20
0.0
 30
0.0
  3
$PAPER_SPACE
  1

  0
ENDBLK
  5
36
 67
     1
  8
0
  0
BLOCK
  8
0
  2
*S0
 70
     1
 10
0.0
 20
0.0
 30
0.0
  3
*S0
  1

  0
ENDBLK
  5
ACE
  8
0
  0
BLOCK
  8
0
  2
A$C316A3D18
 70
     0
 10
0.0
 20
0.0
 30
0.0
  3
A$C316A3D18
  1

  0
CIRCLE
  5
5847
  8
0
  6
CONTINUOUS
 62
     3
 10
70.0000000000003411
 20
-0.0000000000000568
 30
0.0
 40
37.0
210
0.0
220
-0.0000000000000002
230
-1.0
  0
CIRCLE
  5
5848
  8
0
  6
CONTINUOUS
 62
     3
 10
70.0000000000003411
 20
-0.0000000000000568
 30
0.0
 40
42.3000000000000114
210
0.0
220
-0.0000000000000002
230
-1.0
  0
CIRCLE
  5
5849
  8
0
  6
CONTINUOUS
 62
     3
 10
70.0000000000003411
 20
-0.0000000000000568
 30
0.0
 40
42.8000000000000114
210
0.0
220
-0.0000000000000002
230
-1.0
  0
CIRCLE
  5
584A
  8
0
  6
CONTINUOUS
 62
     3
 10
70.0000000000003411
 20
-0.0000000000000568
 30
0.0
 40
32.0
210
0.0
220
-0.0000000000000002
230
-1.0
  0
CIRCLE
  5
584B
  8
0
  6
CONTINUOUS
 62
     3
 10
-69.9999999999996305
 20
-0.0000000000000568
 30
0.0
 40
37.0
210
0.0
220
-0.0000000000000002
230
-1.0
  0
CIRCLE
  5
584C
  8
0
  6
CONTINUOUS
 62
     3
 10
-69.9999999999996305
 20
-0.0000000000000568
 30
0.0
 40
42.3000000000000114
210
0.0
220
-0.0000000000000002
230
-1.0
  0
CIRCLE
  5
584D
  8
0
  6
CONTINUOUS
 62
     3
 10
-69.9999999999996305
 20
-0.0000000000000568
 30
0.0
 40
42.8000000000000114
210
0.0
220
-0.0000000000000002
230
-1.0
  0
CIRCLE
  5
584E
  8
0
  6
CONTINUOUS
 62
     3
 10
-69.9999999999996305
 20
-0.0000000000000568
 30
0.0
 40
32.0
210
0.0
220
-0.0000000000000002
230
-1.0
  0
CIRCLE
  5
584F
  8
0
  6
CONTINUOUS
 62
     3
 10
250.0
 20
180.0
 30
0.0
 40
2.9999999999999978
210
0.0
220
-0.0000000000000002
230
-1.0
  0
CIRCLE
  5
5850
  8
0
  6
CONTINUOUS
 62
     3
 10
-250.0
 20
180.0
 30
0.0
 40
3.0
210
0.0
220
-0.0000000000000002
230
-1.0
  0
CIRCLE
  5
5851
  8
0
  6
CONTINUOUS
 62
     3
 10
-250.0
 20
-180.0
 30
0.0
 40
2.9999999999999911
210
0.0
220
-0.0000000000000002
230
-1.0
  0
CIRCLE
  5
5852
  8
0
  6
CONTINUOUS
 62
     3
 10
250.0
 20
-180.0
 30
0.0
 40
2.9999999999999831
210
0.0
220
-0.0000000000000002
230
-1.0
  0
ARC
  5
5853
  8
0
  6
CONTINUOUS
 62
     3
 10
250.0
 20
180.0
 30
-0.00000000000004
 40
20.0
 50
0.0
 51
90.0
  0
LINE
  5
5854
  8
0
  6
CONTINUOUS
 62
     3
 10
270.0
 20
-180.0
 30
0.00000000000004
 11
270.0
 21
180.0
 31
-0.00000000000004
210
0.0
220
1.0
230
-0.0000000000000002
  0
ARC
  5
5855
  8
0
  6
CONTINUOUS
 62
     3
 10
250.0
 20
-180.0
 30
0.00000000000004
 40
20.0
 50
270.0
 51
0.0
  0
LINE
  5
5856
  8
0
  6
CONTINUOUS
 62
     3
 10
-250.0
 20
-200.0
 30
0.0000000000000444
 11
250.0
 21
-200.0
 31
0.0000000000000444
210
0.0
220
1.0
230
-0.0000000000000002
  0
ARC
  5
5857
  8
0
  6
CONTINUOUS
 62
     3
 10
-250.0
 20
-180.0
 30
0.00000000000004
 40
20.0
 50
180.0
 51
270.0
  0
LINE
  5
5858
  8
0
  6
CONTINUOUS
 62
     3
 10
-270.0
 20
180.0
 30
-0.00000000000004
 11
-270.0
 21
-180.0
 31
0.00000000000004
210
0.0
220
1.0
230
-0.0000000000000002
  0
ARC
  5
5859
  8
0
  6
CONTINUOUS
 62
     3
 10
-250.0
 20
180.0
 30
-0.00000000000004
 40
20.0
 50
90.0
 51
180.0
  0
LINE
  5
585A
  8
0
  6
CONTINUOUS
 62
     3
 10
250.0
 20
200.0000000000001137
 30
-0.0000000000000444
 11
-250.0
 21
200.000000000000199
 31
-0.0000000000000444
210
0.0
220
1.0
230
-0.0000000000000002
  0
CIRCLE
  5
585B
  8
0
  6
VERDECKT
 62
     1
 10
70.0000000000003411
 20
-0.0000000000000568
 30
0.0
 40
40.4999999999999929
210
0.0
220
-0.0000000000000002
230
-1.0
  0
CIRCLE
  5
585C
  8
0
  6
VERDECKT
 62
     1
 10
70.0000000000003411
 20
-0.0000000000000568
 30
0.0
 40
41.900000000000027
210
0.0
220
-0.0000000000000002
230
-1.0
  0
CIRCLE
  5
585D
  8
0
  6
VERDECKT
 62
     1
 10
70.0000000000003411
 20
-0.0000000000000568
 30
0.0
 40
41.0
210
0.0
220
-0.0000000000000002
230
-1.0
  0
CIRCLE
  5
585E
  8
0
  6
VERDECKT
 62
     1
 10
-70.0000000000003411
 20
-0.0000000000000568
 30
0.0
 40
38.7140740033711026
  0
CIRCLE
  5
585F
  8
0
  6
VERDECKT
 62
     1
 10
-69.9999999999996305
 20
-0.0000000000000568
 30
0.0
 40
40.4999999999999929
210
0.0
220
-0.0000000000000002
230
-1.0
  0
CIRCLE
  5
5860
  8
0
  6
VERDECKT
 62
     1
 10
-69.9999999999996305
 20
-0.0000000000000568
 30
0.0
 40
41.900000000000027
210
0.0
220
-0.0000000000000002
230
-1.0
  0
CIRCLE
  5
5861
  8
0
  6
VERDECKT
 62
     1
 10
-69.9999999999996305
 20
-0.0000000000000568
 30
0.0
 40
41.0
210
0.0
220
-0.0000000000000002
230
-1.0
  0
CIRCLE
  5
5862
  8
0
  6
VERDECKT
 62
     1
 10
69.9999999999996305
 20
-0.0000000000000568
 30
0.0
 40
38.7140740033711026
  0
CIRCLE
  5
5863
  8
0
  6
VERDECKT
 62
     1
 10
70.0000000000000284
 20
0.0000000000000303
 30
0.0
 40
39.2347321351080822
210
0.0
220
-0.0000000000000002
230
-1.0
  0
CIRCLE
  5
5864
  8
0
  6
VERDECKT
 62
     1
 10
70.0000000000000284
 20
0.0000000000000301
 30
0.0
 40
38.5
210
0.0
220
-0.0000000000000002
230
-1.0
  0
CIRCLE
  5
5865
  8
0
  6
VERDECKT
 62
     1
 10
69.9999999999999716
 20
0.0000000000000303
 30
0.0
 40
39.2347321351080822
  0
CIRCLE
  5
5866
  8
0
  6
VERDECKT
 62
     1
 10
69.9999999999999716
 20
0.0000000000000301
 30
0.0
 40
38.5
  0
ENDBLK
  5
5868
  8
0
  0
BLOCK
  8
0
  2
A$C8D862251
 70
     0
 10
0.0
 20
0.0
 30
0.0
  3
A$C8D862251
  1

  0
LINE
  5
586C
  8
0
  6
CONTINUOUS
 62
     3
 10
-27.7000000000003297
 20
-99.5000000000001137
 30
-0.0000000000000062
 11
-112.3000000000002956
 21
-99.5000000000001137
 31
-0.0000000000000249
  0
LINE
  5
586D
  8
0
  6
CONTINUOUS
 62
     3
 10
-29.5000000000003411
 20
-94.0050451610909334
 30
-0.0000000000000066
 11
-110.5000000000002984
 21
-94.0050451610909334
 31
-0.0000000000000245
  0
LINE
  5
586E
  8
0
  6
CONTINUOUS
 62
     3
 10
-29.5000000000003411
 20
-92.9000000000001478
 30
-0.0000000000000066
 11
-110.5000000000002984
 21
-92.9000000000001478
 31
-0.0000000000000245
  0
LINE
  5
586F
  8
0
  6
CONTINUOUS
 62
     3
 10
-28.1000000000003105
 20
-91.5000000000001137
 30
-0.0000000000000062
 11
-111.9000000000003041
 21
-91.5000000000001137
 31
-0.0000000000000248
  0
LINE
  5
5870
  8
0
  6
CONTINUOUS
 62
     3
 10
-28.1000000000003105
 20
-90.5000000000001137
 30
-0.0000000000000062
 11
-111.9000000000003041
 21
-90.5000000000001137
 31
-0.0000000000000248
  0
LINE
  5
5871
  8
0
  6
CONTINUOUS
 62
     3
 10
-29.5000000000002913
 20
-89.1000000000001364
 30
-0.0000000000000066
 11
-110.5000000000003979
 21
-89.1000000000001364
 31
-0.0000000000000245
  0
LINE
  5
5872
  8
0
  6
CONTINUOUS
 62
     3
 10
-29.5000000000002913
 20
-88.5000000000001137
 30
-0.0000000000000066
 11
-110.5000000000003979
 21
-88.5000000000001137
 31
-0.0000000000000245
  0
LINE
  5
5873
  8
0
  6
CONTINUOUS
 62
     3
 10
-27.2000000000003403
 20
-84.5000000000001137
 30
-0.000000000000006
 11
-112.8000000000002956
 21
-84.5000000000001137
 31
-0.000000000000025
  0
LINE
  5
5874
  8
0
  6
CONTINUOUS
 62
     3
 10
-35.5000000000003411
 20
-82.0000000000001137
 30
-0.0000000000000079
 11
-104.5000000000002984
 21
-82.0000000000001137
 31
-0.0000000000000232
  0
ARC
  5
5875
  8
0
  6
CONTINUOUS
 62
     3
 10
-31.1029384845722809
 20
-103.5000000000000995
 30
-0.0000000000000069
 40
0.9999999999999724
 50
269.9999999999992042
 51
330.588086334471086
  0
ARC
  5
5876
  8
0
  6
CONTINUOUS
 62
     3
 10
-108.8970615154284047
 20
-103.5000000000000995
 30
-0.0000000000000242
 40
1.000000000000014
 50
209.4119136655303919
 51
270.0
  0
LINE
  5
5877
  8
0
  6
CONTINUOUS
 62
     3
 10
-108.8970615154284047
 20
-104.5000000000000995
 30
-0.0000000000000242
 11
-31.1029384845722916
 21
-104.5000000000000995
 31
-0.0000000000000069
  0
LINE
  5
5878
  8
0
  6
CONTINUOUS
 62
     3
 10
-109.768173232777599
 20
-103.9910848968324046
 30
-0.0000000000000244
 11
-112.3000000000002956
 21
-99.5000000000001137
 31
-0.0000000000000249
  0
LINE
  5
5879
  8
0
  6
CONTINUOUS
 62
     3
 10
-30.2318267672230405
 20
-103.9910848968324046
 30
-0.0000000000000067
 11
-27.7000000000003297
 21
-99.5000000000001137
 31
-0.0000000000000062
  0
ARC
  5
587A
  8
0
  6
CONTINUOUS
 62
     3
 10
-30.7859259966292598
 20
-99.0000000000001847
 30
-0.0000000000000068
 40
0.4999999999999858
 50
159.9999999999980105
 51
269.9999999999988063
  0
ARC
  5
587B
  8
0
  6
CONTINUOUS
 62
     3
 10
-109.2140740033713939
 20
-99.0000000000001847
 30
-0.0000000000000243
 40
0.4999999999999769
 50
269.9999999999984084
 51
20.0000000000027285
  0
LINE
  5
587C
  8
0
  6
CONTINUOUS
 62
     3
 10
-108.7442276929783986
 20
-98.8289899283373359
 30
-0.0000000000000241
 11
-110.5000000000002984
 21
-94.0050451610909334
 31
-0.0000000000000245
  0
LINE
  5
587D
  8
0
  6
CONTINUOUS
 62
     3
 10
-31.2557723070222195
 20
-98.8289899283373359
 30
-0.0000000000000069
 11
-29.5000000000003411
 21
-94.0050451610909334
 31
-0.0000000000000066
  0
LINE
  5
587E
  8
0
  6
CONTINUOUS
 62
     3
 10
-110.5000000000002984
 20
-94.0050451610909334
 30
-0.0000000000000245
 11
-110.5000000000002984
 21
-92.9000000000001478
 31
-0.0000000000000245
  0
LINE
  5
587F
  8
0
  6
CONTINUOUS
 62
     3
 10
-29.5000000000003411
 20
-94.0050451610909334
 30
-0.0000000000000066
 11
-29.5000000000003411
 21
-92.9000000000001478
 31
-0.0000000000000066
  0
LINE
  5
5880
  8
0
  6
CONTINUOUS
 62
     3
 10
-110.5000000000002984
 20
-92.9000000000001478
 30
-0.0000000000000245
 11
-111.9000000000003041
 21
-91.5000000000001137
 31
-0.0000000000000248
  0
LINE
  5
5881
  8
0
  6
CONTINUOUS
 62
     3
 10
-29.5000000000003517
 20
-92.9000000000001478
 30
-0.0000000000000066
 11
-28.1000000000003105
 21
-91.5000000000001137
 31
-0.0000000000000062
  0
LINE
  5
5882
  8
0
  6
CONTINUOUS
 62
     3
 10
-111.9000000000003041
 20
-91.5000000000001137
 30
-0.0000000000000248
 11
-111.9000000000003041
 21
-90.5000000000001137
 31
-0.0000000000000248
  0
LINE
  5
5883
  8
0
  6
CONTINUOUS
 62
     3
 10
-28.1000000000003105
 20
-91.5000000000001137
 30
-0.0000000000000062
 11
-28.1000000000003105
 21
-90.5000000000001137
 31
-0.0000000000000062
  0
LINE
  5
5884
  8
0
  6
CONTINUOUS
 62
     3
 10
-29.5000000000002913
 20
-89.1000000000001364
 30
-0.0000000000000066
 11
-28.1000000000003105
 21
-90.5000000000001137
 31
-0.0000000000000062
  0
LINE
  5
5885
  8
0
  6
CONTINUOUS
 62
     3
 10
-110.5000000000003979
 20
-89.1000000000001364
 30
-0.0000000000000245
 11
-111.9000000000003041
 21
-90.5000000000001137
 31
-0.0000000000000248
  0
LINE
  5
5886
  8
0
  6
CONTINUOUS
 62
     3
 10
-110.5000000000003979
 20
-89.1000000000001364
 30
-0.0000000000000245
 11
-110.5000000000003979
 21
-88.5000000000001137
 31
-0.0000000000000245
  0
LINE
  5
5887
  8
0
  6
CONTINUOUS
 62
     3
 10
-29.5000000000002913
 20
-89.1000000000001364
 30
-0.0000000000000066
 11
-29.5000000000002913
 21
-88.5000000000001137
 31
-0.0000000000000066
  0
LINE
  5
5888
  8
0
  6
CONTINUOUS
 62
     3
 10
-110.5000000000003979
 20
-88.5000000000001137
 30
-0.0000000000000245
 11
-112.8000000000002956
 21
-84.5000000000001137
 31
-0.000000000000025
  0
LINE
  5
5889
  8
0
  6
CONTINUOUS
 62
     3
 10
-29.5000000000002913
 20
-88.5000000000001137
 30
-0.0000000000000066
 11
-27.2000000000003297
 21
-84.5000000000001137
 31
-0.000000000000006
  0
ARC
  5
588A
  8
0
  6
CONTINUOUS
 62
     3
 10
-35.5000000000003411
 20
-86.0000000000000995
 30
-0.0000000000000079
 40
3.9999999999999849
 50
22.0243128370420287
 51
90.0000000000001847
  0
ARC
  5
588B
  8
0
  6
CONTINUOUS
 62
     3
 10
-104.5000000000002984
 20
-86.0000000000001137
 30
-0.0000000000000232
 40
4.0000000000000027
 50
90.0
 51
157.9756871629577972
  0
LINE
  5
588C
  8
0
  6
CONTINUOUS
 62
     3
 10
112.2999999999995993
 20
-99.5000000000001137
 30
0.0000000000000249
 11
27.6999999999996191
 21
-99.5000000000001137
 31
0.0000000000000062
  0
LINE
  5
588D
  8
0
  6
CONTINUOUS
 62
     3
 10
110.4999999999996021
 20
-94.0050451610909334
 30
0.0000000000000245
 11
29.4999999999996305
 21
-94.0050451610909334
 31
0.0000000000000066
  0
LINE
  5
588E
  8
0
  6
CONTINUOUS
 62
     3
 10
110.4999999999996021
 20
-92.9000000000001478
 30
0.0000000000000245
 11
29.4999999999996305
 21
-92.9000000000001478
 31
0.0000000000000066
  0
LINE
  5
588F
  8
0
  6
CONTINUOUS
 62
     3
 10
111.8999999999995936
 20
-91.5000000000001137
 30
0.0000000000000248
 11
28.0999999999995893
 21
-91.5000000000001137
 31
0.0000000000000062
  0
LINE
  5
5890
  8
0
  6
CONTINUOUS
 62
     3
 10
111.8999999999995936
 20
-90.5000000000001137
 30
0.0000000000000248
 11
28.0999999999995893
 21
-90.5000000000001137
 31
0.0000000000000062
  0
LINE
  5
5891
  8
0
  6
CONTINUOUS
 62
     3
 10
110.4999999999997016
 20
-89.1000000000001364
 30
0.0000000000000245
 11
29.4999999999995808
 21
-89.1000000000001364
 31
0.0000000000000066
  0
LINE
  5
5892
  8
0
  6
CONTINUOUS
 62
     3
 10
110.4999999999997016
 20
-88.5000000000001137
 30
0.0000000000000245
 11
29.4999999999995808
 21
-88.5000000000001137
 31
0.0000000000000066
  0
LINE
  5
5893
  8
0
  6
CONTINUOUS
 62
     3
 10
112.7999999999995993
 20
-84.5000000000001137
 30
0.000000000000025
 11
27.1999999999996191
 21
-84.5000000000001137
 31
0.000000000000006
  0
LINE
  5
5894
  8
0
  6
CONTINUOUS
 62
     3
 10
104.4999999999996021
 20
-82.0000000000001279
 30
0.0000000000000232
 11
35.4999999999996305
 21
-82.0000000000001279
 31
0.0000000000000079
  0
ARC
  5
5895
  8
0
  6
CONTINUOUS
 62
     3
 10
108.8970615154276942
 20
-103.5000000000000995
 30
0.0000000000000242
 40
1.000000000000018
 50
270.0
 51
330.588086334468926
  0
ARC
  5
5896
  8
0
  6
CONTINUOUS
 62
     3
 10
31.1029384845716095
 20
-103.5000000000000995
 30
0.0000000000000069
 40
1.000000000000042
 50
209.411913665531813
 51
270.0
  0
LINE
  5
5897
  8
0
  6
CONTINUOUS
 62
     3
 10
31.1029384845715811
 20
-104.5000000000000995
 30
0.0000000000000069
 11
108.8970615154276942
 21
-104.5000000000000995
 31
0.0000000000000242
  0
LINE
  5
5898
  8
0
  6
CONTINUOUS
 62
     3
 10
30.2318267672223193
 20
-103.9910848968324046
 30
0.0000000000000067
 11
27.6999999999996014
 21
-99.5000000000001137
 31
0.0000000000000062
  0
LINE
  5
5899
  8
0
  6
CONTINUOUS
 62
     3
 10
109.7681732327769026
 20
-103.9910848968325041
 30
0.0000000000000244
 11
112.2999999999995993
 21
-99.5000000000001279
 31
0.0000000000000249
  0
ARC
  5
589A
  8
0
  6
CONTINUOUS
 62
     3
 10
109.2140740033706976
 20
-99.0000000000001563
 30
0.0000000000000243
 40
0.5000000000000142
 50
160.0000000000052012
 51
270.0
  0
ARC
  5
589B
  8
0
  6
CONTINUOUS
 62
     3
 10
30.7859259966285386
 20
-99.0000000000001847
 30
0.0000000000000068
 40
0.4999999999999957
 50
270.0000000000011937
 51
19.9999999999967706
  0
LINE
  5
589C
  8
0
  6
CONTINUOUS
 62
     3
 10
31.2557723070214983
 20
-98.8289899283373643
 30
0.0000000000000069
 11
29.4999999999996199
 21
-94.0050451610909334
 31
0.0000000000000066
  0
LINE
  5
589D
  8
0
  6
CONTINUOUS
 62
     3
 10
108.7442276929777023
 20
-98.8289899283373643
 30
0.0000000000000241
 11
110.4999999999996021
 21
-94.0050451610909619
 31
0.0000000000000245
  0
LINE
  5
589E
  8
0
  6
CONTINUOUS
 62
     3
 10
29.4999999999996305
 20
-94.0050451610909334
 30
0.0000000000000066
 11
29.4999999999996305
 21
-92.9000000000001478
 31
0.0000000000000066
  0
LINE
  5
589F
  8
0
  6
CONTINUOUS
 62
     3
 10
110.4999999999996021
 20
-94.0050451610909619
 30
0.0000000000000245
 11
110.4999999999996021
 21
-92.900000000000162
 31
0.0000000000000245
  0
LINE
  5
58A0
  8
0
  6
CONTINUOUS
 62
     3
 10
29.4999999999996305
 20
-92.9000000000001478
 30
0.0000000000000066
 11
28.0999999999995893
 21
-91.5000000000001137
 31
0.0000000000000062
  0
LINE
  5
58A1
  8
0
  6
CONTINUOUS
 62
     3
 10
110.4999999999996021
 20
-92.9000000000001478
 30
0.0000000000000245
 11
111.8999999999995936
 21
-91.5000000000001137
 31
0.0000000000000248
  0
LINE
  5
58A2
  8
0
  6
CONTINUOUS
 62
     3
 10
28.0999999999995893
 20
-91.5000000000001137
 30
0.0000000000000062
 11
28.0999999999995893
 21
-90.5000000000001137
 31
0.0000000000000062
  0
LINE
  5
58A3
  8
0
  6
CONTINUOUS
 62
     3
 10
111.8999999999995936
 20
-91.5000000000001137
 30
0.0000000000000248
 11
111.8999999999995936
 21
-90.5000000000001279
 31
0.0000000000000248
  0
LINE
  5
58A4
  8
0
  6
CONTINUOUS
 62
     3
 10
110.4999999999997016
 20
-89.1000000000001364
 30
0.0000000000000245
 11
111.8999999999995936
 21
-90.5000000000001137
 31
0.0000000000000248
  0
LINE
  5
58A5
  8
0
  6
CONTINUOUS
 62
     3
 10
29.4999999999995808
 20
-89.1000000000001364
 30
0.0000000000000066
 11
28.0999999999995893
 21
-90.5000000000001137
 31
0.0000000000000062
  0
LINE
  5
58A6
  8
0
  6
CONTINUOUS
 62
     3
 10
29.4999999999995808
 20
-89.1000000000001364
 30
0.0000000000000066
 11
29.4999999999995808
 21
-88.5000000000001137
 31
0.0000000000000066
  0
LINE
  5
58A7
  8
0
  6
CONTINUOUS
 62
     3
 10
110.4999999999997016
 20
-89.1000000000001648
 30
0.0000000000000245
 11
110.4999999999997016
 21
-88.5000000000001279
 31
0.0000000000000245
  0
LINE
  5
58A8
  8
0
  6
CONTINUOUS
 62
     3
 10
29.4999999999995808
 20
-88.5000000000001137
 30
0.0000000000000066
 11
27.1999999999996191
 21
-84.5000000000001137
 31
0.000000000000006
  0
LINE
  5
58A9
  8
0
  6
CONTINUOUS
 62
     3
 10
110.4999999999997016
 20
-88.5000000000001279
 30
0.0000000000000245
 11
112.7999999999995993
 21
-84.5000000000001279
 31
0.000000000000025
  0
ARC
  5
58AA
  8
0
  6
CONTINUOUS
 62
     3
 10
104.4999999999996021
 20
-86.0000000000001279
 30
0.0000000000000232
 40
4.0
 50
22.0243128370421495
 51
90.0
  0
ARC
  5
58AB
  8
0
  6
CONTINUOUS
 62
     3
 10
35.4999999999996234
 20
-86.0000000000001137
 30
0.0000000000000079
 40
3.9999999999999858
 50
89.9999999999998863
 51
157.975687162957712
  0
LINE
  5
58AC
  8
0
  6
CONTINUOUS
 62
     3
 10
-30.7652678648919498
 20
-9.5000000000000568
 30
-0.0000000000000068
 11
-109.2347321351081035
 21
-9.5000000000000568
 31
-0.0000000000000243
  0
LINE
  5
58AD
  8
0
  6
CONTINUOUS
 62
     3
 10
30.7652678648918894
 20
-9.5000000000000568
 30
0.0000000000000068
 11
109.2347321351080041
 21
-9.5000000000000568
 31
0.0000000000000243
  0
LINE
  5
58AE
  8
0
  6
CONTINUOUS
 62
     3
 10
270.0000000000001137
 20
0.4999999999999762
 30
0.0000000000000568
 11
250.0
 21
0.49999999999998
 31
0.0000000000000568
  0
LINE
  5
58AF
  8
0
  6
CONTINUOUS
 62
     3
 10
250.0
 20
-0.5000000000000201
 30
0.0000000000000568
 11
270.0000000000001137
 21
-0.5000000000000238
 31
0.0000000000000568
  0
LINE
  5
58B0
  8
0
  6
CONTINUOUS
 62
     3
 10
270.0000000000001137
 20
0.4999999999999762
 30
0.0000000000000568
 11
270.0000000000001137
 21
-0.5000000000000238
 31
0.0000000000000568
  0
LINE
  5
58B1
  8
0
  6
CONTINUOUS
 62
     3
 10
-269.9999999999998863
 20
0.4999999999999762
 30
-0.0000000000000568
 11
-269.9999999999998863
 21
-0.5000000000000238
 31
-0.0000000000000568
  0
LINE
  5
58B2
  8
0
  6
CONTINUOUS
 62
     3
 10
-250.0
 20
0.49999999999998
 30
-0.0000000000000568
 11
-269.9999999999998863
 21
0.4999999999999762
 31
-0.0000000000000568
  0
LINE
  5
58B3
  8
0
  6
CONTINUOUS
 62
     3
 10
-269.9999999999998863
 20
-0.5000000000000238
 30
-0.0000000000000568
 11
-250.0
 21
-0.5000000000000201
 31
-0.0000000000000568
  0
LINE
  5
58B4
  8
0
  6
CONTINUOUS
 62
     3
 10
-250.0
 20
0.49999999999998
 30
-0.0000000000000568
 11
250.0
 21
0.49999999999998
 31
0.0000000000000542
  0
LINE
  5
58B5
  8
0
  6
CONTINUOUS
 62
     3
 10
250.0
 20
-0.5000000000000201
 30
0.0000000000000568
 11
-250.0
 21
-0.5000000000000201
 31
-0.0000000000000542
  0
ARC
  5
58B6
  8
0
  6
CONTINUOUS
 62
     3
 10
-115.0
 20
-3.500000000000048
 30
-0.0000000000000255
 40
2.999999999999992
 50
12.0000000000009308
 51
90.0000000000010374
  0
ARC
  5
58B7
  8
0
  6
CONTINUOUS
 62
     3
 10
-25.0000000000000107
 20
-3.50000000000006
 30
-0.0000000000000056
 40
3.0000000000000049
 50
90.0000000000017053
 51
167.9999999999988063
  0
LINE
  5
58B8
  8
0
  6
CONTINUOUS
 62
     3
 10
-111.6497338161630068
 20
-4.8325601290143263
 30
-0.0000000000000248
 11
-112.0655571977985971
 21
-2.8762649275467238
 31
-0.0000000000000249
  0
LINE
  5
58B9
  8
0
  6
CONTINUOUS
 62
     3
 10
-28.3502661838369789
 20
-4.8325601290143281
 30
-0.0000000000000063
 11
-27.9344428022014206
 21
-2.8762649275467238
 31
-0.0000000000000062
  0
ARC
  5
58BA
  8
0
  6
CONTINUOUS
 62
     3
 10
-101.9452226668009018
 20
-2.769802606417572
 30
-0.0000000000000226
 40
9.9213157013132385
 50
191.9999999999996021
 51
222.7154132828999877
  0
ARC
  5
58BB
  8
0
  6
CONTINUOUS
 62
     3
 10
-38.0547773331991408
 20
-2.769802606417556
 30
-0.0000000000000084
 40
9.921315701313258
 50
317.2845867171000123
 51
348.0000000000002274
  0
ARC
  5
58BC
  8
0
  6
CONTINUOUS
 62
     3
 10
24.9999999999999609
 20
-3.5000000000000622
 30
0.0000000000000056
 40
3.0000000000000062
 50
12.0000000000011795
 51
90.0000000000010232
  0
ARC
  5
58BD
  8
0
  6
CONTINUOUS
 62
     3
 10
115.0
 20
-3.5000000000000582
 30
0.0000000000000255
 40
3.0000000000000111
 50
90.0000000000019043
 51
167.9999999999988916
  0
LINE
  5
58BE
  8
0
  6
CONTINUOUS
 62
     3
 10
28.3502661838369185
 20
-4.8325601290143281
 30
0.0000000000000063
 11
27.9344428022013602
 21
-2.8762649275467238
 31
0.0000000000000062
  0
LINE
  5
58BF
  8
0
  6
CONTINUOUS
 62
     3
 10
111.6497338161630068
 20
-4.8325601290143263
 30
0.0000000000000248
 11
112.0655571977985971
 21
-2.8762649275467238
 31
0.0000000000000249
  0
ARC
  5
58C0
  8
0
  6
CONTINUOUS
 62
     3
 10
38.0547773331990911
 20
-2.7698026064175538
 30
0.0000000000000084
 40
9.9213157013132598
 50
191.9999999999996874
 51
222.7154132829001014
  0
ARC
  5
58C1
  8
0
  6
CONTINUOUS
 62
     3
 10
101.9452226668009018
 20
-2.7698026064175689
 30
0.0000000000000226
 40
9.9213157013132403
 50
317.2845867171000123
 51
348.0000000000002842
  0
LINE
  5
58C2
  8
0
  6
VERDECKT
 62
     1
 10
-33.0000000000003411
 20
-98.5000000000001137
 30
-0.0000000000000073
 11
-107.0000000000002984
 21
-98.5000000000001137
 31
-0.0000000000000238
  0
LINE
  5
58C3
  8
0
  6
VERDECKT
 62
     1
 10
-38.0000000000003411
 20
-83.5000000000001137
 30
-0.0000000000000084
 11
-102.0000000000002984
 21
-83.5000000000001137
 31
-0.0000000000000226
  0
LINE
  5
58C4
  8
0
  6
VERDECKT
 62
     1
 10
-107.0000000000002984
 20
-98.5000000000001137
 30
-0.0000000000000238
 11
-107.0000000000002984
 21
-88.5000000000001137
 31
-0.0000000000000238
  0
LINE
  5
58C5
  8
0
  6
VERDECKT
 62
     1
 10
-33.0000000000003411
 20
-98.5000000000001137
 30
-0.0000000000000073
 11
-33.0000000000003411
 21
-88.5000000000001137
 31
-0.0000000000000073
  0
LINE
  5
58C6
  8
0
  6
VERDECKT
 62
     1
 10
-33.0000000000003411
 20
-98.5000000000001137
 30
-0.0000000000000073
 11
-32.0877462375844971
 21
-103.6736481776671042
 31
-0.0000000000000071
  0
LINE
  5
58C7
  8
0
  6
VERDECKT
 62
     1
 10
-107.0000000000002984
 20
-98.5000000000001137
 30
-0.0000000000000238
 11
-107.9122537624160998
 21
-103.6736481776671042
 31
-0.000000000000024
  0
ARC
  5
58C8
  8
0
  6
VERDECKT
 62
     1
 10
-31.1029384845722987
 20
-103.5000000000000995
 30
-0.0000000000000069
 40
1.0
 50
190.0000000000007958
 51
270.0
  0
ARC
  5
58C9
  8
0
  6
VERDECKT
 62
     1
 10
-108.8970615154283053
 20
-103.5000000000000995
 30
-0.0000000000000242
 40
0.999999999999984
 50
269.9999999999992042
 51
349.9999999999996021
  0
LINE
  5
58CA
  8
0
  6
VERDECKT
 62
     1
 10
-110.1756658041693981
 20
-86.0274399525988969
 30
-0.0000000000000245
 11
-111.0000000000002984
 21
-84.5000000000001137
 31
-0.0000000000000246
  0
LINE
  5
58CB
  8
0
  6
VERDECKT
 62
     1
 10
-29.8243341958312911
 20
-86.0274399525988969
 30
-0.0000000000000066
 11
-29.0000000000003411
 21
-84.5000000000001137
 31
-0.0000000000000064
  0
ARC
  5
58CC
  8
0
  6
VERDECKT
 62
     1
 10
-30.6163538211704207
 20
-85.6000000000001222
 30
-0.0000000000000068
 40
0.8999999999999913
 50
269.9999999999997726
 51
331.6449939715890878
  0
ARC
  5
58CD
  8
0
  6
VERDECKT
 62
     1
 10
-30.6163538211703994
 20
-85.6000000000000938
 30
-0.0000000000000068
 40
0.9000000000000198
 50
184.682416862270486
 51
270.0
  0
ARC
  5
58CE
  8
0
  6
VERDECKT
 62
     1
 10
-109.3836461788303041
 20
-85.6000000000000938
 30
-0.0000000000000243
 40
0.9000000000000333
 50
270.0000000000017053
 51
355.3175831377300256
  0
ARC
  5
58CF
  8
0
  6
VERDECKT
 62
     1
 10
-109.3836461788302046
 20
-85.6000000000000654
 30
-0.0000000000000243
 40
0.9000000000000341
 50
208.3550060284134986
 51
270.0
  0
LINE
  5
58D0
  8
0
  6
VERDECKT
 62
     1
 10
-109.3836461788302046
 20
-86.5000000000001137
 30
-0.0000000000000243
 11
-30.6163538211704207
 21
-86.5000000000001137
 31
-0.0000000000000068
  0
ARC
  5
58D1
  8
0
  6
VERDECKT
 62
     1
 10
-35.5000000000003126
 20
-86.0000000000000853
 30
-0.0000000000000079
 40
3.99999999999996
 50
4.6824168622696458
 51
22.0243128370419505
  0
ARC
  5
58D2
  8
0
  6
VERDECKT
 62
     1
 10
-104.500000000000199
 20
-86.0000000000001137
 30
-0.0000000000000232
 40
4.0000000000001323
 50
157.975687162958593
 51
175.3175831377303098
  0
LINE
  5
58D3
  8
0
  6
VERDECKT
 62
     1
 10
-102.0000000000002984
 20
-83.5000000000001137
 30
-0.0000000000000226
 11
-102.0000000000002984
 21
-82.0000000000001137
 31
-0.0000000000000226
  0
LINE
  5
58D4
  8
0
  6
VERDECKT
 62
     1
 10
-38.0000000000003411
 20
-83.5000000000001137
 30
-0.0000000000000084
 11
-38.0000000000003411
 21
-82.0000000000001137
 31
-0.0000000000000084
  0
ARC
  5
58D5
  8
0
  6
VERDECKT
 62
     1
 10
-38.0000000000003411
 20
-88.5000000000001137
 30
-0.0000000000000084
 40
5.0
 50
0.0
 51
90.0000000000001705
  0
ARC
  5
58D6
  8
0
  6
VERDECKT
 62
     1
 10
-102.0000000000002984
 20
-88.5000000000001137
 30
-0.0000000000000226
 40
5.0
 50
90.0
 51
180.0
  0
LINE
  5
58D7
  8
0
  6
VERDECKT
 62
     1
 10
106.9999999999996021
 20
-98.5000000000001137
 30
0.0000000000000238
 11
32.9999999999996305
 21
-98.5000000000001137
 31
0.0000000000000073
  0
LINE
  5
58D8
  8
0
  6
VERDECKT
 62
     1
 10
101.9999999999996021
 20
-83.5000000000001137
 30
0.0000000000000226
 11
37.9999999999996305
 21
-83.5000000000001137
 31
0.0000000000000084
  0
LINE
  5
58D9
  8
0
  6
VERDECKT
 62
     1
 10
32.9999999999996305
 20
-98.5000000000001137
 30
0.0000000000000073
 11
32.9999999999996305
 21
-88.5000000000001137
 31
0.0000000000000073
  0
LINE
  5
58DA
  8
0
  6
VERDECKT
 62
     1
 10
106.9999999999996021
 20
-98.5000000000001137
 30
0.0000000000000238
 11
106.9999999999996021
 21
-88.5000000000001137
 31
0.0000000000000238
  0
LINE
  5
58DB
  8
0
  6
VERDECKT
 62
     1
 10
106.9999999999996021
 20
-98.5000000000001137
 30
0.0000000000000238
 11
107.9122537624154035
 21
-103.6736481776671042
 31
0.000000000000024
  0
LINE
  5
58DC
  8
0
  6
VERDECKT
 62
     1
 10
32.9999999999996305
 20
-98.5000000000001137
 30
0.0000000000000073
 11
32.0877462375837865
 21
-103.6736481776671042
 31
0.0000000000000071
  0
ARC
  5
58DD
  8
0
  6
VERDECKT
 62
     1
 10
108.8970615154276942
 20
-103.5000000000000995
 30
0.0000000000000242
 40
1.000000000000014
 50
190.0000000000017053
 51
270.0
  0
ARC
  5
58DE
  8
0
  6
VERDECKT
 62
     1
 10
31.1029384845715597
 20
-103.5000000000000995
 30
0.0000000000000069
 40
1.0000000000000171
 50
270.0000000000010232
 51
349.9999999999992042
  0
LINE
  5
58DF
  8
0
  6
VERDECKT
 62
     1
 10
29.8243341958305805
 20
-86.0274399525988969
 30
0.0000000000000066
 11
28.9999999999996305
 21
-84.5000000000001137
 31
0.0000000000000064
  0
LINE
  5
58E0
  8
0
  6
VERDECKT
 62
     1
 10
110.1756658041687018
 20
-86.0274399525989253
 30
0.0000000000000245
 11
110.9999999999996021
 21
-84.5000000000001279
 31
0.0000000000000246
  0
ARC
  5
58E1
  8
0
  6
VERDECKT
 62
     1
 10
109.383646178829494
 20
-85.6000000000001222
 30
0.0000000000000243
 40
0.90000000000002
 50
270.0000000000009095
 51
331.6449939715889741
  0
ARC
  5
58E2
  8
0
  6
VERDECKT
 62
     1
 10
109.383646178829494
 20
-85.6000000000001364
 30
0.0000000000000243
 40
0.9000000000000056
 50
184.6824168622682976
 51
270.0
  0
ARC
  5
58E3
  8
0
  6
VERDECKT
 62
     1
 10
30.6163538211696995
 20
-85.6000000000001364
 30
0.0000000000000068
 40
0.900000000000012
 50
270.0000000000006821
 51
355.3175831377325835
  0
ARC
  5
58E4
  8
0
  6
VERDECKT
 62
     1
 10
30.6163538211697315
 20
-85.600000000000108
 30
0.0000000000000068
 40
0.9000000000000341
 50
208.3550060284117933
 51
270.0
  0
LINE
  5
58E5
  8
0
  6
VERDECKT
 62
     1
 10
30.6163538211697102
 20
-86.5000000000001421
 30
0.0000000000000068
 11
109.383646178829494
 21
-86.5000000000001421
 31
0.0000000000000243
  0
ARC
  5
58E6
  8
0
  6
VERDECKT
 62
     1
 10
104.4999999999997016
 20
-86.0000000000000568
 30
0.0000000000000232
 40
3.9999999999998632
 50
4.68241686226939
 51
22.0243128370420997
  0
ARC
  5
58E7
  8
0
  6
VERDECKT
 62
     1
 10
35.4999999999999289
 20
-86.0000000000001705
 30
0.0000000000000079
 40
4.0000000000002931
 50
157.975687162958593
 51
175.3175831377297129
  0
LINE
  5
58E8
  8
0
  6
VERDECKT
 62
     1
 10
37.9999999999996305
 20
-83.5000000000001137
 30
0.0000000000000084
 11
37.9999999999996305
 21
-82.0000000000001137
 31
0.0000000000000084
  0
LINE
  5
58E9
  8
0
  6
VERDECKT
 62
     1
 10
101.9999999999996021
 20
-83.5000000000001137
 30
0.0000000000000226
 11
101.9999999999996021
 21
-82.0000000000001137
 31
0.0000000000000226
  0
ARC
  5
58EA
  8
0
  6
VERDECKT
 62
     1
 10
101.9999999999996021
 20
-88.5000000000001137
 30
0.0000000000000226
 40
5.0
 50
0.0
 51
90.0
  0
ARC
  5
58EB
  8
0
  6
VERDECKT
 62
     1
 10
37.9999999999996305
 20
-88.5000000000001137
 30
0.0000000000000084
 40
5.0
 50
90.0
 51
180.0
  0
LINE
  5
58EC
  8
0
  6
VERDECKT
 62
     1
 10
-31.5000000000000284
 20
-8.8216426534344574
 30
-0.000000000000007
 11
-108.5
 21
-8.8216426534344574
 31
-0.0000000000000241
  0
LINE
  5
58ED
  8
0
  6
VERDECKT
 62
     1
 10
31.4999999999999716
 20
-8.8216426534344574
 30
0.000000000000007
 11
108.4999999999999005
 21
-8.8216426534344574
 31
0.0000000000000241
  0
ARC
  5
58EE
  8
0
  6
VERDECKT
 62
     1
 10
-115.0
 20
-3.5000000000000511
 30
-0.0000000000000255
 40
3.9999999999999938
 50
12.0000000000009805
 51
90.0000000000006253
  0
ARC
  5
58EF
  8
0
  6
VERDECKT
 62
     1
 10
-24.9999999999999893
 20
-3.5000000000000631
 30
-0.0000000000000056
 40
4.0000000000000062
 50
90.0000000000015774
 51
167.9999999999988063
  0
LINE
  5
58F0
  8
0
  6
VERDECKT
 62
     1
 10
-31.5000000000000284
 20
-8.8216426534344556
 30
-0.000000000000007
 11
-30.7652678648919498
 21
-9.5000000000000551
 31
-0.0000000000000068
  0
LINE
  5
58F1
  8
0
  6
VERDECKT
 62
     1
 10
-108.5
 20
-8.8216426534344556
 30
-0.0000000000000241
 11
-109.2347321351081035
 21
-9.5000000000000586
 31
-0.0000000000000243
  0
ARC
  5
58F2
  8
0
  6
VERDECKT
 62
     1
 10
-101.9452226668010013
 20
-2.769802606417576
 30
-0.0000000000000226
 40
8.9213157013131923
 50
191.9999999999998863
 51
222.7154132829003004
  0
ARC
  5
58F3
  8
0
  6
VERDECKT
 62
     1
 10
-38.0547773331991124
 20
-2.7698026064175738
 30
-0.0000000000000084
 40
8.9213157013132207
 50
317.2845867170998986
 51
348.0
  0
LINE
  5
58F4
  8
0
  6
VERDECKT
 62
     1
 10
-110.6715862154293006
 20
-4.6246484381966226
 30
-0.0000000000000246
 11
-111.0874095970648057
 21
-2.6683532367289482
 31
-0.0000000000000247
  0
LINE
  5
58F5
  8
0
  6
VERDECKT
 62
     1
 10
-29.3284137845707598
 20
-4.6246484381966253
 30
-0.0000000000000065
 11
-28.9125904029351908
 21
-2.6683532367289482
 31
-0.0000000000000064
  0
ARC
  5
58F6
  8
0
  6
VERDECKT
 62
     1
 10
24.9999999999999396
 20
-3.500000000000056
 30
0.0000000000000056
 40
4.0
 50
12.00000000000108
 51
90.0000000000004832
  0
ARC
  5
58F7
  8
0
  6
VERDECKT
 62
     1
 10
115.0
 20
-3.5000000000000471
 30
0.0000000000000255
 40
3.9999999999999849
 50
90.0000000000011937
 51
167.9999999999990052
  0
LINE
  5
58F8
  8
0
  6
VERDECKT
 62
     1
 10
108.4999999999999005
 20
-8.8216426534344556
 30
0.0000000000000241
 11
109.2347321351080041
 21
-9.5000000000000586
 31
0.0000000000000243
  0
LINE
  5
58F9
  8
0
  6
VERDECKT
 62
     1
 10
31.4999999999999716
 20
-8.8216426534344556
 30
0.000000000000007
 11
30.7652678648918894
 21
-9.5000000000000551
 31
0.0000000000000068
  0
ARC
  5
58FA
  8
0
  6
VERDECKT
 62
     1
 10
38.0547773331990484
 20
-2.7698026064175738
 30
0.0000000000000084
 40
8.9213157013132207
 50
191.9999999999998863
 51
222.7154132829001867
  0
ARC
  5
58FB
  8
0
  6
VERDECKT
 62
     1
 10
101.9452226668009018
 20
-2.7698026064175729
 30
0.0000000000000226
 40
8.9213157013131923
 50
317.2845867170996144
 51
348.0
  0
LINE
  5
58FC
  8
0
  6
VERDECKT
 62
     1
 10
29.3284137845706994
 20
-4.6246484381966253
 30
0.0000000000000065
 11
28.912590402935141
 21
-2.6683532367289482
 31
0.0000000000000064
  0
LINE
  5
58FD
  8
0
  6
VERDECKT
 62
     1
 10
110.6715862154292012
 20
-4.6246484381966226
 30
0.0000000000000246
 11
111.0874095970648057
 21
-2.6683532367289482
 31
0.0000000000000247
  0
LINE
  5
58FE
  8
0
  6
VERDECKT
 62
     1
 10
-247.0
 20
0.4999999999999762
 30
-0.0000000000000568
 11
-247.0
 21
-0.5000000000000238
 31
-0.0000000000000568
  0
LINE
  5
58FF
  8
0
  6
VERDECKT
 62
     1
 10
-253.0
 20
0.4999999999999762
 30
-0.0000000000000568
 11
-253.0
 21
-0.5000000000000238
 31
-0.0000000000000568
  0
LINE
  5
5900
  8
0
  6
VERDECKT
 62
     1
 10
253.0
 20
0.4999999999999762
 30
0.0000000000000568
 11
253.0
 21
-0.5000000000000238
 31
0.0000000000000568
  0
LINE
  5
5901
  8
0
  6
VERDECKT
 62
     1
 10
247.0
 20
0.4999999999999762
 30
0.0000000000000568
 11
247.0
 21
-0.5000000000000238
 31
0.0000000000000568
  0
ENDBLK
  5
5903
  8
0
  0
BLOCK
  8
0
  2
A$CB28AF70D
 70
     0
 10
0.0
 20
0.0
 30
0.0
  3
A$CB28AF70D
  1

  0
LINE
  5
5907
  8
0
  6
CONTINUOUS
 62
     3
 10
99.5000000000001279
 20
42.2999999999999901
 30
-0.0000000000000094
 11
99.5000000000001705
 21
-42.3000000000000611
 31
0.0000000000000094
210
-0.0000000000000002
220
1.0
230
-0.0000000000000002
  0
LINE
  5
5908
  8
0
  6
CONTINUOUS
 62
     3
 10
94.0050451610909334
 20
40.5000000000000071
 30
-0.000000000000009
 11
94.0050451610909761
 21
-40.5000000000000568
 31
0.000000000000009
210
-0.0000000000000002
220
1.0
230
-0.0000000000000002
  0
LINE
  5
5909
  8
0
  6
CONTINUOUS
 62
     3
 10
92.9000000000001478
 20
40.5000000000000071
 30
-0.000000000000009
 11
92.9000000000001762
 21
-40.5000000000000568
 31
0.000000000000009
210
-0.0000000000000002
220
1.0
230
-0.0000000000000002
  0
LINE
  5
590A
  8
0
  6
CONTINUOUS
 62
     3
 10
91.5000000000001137
 20
41.900000000000027
 30
-0.0000000000000093
 11
91.5000000000001421
 21
-41.9000000000000767
 31
0.0000000000000093
210
-0.0000000000000002
220
1.0
230
-0.0000000000000002
  0
LINE
  5
590B
  8
0
  6
CONTINUOUS
 62
     3
 10
90.5000000000001137
 20
41.900000000000027
 30
-0.0000000000000093
 11
90.5000000000001421
 21
-41.9000000000000767
 31
0.0000000000000093
210
-0.0000000000000002
220
1.0
230
-0.0000000000000002
  0
LINE
  5
590C
  8
0
  6
CONTINUOUS
 62
     3
 10
89.1000000000001364
 20
40.5000000000000426
 30
-0.000000000000009
 11
89.1000000000001648
 21
-40.5000000000000995
 31
0.000000000000009
210
-0.0000000000000002
220
1.0
230
-0.0000000000000002
  0
LINE
  5
590D
  8
0
  6
CONTINUOUS
 62
     3
 10
88.5000000000001137
 20
40.5000000000000426
 30
-0.000000000000009
 11
88.5000000000001279
 21
-40.5000000000000995
 31
0.000000000000009
210
-0.0000000000000002
220
1.0
230
-0.0000000000000002
  0
LINE
  5
590E
  8
0
  6
CONTINUOUS
 62
     3
 10
84.5000000000001137
 20
42.8000000000000114
 30
-0.0000000000000095
 11
84.5000000000001563
 21
-42.8000000000000682
 31
0.0000000000000095
210
-0.0000000000000002
220
1.0
230
-0.0000000000000002
  0
LINE
  5
590F
  8
0
  6
CONTINUOUS
 62
     3
 10
82.0000000000001137
 20
34.4999999999999787
 30
-0.0000000000000077
 11
82.0000000000001563
 21
-34.5000000000000497
 31
0.0000000000000077
210
-0.0000000000000002
220
1.0
230
-0.0000000000000002
  0
ARC
  5
5910
  8
0
  6
CONTINUOUS
 62
     3
 10
-103.5000000000000995
 20
38.8970615154280424
 30
0.0
 40
0.9999999999999726
210
0.0
220
-0.0000000000000002
230
-1.0
 50
119.4119136655288003
 51
180.0000000000003979
  0
ARC
  5
5911
  8
0
  6
CONTINUOUS
 62
     3
 10
-103.500000000000199
 20
-38.8970615154281205
 30
0.0
 40
0.9999999999999717
210
0.0
220
-0.0000000000000002
230
-1.0
 50
179.9999999999988063
 51
240.5880863344708871
  0
LINE
  5
5912
  8
0
  6
CONTINUOUS
 62
     3
 10
104.5000000000000995
 20
-38.8970615154281205
 30
0.0000000000000086
 11
104.5000000000000995
 21
38.8970615154280281
 31
-0.0000000000000086
210
-0.0000000000000002
220
1.0
230
-0.0000000000000002
  0
LINE
  5
5913
  8
0
  6
CONTINUOUS
 62
     3
 10
103.9910848968325041
 20
-39.7681732327773503
 30
0.0000000000000088
 11
99.5000000000001705
 21
-42.3000000000000611
 31
0.0000000000000094
210
-0.0000000000000002
220
1.0
230
-0.0000000000000002
  0
LINE
  5
5914
  8
0
  6
CONTINUOUS
 62
     3
 10
103.9910848968325041
 20
39.7681732327772792
 30
-0.0000000000000088
 11
99.5000000000001279
 21
42.2999999999999901
 31
-0.0000000000000094
210
-0.0000000000000002
220
1.0
230
-0.0000000000000002
  0
ARC
  5
5915
  8
0
  6
CONTINUOUS
 62
     3
 10
-99.0000000000001847
 20
39.2140740033710813
 30
0.0
 40
0.4999999999999859
210
0.0
220
-0.0000000000000002
230
-1.0
 50
180.0000000000015064
 51
290.0000000000014779
  0
ARC
  5
5916
  8
0
  6
CONTINUOUS
 62
     3
 10
-99.0000000000002274
 20
-39.2140740033711523
 30
0.0
 40
0.5000000000000037
210
0.0
220
-0.0000000000000002
230
-1.0
 50
69.99999999999838
 51
179.9999999999984084
  0
LINE
  5
5917
  8
0
  6
CONTINUOUS
 62
     3
 10
98.8289899283373643
 20
-38.7442276929781784
 30
0.0000000000000086
 11
94.0050451610909761
 21
-40.5000000000000568
 31
0.000000000000009
210
-0.0000000000000002
220
1.0
230
-0.0000000000000002
  0
LINE
  5
5918
  8
0
  6
CONTINUOUS
 62
     3
 10
98.8289899283373643
 20
38.7442276929781073
 30
-0.0000000000000086
 11
94.0050451610909334
 21
40.4999999999999787
 31
-0.000000000000009
210
-0.0000000000000002
220
1.0
230
-0.0000000000000002
  0
LINE
  5
5919
  8
0
  6
CONTINUOUS
 62
     3
 10
94.0050451610909761
 20
-40.5000000000000568
 30
0.000000000000009
 11
92.9000000000001762
 21
-40.5000000000000568
 31
0.000000000000009
210
-0.0000000000000002
220
1.0
230
-0.0000000000000002
  0
LINE
  5
591A
  8
0
  6
CONTINUOUS
 62
     3
 10
94.0050451610909334
 20
40.4999999999999787
 30
-0.000000000000009
 11
92.9000000000001478
 21
40.4999999999999787
 31
-0.000000000000009
210
-0.0000000000000002
220
1.0
230
-0.0000000000000002
  0
LINE
  5
591B
  8
0
  6
CONTINUOUS
 62
     3
 10
92.9000000000001762
 20
-40.5000000000000568
 30
0.000000000000009
 11
91.5000000000001421
 21
-41.9000000000000909
 31
0.0000000000000093
210
-0.0000000000000002
220
1.0
230
-0.0000000000000002
  0
LINE
  5
591C
  8
0
  6
CONTINUOUS
 62
     3
 10
92.9000000000001478
 20
40.4999999999999787
 30
-0.000000000000009
 11
91.5000000000001137
 21
41.9000000000000199
 31
-0.0000000000000093
210
-0.0000000000000002
220
1.0
230
-0.0000000000000002
  0
LINE
  5
591D
  8
0
  6
CONTINUOUS
 62
     3
 10
91.5000000000001421
 20
-41.9000000000000909
 30
0.0000000000000093
 11
90.5000000000001421
 21
-41.9000000000000909
 31
0.0000000000000093
210
-0.0000000000000002
220
1.0
230
-0.0000000000000002
  0
LINE
  5
591E
  8
0
  6
CONTINUOUS
 62
     3
 10
91.5000000000001137
 20
41.9000000000000199
 30
-0.0000000000000093
 11
90.5000000000001137
 21
41.9000000000000199
 31
-0.0000000000000093
210
-0.0000000000000002
220
1.0
230
-0.0000000000000002
  0
LINE
  5
591F
  8
0
  6
CONTINUOUS
 62
     3
 10
89.1000000000001364
 20
40.5000000000000426
 30
-0.000000000000009
 11
90.5000000000001137
 21
41.9000000000000199
 31
-0.0000000000000093
210
-0.0000000000000002
220
1.0
230
-0.0000000000000002
  0
LINE
  5
5920
  8
0
  6
CONTINUOUS
 62
     3
 10
89.1000000000001648
 20
-40.5000000000001066
 30
0.000000000000009
 11
90.5000000000001421
 21
-41.9000000000000909
 31
0.0000000000000093
210
-0.0000000000000002
220
1.0
230
-0.0000000000000002
  0
LINE
  5
5921
  8
0
  6
CONTINUOUS
 62
     3
 10
89.1000000000001648
 20
-40.5000000000001066
 30
0.000000000000009
 11
88.5000000000001279
 21
-40.5000000000001066
 31
0.000000000000009
210
-0.0000000000000002
220
1.0
230
-0.0000000000000002
  0
LINE
  5
5922
  8
0
  6
CONTINUOUS
 62
     3
 10
89.1000000000001364
 20
40.5000000000000426
 30
-0.000000000000009
 11
88.5000000000001137
 21
40.5000000000000426
 31
-0.000000000000009
210
-0.0000000000000002
220
1.0
230
-0.0000000000000002
  0
LINE
  5
5923
  8
0
  6
CONTINUOUS
 62
     3
 10
88.5000000000001279
 20
-40.5000000000001066
 30
0.000000000000009
 11
84.5000000000001563
 21
-42.8000000000000682
 31
0.0000000000000095
210
-0.0000000000000002
220
1.0
230
-0.0000000000000002
  0
LINE
  5
5924
  8
0
  6
CONTINUOUS
 62
     3
 10
88.5000000000001137
 20
40.5000000000000426
 30
-0.000000000000009
 11
84.5000000000001137
 21
42.7999999999999972
 31
-0.0000000000000095
210
-0.0000000000000002
220
1.0
230
-0.0000000000000002
  0
ARC
  5
5925
  8
0
  6
CONTINUOUS
 62
     3
 10
-86.0000000000000568
 20
34.5000000000000071
 30
0.0
 40
3.9999999999999578
210
0.0
220
-0.0000000000000002
230
-1.0
 50
359.9999999999996021
 51
67.9756871629582378
  0
ARC
  5
5926
  8
0
  6
CONTINUOUS
 62
     3
 10
-86.0000000000000995
 20
-34.5000000000000782
 30
0.0
 40
3.9999999999999551
210
0.0
220
-0.0000000000000002
230
-1.0
 50
292.0243128370416912
 51
0.0000000000004007
  0
LINE
  5
5927
  8
0
  6
CONTINUOUS
 62
     3
 10
9.5000000000000426
 20
39.234732135108132
 30
-0.0000000000000087
 11
9.5000000000000746
 21
-39.234732135108068
 31
0.0000000000000087
210
-0.0000000000000002
220
1.0
230
-0.0000000000000002
  0
LINE
  5
5928
  8
0
  6
CONTINUOUS
 62
     3
 10
-0.4999999999998622
 20
-200.0
 30
0.0000000000000444
 11
0.5000000000001382
 21
-200.0
 31
0.0000000000000444
210
-0.0000000000000002
220
1.0
230
-0.0000000000000002
  0
LINE
  5
5929
  8
0
  6
CONTINUOUS
 62
     3
 10
-0.4999999999998703
 20
-180.0
 30
0.00000000000004
 11
-0.4999999999998622
 21
-200.0
 31
0.0000000000000444
210
-0.0000000000000002
220
1.0
230
-0.0000000000000002
  0
LINE
  5
592A
  8
0
  6
CONTINUOUS
 62
     3
 10
0.5000000000001382
 20
-200.0
 30
0.0000000000000444
 11
0.5000000000001301
 21
-180.0
 31
0.00000000000004
210
-0.0000000000000002
220
1.0
230
-0.0000000000000002
  0
LINE
  5
592B
  8
0
  6
CONTINUOUS
 62
     3
 10
-0.4999999999998703
 20
-180.0
 30
0.00000000000004
 11
-0.5000000000000164
 21
180.0000000000001137
 31
-0.00000000000004
210
-0.0000000000000002
220
1.0
230
-0.0000000000000002
  0
LINE
  5
592C
  8
0
  6
CONTINUOUS
 62
     3
 10
0.499999999999984
 20
180.0000000000001137
 30
-0.00000000000004
 11
0.5000000000001301
 21
-180.0
 31
0.00000000000004
210
-0.0000000000000002
220
1.0
230
-0.0000000000000002
  0
LINE
  5
592D
  8
0
  6
CONTINUOUS
 62
     3
 10
-0.5000000000000245
 20
200.0000000000001137
 30
-0.0000000000000444
 11
-0.5000000000000164
 21
180.0000000000001137
 31
-0.00000000000004
210
-0.0000000000000002
220
1.0
230
-0.0000000000000002
  0
LINE
  5
592E
  8
0
  6
CONTINUOUS
 62
     3
 10
0.499999999999984
 20
180.0000000000001137
 30
-0.00000000000004
 11
0.4999999999999759
 21
200.0000000000001137
 31
-0.0000000000000444
210
-0.0000000000000002
220
1.0
230
-0.0000000000000002
  0
LINE
  5
592F
  8
0
  6
CONTINUOUS
 62
     3
 10
-0.5000000000000245
 20
200.0000000000003126
 30
-0.0000000000000444
 11
0.4999999999999759
 21
200.0000000000003126
 31
-0.0000000000000444
210
-0.0000000000000002
220
1.0
230
-0.0000000000000002
  0
ARC
  5
5930
  8
0
  6
CONTINUOUS
 62
     3
 10
-3.5000000000000671
 20
-45.0
 30
0.0
 40
2.999999999999992
210
0.0
220
-0.0000000000000002
230
-1.0
 50
359.9999999999997726
 51
77.9999999999990195
  0
ARC
  5
5931
  8
0
  6
CONTINUOUS
 62
     3
 10
-3.5000000000000382
 20
45.0000000000000568
 30
0.0
 40
2.9999999999999978
210
0.0
220
-0.0000000000000002
230
-1.0
 50
282.0000000000010232
 51
0.0000000000005343
  0
LINE
  5
5932
  8
0
  6
CONTINUOUS
 62
     3
 10
4.832560129014345
 20
-41.6497338161630424
 30
0.0000000000000092
 11
2.8762649275467411
 21
-42.0655571977985971
 31
0.0000000000000093
210
-0.0000000000000002
220
1.0
230
-0.0000000000000002
  0
LINE
  5
5933
  8
0
  6
CONTINUOUS
 62
     3
 10
4.8325601290143121
 20
41.6497338161630921
 30
-0.0000000000000092
 11
2.8762649275467069
 21
42.0655571977986611
 31
-0.0000000000000093
210
-0.0000000000000002
220
1.0
230
-0.0000000000000002
  0
ARC
  5
5934
  8
0
  6
CONTINUOUS
 62
     3
 10
-2.769802606417612
 20
-31.9452226668009516
 30
0.0
 40
9.9213157013131745
210
0.0
220
-0.0000000000000002
230
-1.0
 50
227.2845867170996996
 51
258.0000000000003979
  0
ARC
  5
5935
  8
0
  6
CONTINUOUS
 62
     3
 10
-2.7698026064175001
 20
31.9452226668008592
 30
0.0
 40
9.9213157013133415
210
0.0
220
-0.0000000000000002
230
-1.0
 50
101.999999999999801
 51
132.7154132828999025
  0
LINE
  5
5936
  8
0
  6
VERDECKT
 62
     1
 10
98.5000000000001279
 20
36.9999999999999787
 30
-0.0000000000000082
 11
98.5000000000001563
 21
-37.0000000000000497
 31
0.0000000000000082
210
-0.0000000000000002
220
1.0
230
-0.0000000000000002
  0
LINE
  5
5937
  8
0
  6
VERDECKT
 62
     1
 10
83.5000000000001279
 20
31.9999999999999716
 30
-0.0000000000000071
 11
83.5000000000001279
 21
-32.0000000000000497
 31
0.0000000000000071
210
-0.0000000000000002
220
1.0
230
-0.0000000000000002
  0
LINE
  5
5938
  8
0
  6
VERDECKT
 62
     1
 10
98.5000000000001563
 20
-37.0000000000000497
 30
0.0000000000000082
 11
88.5000000000001279
 21
-37.0000000000000497
 31
0.0000000000000082
210
-0.0000000000000002
220
1.0
230
-0.0000000000000002
  0
LINE
  5
5939
  8
0
  6
VERDECKT
 62
     1
 10
98.5000000000001279
 20
36.9999999999999787
 30
-0.0000000000000082
 11
88.5000000000001137
 21
36.9999999999999787
 31
-0.0000000000000082
210
-0.0000000000000002
220
1.0
230
-0.0000000000000002
  0
LINE
  5
593A
  8
0
  6
VERDECKT
 62
     1
 10
98.5000000000001279
 20
36.9999999999999787
 30
-0.0000000000000082
 11
103.6736481776671042
 21
37.9122537624158298
 31
-0.0000000000000084
210
-0.0000000000000002
220
1.0
230
-0.0000000000000002
  0
LINE
  5
593B
  8
0
  6
VERDECKT
 62
     1
 10
98.5000000000001563
 20
-37.0000000000000497
 30
0.0000000000000082
 11
103.6736481776671042
 21
-37.9122537624159008
 31
0.0000000000000084
210
-0.0000000000000002
220
1.0
230
-0.0000000000000002
  0
ARC
  5
593C
  8
0
  6
VERDECKT
 62
     1
 10
-103.5000000000000995
 20
38.8970615154280281
 30
0.0
 40
1.000000000000014
210
0.0
220
-0.0000000000000002
230
-1.0
 50
180.0
 51
259.9999999999982947
  0
ARC
  5
593D
  8
0
  6
VERDECKT
 62
     1
 10
-103.5000000000000995
 20
-38.8970615154280992
 30
0.0
 40
1.0
210
0.0
220
-0.0000000000000002
230
-1.0
 50
100.0000000000009948
 51
180.0
  0
LINE
  5
593E
  8
0
  6
VERDECKT
 62
     1
 10
86.0274399525989395
 20
-40.1756658041691068
 30
0.0000000000000089
 11
84.5000000000001563
 21
-41.0000000000000497
 31
0.0000000000000091
210
-0.0000000000000002
220
1.0
230
-0.0000000000000002
  0
LINE
  5
593F
  8
0
  6
VERDECKT
 62
     1
 10
86.0274399525988969
 20
40.1756658041690429
 30
-0.0000000000000089
 11
84.5000000000001137
 21
40.9999999999999787
 31
-0.0000000000000091
210
-0.0000000000000002
220
1.0
230
-0.0000000000000002
  0
ARC
  5
5940
  8
0
  6
VERDECKT
 62
     1
 10
-85.600000000000108
 20
39.383646178829899
 30
0.0
 40
0.9000000000000014
210
0.0
220
-0.0000000000000002
230
-1.0
 50
118.3550060284115943
 51
180.0
  0
ARC
  5
5941
  8
0
  6
VERDECKT
 62
     1
 10
-85.600000000000108
 20
39.3836461788298919
 30
0.0
 40
0.9000000000000058
210
0.0
220
-0.0000000000000002
230
-1.0
 50
179.9999999999994884
 51
265.3175831377307077
  0
ARC
  5
5942
  8
0
  6
VERDECKT
 62
     1
 10
-85.6000000000001364
 20
-39.383646178829963
 30
0.0
 40
0.8999999999999968
210
0.0
220
-0.0000000000000002
230
-1.0
 50
94.6824168622693065
 51
180.0000000000003979
  0
ARC
  5
5943
  8
0
  6
VERDECKT
 62
     1
 10
-85.6000000000001364
 20
-39.3836461788299701
 30
0.0
 40
0.9000000000000058
210
0.0
220
-0.0000000000000002
230
-1.0
 50
180.0
 51
241.6449939715884057
  0
LINE
  5
5944
  8
0
  6
VERDECKT
 62
     1
 10
86.5000000000001421
 20
-39.3836461788299701
 30
0.0000000000000087
 11
86.5000000000001137
 21
39.383646178829899
 31
-0.0000000000000087
210
-0.0000000000000002
220
1.0
230
-0.0000000000000002
  0
ARC
  5
5945
  8
0
  6
VERDECKT
 62
     1
 10
-86.0000000000000568
 20
34.5000000000001279
 30
0.0
 40
3.9999999999998379
210
0.0
220
-0.0000000000000002
230
-1.0
 50
67.9756871629577546
 51
85.3175831377307929
  0
ARC
  5
5946
  8
0
  6
VERDECKT
 62
     1
 10
-86.0000000000000853
 20
-34.500000000000199
 30
0.0
 40
3.9999999999998379
210
0.0
220
-0.0000000000000002
230
-1.0
 50
274.6824168622691218
 51
292.0243128370422028
  0
LINE
  5
5947
  8
0
  6
VERDECKT
 62
     1
 10
83.5000000000001279
 20
-32.0000000000000497
 30
0.0000000000000071
 11
82.0000000000001563
 21
-32.0000000000000497
 31
0.0000000000000071
210
-0.0000000000000002
220
1.0
230
-0.0000000000000002
  0
LINE
  5
5948
  8
0
  6
VERDECKT
 62
     1
 10
83.5000000000001279
 20
31.9999999999999716
 30
-0.0000000000000071
 11
82.0000000000001279
 21
31.9999999999999716
 31
-0.0000000000000071
210
-0.0000000000000002
220
1.0
230
-0.0000000000000002
  0
ARC
  5
5949
  8
0
  6
VERDECKT
 62
     1
 10
-88.5000000000001279
 20
31.9999999999999787
 30
0.0
 40
5.0
210
0.0
220
-0.0000000000000002
230
-1.0
 50
0.0
 51
89.9999999999999858
  0
ARC
  5
594A
  8
0
  6
VERDECKT
 62
     1
 10
-88.5000000000001279
 20
-32.0000000000000497
 30
0.0
 40
5.0
210
0.0
220
-0.0000000000000002
230
-1.0
 50
270.0
 51
0.0
  0
LINE
  5
594B
  8
0
  6
VERDECKT
 62
     1
 10
8.8216426534344432
 20
38.5000000000000426
 30
-0.0000000000000085
 11
8.8216426534344752
 21
-38.4999999999999929
 31
0.0000000000000085
210
-0.0000000000000002
220
1.0
230
-0.0000000000000002
  0
ARC
  5
594C
  8
0
  6
VERDECKT
 62
     1
 10
-3.5000000000000751
 20
-45.0000000000000213
 30
0.0
 40
3.9999999999999991
210
0.0
220
-0.0000000000000002
230
-1.0
 50
0.0000000000002926
 51
77.99999999999892
  0
ARC
  5
594D
  8
0
  6
VERDECKT
 62
     1
 10
-3.5000000000000511
 20
45.0000000000000924
 30
0.0
 40
4.0000000000000107
210
0.0
220
-0.0000000000000002
230
-1.0
 50
282.0000000000011937
 51
0.0
  0
LINE
  5
594E
  8
0
  6
VERDECKT
 62
     1
 10
8.8216426534344414
 20
38.5000000000000426
 30
-0.0000000000000085
 11
9.5000000000000409
 21
39.234732135108132
 31
-0.0000000000000087
210
-0.0000000000000002
220
1.0
230
-0.0000000000000002
  0
LINE
  5
594F
  8
0
  6
VERDECKT
 62
     1
 10
8.8216426534344734
 20
-38.4999999999999929
 30
0.0000000000000085
 11
9.5000000000000728
 21
-39.234732135108068
 31
0.0000000000000087
210
-0.0000000000000002
220
1.0
230
-0.0000000000000002
  0
ARC
  5
5950
  8
0
  6
VERDECKT
 62
     1
 10
-2.7698026064175538
 20
-31.9452226668008485
 30
0.0
 40
8.9213157013132882
210
0.0
220
-0.0000000000000002
230
-1.0
 50
227.2845867171000123
 51
258.0
  0
ARC
  5
5951
  8
0
  6
VERDECKT
 62
     1
 10
-2.7698026064176049
 20
31.9452226668010617
 30
0.0
 40
8.9213157013131195
210
0.0
220
-0.0000000000000002
230
-1.0
 50
101.999999999999801
 51
132.7154132829003004
  0
LINE
  5
5952
  8
0
  6
VERDECKT
 62
     1
 10
4.6246484381966431
 20
-40.671586215429258
 30
0.000000000000009
 11
2.6683532367289651
 21
-41.087409597064827
 31
0.0000000000000091
210
-0.0000000000000002
220
1.0
230
-0.0000000000000002
  0
LINE
  5
5953
  8
0
  6
VERDECKT
 62
     1
 10
4.6246484381966102
 20
40.671586215429322
 30
-0.000000000000009
 11
2.6683532367289322
 21
41.0874095970648767
 31
-0.0000000000000091
210
-0.0000000000000002
220
1.0
230
-0.0000000000000002
  0
LINE
  5
5954
  8
0
  6
VERDECKT
 62
     1
 10
-0.5000000000000177
 20
183.0000000000001137
 30
-0.0000000000000406
 11
0.4999999999999827
 21
183.0000000000001137
 31
-0.0000000000000406
210
-0.0000000000000002
220
1.0
230
-0.0000000000000002
  0
LINE
  5
5955
  8
0
  6
VERDECKT
 62
     1
 10
-0.5000000000000151
 20
177.0000000000001137
 30
-0.0000000000000393
 11
0.4999999999999851
 21
177.0000000000001137
 31
-0.0000000000000393
210
-0.0000000000000002
220
1.0
230
-0.0000000000000002
  0
LINE
  5
5956
  8
0
  6
VERDECKT
 62
     1
 10
-0.4999999999998714
 20
-177.0000000000001137
 30
0.0000000000000393
 11
0.5000000000001288
 21
-177.0000000000001137
 31
0.0000000000000393
210
-0.0000000000000002
220
1.0
230
-0.0000000000000002
  0
LINE
  5
5957
  8
0
  6
VERDECKT
 62
     1
 10
-0.499999999999869
 20
-183.0
 30
0.0000000000000406
 11
0.5000000000001313
 21
-183.0
 31
0.0000000000000406
210
-0.0000000000000002
220
1.0
230
-0.0000000000000002
  0
ENDBLK
  5
5959
  8
0
  0
ENDSEC
  0
SECTION
  2
ENTITIES
  0
TEXT
  5
3D7
  8
VOLL
 10
78.076754716981128
 20
31.025947764705851
 30
0.0
 40
1.8
  1

  7
GREEKS
  0
INSERT
  5
AD0
  8
ADSK_ASSOC_ENTITY_BACKUPS
  2
*S0
 10
0.0
 20
0.0
 30
0.0
  0
INSERT
  5
5869
  8
STEMPEL
  2
A$C316A3D18
 10
0.0
 20
0.0
 30
0.0
  0
INSERT
  5
5904
  8
STEMPEL
  2
A$C8D862251
 10
0.0
 20
-250.5
 30
0.0
  0
INSERT
  5
595A
  8
STEMPEL
  2
A$CB28AF70D
 10
320.5
 20
0.0
 30
0.0
  0
VIEWPORT
  5
AAD
 67
     1
  8
0
 10
205.7231949494951095
 20
145.4876214195224975
 30
0.0
 40
558.8319832755776133
 41
298.5191815856778135
 68
     1
 69
     1
1001
ACAD
1000
MVIEW
1002
{
1070
    16
1010
0.0
1020
0.0
1030
0.0
1010
0.0
1020
0.0
1030
1.0
1040
0.0
1040
298.5191815856778135
1040
205.7231949494951095
1040
145.4876214195224975
1040
50.0
1040
0.0
1040
0.0
1070
     0
1070
  1500
1070
     1
1070
     1
1070
     0
1070
     0
1070
     0
1070
     0
1040
0.0
1040
0.0
1040
0.0
1040
10.0
1040
10.0
1040
10.0
1040
10.0
1070
     0
1002
{
1002
}
1002
}
  0
TEXT
  5
CB0
 67
     1
  8
VOLL
 10
625.5592565604117681
 20
227.4217200880700887
 30
0.0
 40
3.6000000000000001
  1

  7
GREEKS
  0
ENDSEC
  0
EOF
