  0
SECTION
  2
HEADER
  9
$ACADVER
  1
AC1009
  9
$INSBASE
 10
509.9391017861535147
 20
-118.0350180316795985
 30
403.1361558984037856
  9
$EXTMIN
 10
-752.0000013682761164
 20
-502.0000007942016964
 30
-0.0000000116415251
  9
$EXTMAX
 10
269.999998987625986
 20
399.9999993734672898
 30
-0.0000000116415251
  9
$LIMMIN
 10
0.0
 20
0.000000000000008
  9
$LIMMAX
 10
594.0
 20
840.0
  9
$ORTHOMODE
 70
     1
  9
$REGENMODE
 70
     1
  9
$FILLMODE
 70
     1
  9
$QTEXTMODE
 70
     0
  9
$MIRRTEXT
 70
     1
  9
$DRAGMODE
 70
     2
  9
$LTSCALE
 40
20.0
  9
$OSMODE
 70
   511
  9
$ATTMODE
 70
     1
  9
$TEXTSIZE
 40
2.0
  9
$TRACEWID
 40
1.0
  9
$TEXTSTYLE
  7
STANDARD
  9
$CLAYER
  8
STEMPEL
  9
$CELTYPE
  6
BYLAYER
  9
$CECOLOR
 62
   256
  9
$DIMSCALE
 40
1.0
  9
$DIMASZ
 40
3.5
  9
$DIMEXO
 40
1.0
  9
$DIMDLI
 40
0.38
  9
$DIMRND
 40
0.0
  9
$DIMDLE
 40
0.0
  9
$DIMEXE
 40
1.0
  9
$DIMTP
 40
0.0
  9
$DIMTM
 40
0.000000001
  9
$DIMTXT
 40
3.5
  9
$DIMCEN
 40
0.09
  9
$DIMTSZ
 40
0.0
  9
$DIMTOL
 70
     0
  9
$DIMLIM
 70
     0
  9
$DIMTIH
 70
     0
  9
$DIMTOH
 70
     0
  9
$DIMSE1
 70
     0
  9
$DIMSE2
 70
     0
  9
$DIMTAD
 70
     1
  9
$DIMZIN
 70
     8
  9
$DIMBLK
  1

  9
$DIMASO
 70
     1
  9
$DIMSHO
 70
     0
  9
$DIMPOST
  1

  9
$DIMAPOST
  1

  9
$DIMALT
 70
     0
  9
$DIMALTD
 70
     2
  9
$DIMALTF
 40
25.3999999999999986
  9
$DIMLFAC
 40
2.0
  9
$DIMTOFL
 70
     1
  9
$DIMTVP
 40
0.0
  9
$DIMTIX
 70
     0
  9
$DIMSOXD
 70
     0
  9
$DIMSAH
 70
     0
  9
$DIMBLK1
  1

  9
$DIMBLK2
  1

  9
$DIMSTYLE
  2
LORO
  9
$DIMCLRD
 70
     0
  9
$DIMCLRE
 70
     0
  9
$DIMCLRT
 70
     1
  9
$DIMTFAC
 40
0.5
  9
$DIMGAP
 40
1.5
  9
$LUNITS
 70
     2
  9
$LUPREC
 70
     2
  9
$SKETCHINC
 40
1.0
  9
$FILLETRAD
 40
6.5
  9
$AUNITS
 70
     0
  9
$AUPREC
 70
     0
  9
$MENU
  1
ACAD
  9
$ELEVATION
 40
0.0
  9
$PELEVATION
 40
0.0
  9
$THICKNESS
 40
0.0
  9
$LIMCHECK
 70
     0
  9
$BLIPMODE
 70
     0
  9
$CHAMFERA
 40
0.0
  9
$CHAMFERB
 40
0.0
  9
$SKPOLY
 70
     0
  9
$TDCREATE
 40
2455397.867048610933125
  9
$TDUPDATE
 40
2460560.5743865738622844
  9
$TDINDWG
 40
1.7125879282000001
  9
$TDUSRTIMER
 40
1.7125879282000001
  9
$USRTIMER
 70
     1
  9
$ANGBASE
 50
0.0
  9
$ANGDIR
 70
     0
  9
$PDMODE
 70
     0
  9
$PDSIZE
 40
0.0
  9
$PLINEWID
 40
0.0
  9
$COORDS
 70
     1
  9
$SPLFRAME
 70
     0
  9
$SPLINETYPE
 70
     6
  9
$SPLINESEGS
 70
     8
  9
$ATTDIA
 70
     1
  9
$ATTREQ
 70
     1
  9
$HANDLING
 70
     1
  9
$HANDSEED
  5
2467C
  9
$SURFTAB1
 70
     6
  9
$SURFTAB2
 70
     6
  9
$SURFTYPE
 70
     6
  9
$SURFU
 70
     6
  9
$SURFV
 70
     6
  9
$UCSNAME
  2

  9
$UCSORG
 10
0.0
 20
0.0
 30
0.0
  9
$UCSXDIR
 10
1.0
 20
0.0
 30
0.0
  9
$UCSYDIR
 10
0.0
 20
1.0
 30
0.0
  9
$PUCSNAME
  2

  9
$PUCSORG
 10
0.0
 20
0.0
 30
0.0
  9
$PUCSXDIR
 10
1.0
 20
0.0
 30
0.0
  9
$PUCSYDIR
 10
0.0
 20
1.0
 30
0.0
  9
$USERI1
 70
     0
  9
$USERI2
 70
     0
  9
$USERI3
 70
     0
  9
$USERI4
 70
     0
  9
$USERI5
 70
     0
  9
$USERR1
 40
0.0
  9
$USERR2
 40
0.0
  9
$USERR3
 40
0.0
  9
$USERR4
 40
0.0
  9
$USERR5
 40
0.0
  9
$WORLDVIEW
 70
     1
  9
$SHADEDGE
 70
     3
  9
$SHADEDIF
 70
    70
  9
$TILEMODE
 70
     1
  9
$MAXACTVP
 70
    16
  9
$PLIMCHECK
 70
     0
  9
$PEXTMIN
 10
111.7499991687761991
 20
208.2999996048768026
 30
0.0
  9
$PEXTMAX
 10
116.7499998347273049
 20
213.2999998890726943
 30
0.0000000000004547
  9
$PLIMMIN
 10
-0.2499985880222653
 20
-0.2499994036405724
  9
$PLIMMAX
 10
593.7500014119777916
 20
419.7500005963594845
  9
$UNITMODE
 70
     0
  9
$VISRETAIN
 70
     0
  9
$PLINEGEN
 70
     0
  9
$PSLTSCALE
 70
     0
  0
ENDSEC
  0
SECTION
  2
TABLES
  0
TABLE
  2
VPORT
 70
     1
  0
VPORT
  2
*ACTIVE
 70
     0
 10
0.0
 20
0.0
 11
1.0
 21
1.0
 12
-305.000001190325122
 22
-250.0000007103672033
 13
0.0
 23
0.0
 14
1.0
 24
1.0
 15
10.0
 25
10.0
 16
0.0000000000018332
 26
0.0
 36
8246.2832011792852427
 17
64.0
 27
199.0
 37
-0.0000000000000444
 40
906.6494847046158156
 41
1.8847807394668961
 42
207.9750642040671949
 43
0.0
 44
0.0
 50
0.0
 51
0.0
 71
     0
 72
  1500
 73
     1
 74
     0
 75
     0
 76
     0
 77
     0
 78
     0
  0
ENDTAB
  0
TABLE
  2
LTYPE
 70
    13
  0
LTYPE
  2
CONTINUOUS
 70
     0
  3
Solid line
 72
    65
 73
     0
 40
0.0
  0
LTYPE
  2
STRICHPUNKT
 70
     0
  3
__ . __ . __ . __ . __ . __ . __ . __ . __ . __
 72
    65
 73
     4
 40
1.0
 49
0.5
 49
-0.25
 49
0.0
 49
-0.25
  0
LTYPE
  2
HIDDEN
 70
     0
  3
Hidden __ __ __ __ __ __ __ __ __ __ __ __ __ __
 72
    65
 73
     2
 40
0.375
 49
0.25
 49
-0.125
  0
LTYPE
  2
PHANTOM2
 70
     0
  3
Phantom (.5x) ___ _ _ ___ _ _ ___ _ _ ___ _ _
 72
    65
 73
     6
 40
1.25
 49
0.625
 49
-0.125
 49
0.125
 49
-0.125
 49
0.125
 49
-0.125
  0
LTYPE
  2
CENTER
 70
     0
  3
Center ____ _ ____ _ ____ _ ____ _ ____ _ ____
 72
    65
 73
     4
 40
2.0
 49
1.25
 49
-0.25
 49
0.25
 49
-0.25
  0
LTYPE
  2
AMCONSTR
 70
     0
  3
_______________________
 72
    65
 73
     2
 40
9999.0
 49
9999.0
 49
0.0
  0
LTYPE
  2
CENTER2
 70
     0
  3
Center (.5x) ___ _ ___ _ ___ _ ___ _ ___ _ ___
 72
    65
 73
     4
 40
1.125
 49
0.75
 49
-0.125
 49
0.125
 49
-0.125
  0
LTYPE
  2
HIDDEN2
 70
     0
  3
Hidden (.5x) _ _ _ _ _ _ _ _ _ _ _ _ _ _ _ _ _
 72
    65
 73
     2
 40
0.1875
 49
0.125
 49
-0.0625
  0
LTYPE
  2
AMZIGZAG2
 70
     0
  3
/\/-/\/-/\/-/\/-/\/-/\/
 72
    65
 73
     2
 40
0.4401
 49
0.0001
 49
-0.4400000000000001
  0
LTYPE
  2
ACANSTGB
 70
     0
  3
__ . . __ . .
 72
    65
 73
     6
 40
0.35433070866
 49
0.15748031496
 49
-0.03937007874
 49
0.03937007874
 49
-0.03937007874
 49
0.03937007874
 49
-0.03937007874
  0
LTYPE
  2
ACANSTGL
 70
     0
  3
_ _ _ _ _
 72
    65
 73
     2
 40
0.11811023622
 49
0.07874015748
 49
-0.03937007874
  0
LTYPE
  2
AUSGEZOGEN
 70
     0
  3
Ausgezogene Linie
 72
    65
 73
     0
 40
0.0
  0
LTYPE
  2
VERDECKT
 70
     0
  3
Verdeckt __ __ __ __ __ __ __ __ __ __ __ __ __
 72
    65
 73
     2
 40
0.375
 49
0.25
 49
-0.125
  0
ENDTAB
  0
TABLE
  2
LAYER
 70
     7
  0
LAYER
  2
0
 70
     0
 62
     7
  6
CONTINUOUS
  0
LAYER
  2
VOLL
 70
     0
 62
     1
  6
CONTINUOUS
  0
LAYER
  2
STEMPEL
 70
     0
 62
     3
  6
CONTINUOUS
  0
LAYER
  2
ADSK_ASSOC_ENTITY_BACKUPS
 70
     1
 62
    -7
  6
CONTINUOUS
  0
LAYER
  2
INDEX
 70
     0
 62
  -255
  6
CONTINUOUS
  0
ENDTAB
  0
TABLE
  2
STYLE
 70
     4
  0
STYLE
  2
STANDARD
 70
     0
 40
0.0
 41
0.8
 50
0.0
 71
     0
 42
2.0
  3
simplex.shx
  4

  0
STYLE
  2
GREEKS
 70
     0
 40
0.0
 41
0.8
 50
0.0
 71
     0
 42
2.5
  3
SIMPLEX.shx
  4

  0
STYLE
  2

 70
     1
 40
0.0
 41
1.0
 50
0.0
 71
     0
 42
2.5
  3
genltshp.shx
  4

  0
STYLE
  2
ACANSGDT
 70
     0
 40
0.0
 41
1.0
 50
0.0
 71
     0
 42
2.5
  3
amgdt.shx
  4

  0
ENDTAB
  0
TABLE
  2
VIEW
 70
     0
  0
ENDTAB
  0
TABLE
  2
UCS
 70
     0
  0
ENDTAB
  0
TABLE
  2
APPID
 70
    49
  0
APPID
  2
ACAD
 70
     0
  0
APPID
  2
ACAD_NAV_VCDISPLAY
 70
     0
  0
APPID
  2
GRADIENTCOLOR1ACI
 70
     0
  0
APPID
  2
GRADIENTCOLOR2ACI
 70
     0
  0
APPID
  2
ACAD_DSTYLE_DIMRADIAL_EXTENSION
 70
     0
  0
APPID
  2
ACADANNOMONITORALERTICONDI
 70
     0
  0
APPID
  2
ACAD_EXEMPT_FROM_CAD_STANDARDS
 70
     0
  0
APPID
  2
ACAD_MLEADERVER
 70
     0
  0
APPID
  2
ACAD_PSEXT
 70
     0
  0
APPID
  2
ACAECLAYERSTANDARD
 70
     0
  0
APPID
  2
ACCMTRANSPARENCY
 70
     0
  0
APPID
  2
ACAD_OBJECT_CHANGE_GUID
 70
     0
  0
APPID
  2
MCAD_NO_VIS
 70
     0
  0
APPID
  2
ACAD_TEMP_GRAPHIC
 70
     0
  0
APPID
  2
ACATTRIBSERVICES
 70
     0
  0
APPID
  2
DESIGNERASSEMBLIES
 70
     0
  0
APPID
  2
ACAD_DSTYLE_DIMJAG
 70
     0
  0
APPID
  2
ACAD_DSTYLE_DIMBREAK
 70
     0
  0
APPID
  2
GENIUS_GENSCREG_15
 70
     0
  0
APPID
  2
GENIUS_GENOBJ-N-SDF_13
 70
     0
  0
APPID
  2
GENIUS_GENODEF_13
 70
     0
  0
APPID
  2
ACAD_STEPID
 70
     0
  0
APPID
  2
ACAD_DSTYLE_DIMARC_LENGTH_
 70
     0
  0
APPID
  2
ACAD_DSTYLE_DIM_LINETYPE
 70
     0
  0
APPID
  2
ACAD_DSTYLE_DIM_EXT1_LINETYPE
 70
     0
  0
APPID
  2
ACAD_DSTYLE_DIM_EXT2_LINETYPE
 70
     0
  0
APPID
  2
RAK
 70
     0
  0
APPID
  2
ACADANNOPO
 70
     0
  0
APPID
  2
ACSYNERGY
 70
     0
  0
APPID
  2
SYNERGY_BODY_TBR_ID
 70
     0
  0
APPID
  2
ACAD_VIEW_EDGE_ID
 70
     0
  0
APPID
  2
ACSYNERGYSKETCH
 70
     0
  0
APPID
  2
ACAD_MODELDOC_XFORM
 70
     0
  0
APPID
  2
GENIUS_GENDTOL_13
 70
     0
  0
APPID
  2
ACAD_DSTYLE_DIMINSPECT
 70
     0
  0
APPID
  2
ACAD_DSTYLE_DIMANGULAR_EXT
 70
     0
  0
APPID
  2
PLOTTRANSPARENCY
 70
     0
  0
APPID
  2
ACAUTHENVIRON
 70
     0
  0
APPID
  2
ACDBDYNAMICBLOCKTRUENAME
 70
     0
  0
APPID
  2
ACDBDYNAMICBLOCKGUID
 70
     0
  0
APPID
  2
PE_URL
 70
     0
  0
APPID
  2
ACADANNOAV
 70
     0
  0
APPID
  2
ACAD_TC
 70
     0
  0
APPID
  2
ACAD_DIMASSOC_CALC_DIMLFAC
 70
     0
  0
APPID
  2
ACAD_DIMASSOC_DIMLFAC
 70
     0
  0
APPID
  2
ACAD_DIMASSOC_OVERRIDDEN_D
 70
     0
  0
APPID
  2
ACAD_DSTYLE_DIMTALN
 70
     0
  0
APPID
  2
ACADANNOTATIVE
 70
     0
  0
APPID
  2
HATCHBACKGROUNDCOLOR
 70
     0
  0
ENDTAB
  0
TABLE
  2
DIMSTYLE
 70
    10
  0
DIMSTYLE
  2
AM_ANSI
 70
     0
  3

  4
mm
  5

  6

  7

 40
1.0
 41
0.12
 42
0.05
 43
0.5
 44
0.1
 45
0.0
 46
0.0
 47
0.1
 48
0.1
140
0.12
141
0.0
142
0.0
143
25.3999999999999986
144
1.0
145
0.0
146
0.71
147
0.06
 71
     0
 72
     0
 73
     1
 74
     1
 75
     0
 76
     0
 77
     0
 78
     7
170
     0
171
     2
172
     0
173
     0
174
     0
175
     0
176
   256
177
   256
178
   255
  0
DIMSTYLE
  2
AM_ANSI$3
 70
     0
  3

  4
mm
  5

  6

  7

 40
1.0
 41
0.12
 42
0.05
 43
0.5
 44
0.1
 45
0.0
 46
0.0
 47
0.1
 48
0.1
140
0.12
141
0.0
142
0.0
143
25.3999999999999986
144
1.0
145
0.0
146
0.71
147
0.06
 71
     0
 72
     0
 73
     1
 74
     1
 75
     0
 76
     0
 77
     0
 78
     7
170
     0
171
     2
172
     0
173
     0
174
     0
175
     0
176
   256
177
   256
178
   255
  0
DIMSTYLE
  2
AM_ANSI$4
 70
     0
  3

  4
mm
  5

  6

  7

 40
1.0
 41
0.12
 42
0.05
 43
0.5
 44
0.1
 45
0.0
 46
0.0
 47
0.1
 48
0.1
140
0.12
141
0.0
142
0.0
143
25.3999999999999986
144
1.0
145
0.0
146
0.71
147
0.06
 71
     0
 72
     0
 73
     1
 74
     1
 75
     0
 76
     0
 77
     0
 78
     7
170
     0
171
     2
172
     0
173
     0
174
     0
175
     0
176
   256
177
   256
178
   255
  0
DIMSTYLE
  2
AM_ANSI$7
 70
     0
  3

  4
mm
  5

  6

  7

 40
1.0
 41
0.12
 42
0.05
 43
0.5
 44
0.1
 45
0.0
 46
0.0
 47
0.1
 48
0.1
140
0.12
141
0.0
142
0.0
143
25.3999999999999986
144
1.0
145
0.0
146
0.71
147
0.06
 71
     0
 72
     0
 73
     1
 74
     1
 75
     0
 76
     0
 77
     0
 78
     7
170
     0
171
     2
172
     0
173
     0
174
     0
175
     0
176
   256
177
   256
178
   255
  0
DIMSTYLE
  2
AM_ANSI$SF
 70
     0
  3

  4
mm
  5

  6

  7

 40
1.0
 41
0.12
 42
0.05
 43
0.5
 44
0.1
 45
0.0
 46
0.0
 47
0.1
 48
0.1
140
0.12
141
0.0
142
0.0
143
25.3999999999999986
144
1.0
145
0.0
146
0.71
147
0.06
 71
     0
 72
     0
 73
     1
 74
     1
 75
     1
 76
     1
 77
     0
 78
     7
170
     0
171
     2
172
     0
173
     0
174
     0
175
     0
176
   256
177
   256
178
   255
  0
DIMSTYLE
  2
AM_ANSI$SH
 70
     0
  3

  4
mm
  5

  6
GENAXEH
  7

 40
1.0
 41
0.12
 42
0.05
 43
0.5
 44
0.1
 45
0.0
 46
0.0
 47
0.1
 48
0.1
140
0.12
141
0.0
142
0.0
143
25.3999999999999986
144
1.0
145
0.0
146
0.71
147
0.06
 71
     0
 72
     0
 73
     1
 74
     1
 75
     1
 76
     1
 77
     0
 78
     7
170
     0
171
     2
172
     0
173
     1
174
     0
175
     0
176
   256
177
   256
178
   255
  0
DIMSTYLE
  2
AM_ANSI$0
 70
     0
  3

  4
"
  5

  6

  7

 40
1.0
 41
3.5
 42
1.0
 43
10.0
 44
1.0
 45
0.0
 46
0.0
 47
0.1
 48
0.1
140
3.5
141
0.0
142
0.0
143
0.0393701
144
1.0
145
0.0
146
0.71
147
1.5
 71
     0
 72
     0
 73
     1
 74
     1
 75
     0
 76
     0
 77
     0
 78
     8
170
     0
171
     2
172
     0
173
     0
174
     0
175
     0
176
   256
177
   256
178
     2
  0
DIMSTYLE
  2
LORO
 70
     0
  3

  4

  5

  6

  7

 40
1.0
 41
3.5
 42
1.0
 43
0.38
 44
1.0
 45
0.0
 46
0.0
 47
0.0
 48
0.000000001
140
3.5
141
0.09
142
0.0
143
25.3999999999999986
144
2.0
145
0.0
146
0.5
147
1.5
 71
     0
 72
     0
 73
     0
 74
     0
 75
     0
 76
     0
 77
     1
 78
     8
170
     0
171
     2
172
     1
173
     0
174
     0
175
     0
176
     0
177
     0
178
     1
  0
ENDTAB
  0
ENDSEC
  0
SECTION
  2
BLOCKS
  0
BLOCK
  8
0
  2
$MODEL_SPACE
 70
     0
 10
0.0
 20
0.0
 30
0.0
  3
$MODEL_SPACE
  1

  0
ENDBLK
  5
38
  8
0
  0
BLOCK
 67
     1
  8
0
  2
$PAPER_SPACE
 70
     2
 10
0.0
 20
0.0
 30
0.0
  3
$PAPER_SPACE
  1

  0
ENDBLK
  5
36
 67
     1
  8
0
  0
BLOCK
  8
0
  2
GENAXEH
 70
     0
 10
0.0
 20
0.0
 30
0.0
  3
GENAXEH
  1

  0
LINE
  5
1721
  8
0
 10
-1.0
 20
0.0
 30
0.0
 11
1.0
 21
0.0
 31
0.0
  0
ENDBLK
  5
1723
  8
0
  0
BLOCK
  8
0
  2
*S1
 70
     1
 10
0.0
 20
0.0
 30
0.0
  3
*S1
  1

  0
ENDBLK
  5
2101
  8
0
  0
BLOCK
  8
0
  2
*U2
 70
     1
 10
0.0
 20
0.0
 30
0.0
  3
*U2
  1

  0
ENDBLK
  5
3EBB
  8
0
  0
BLOCK
  8
0
  2
A$CEF4803CC
 70
     0
 10
0.0
 20
0.0
 30
0.0
  3
A$CEF4803CC
  1

  0
CIRCLE
  5
2450F
  8
0
  6
CONTINUOUS
 62
     0
 10
-69.9999999999996305
 20
200.0
 30
-0.0000000000000444
 40
49.6000000000001577
  0
CIRCLE
  5
24510
  8
0
  6
CONTINUOUS
 62
     0
 10
-70.000000000000199
 20
200.0000000000001137
 30
-0.0000000000000444
 40
52.7000000000000384
  0
CIRCLE
  5
24511
  8
0
  6
CONTINUOUS
 62
     0
 10
-70.000000000000199
 20
200.0000000000001137
 30
-0.0000000000000444
 40
57.9000000000003183
  0
CIRCLE
  5
24512
  8
0
  6
CONTINUOUS
 62
     0
 10
-70.000000000000199
 20
200.0000000000001137
 30
-0.0000000000000444
 40
54.287569344444357
  0
CIRCLE
  5
24513
  8
0
  6
CONTINUOUS
 62
     0
 10
-70.000000000000199
 20
200.0000000000001137
 30
-0.0000000000000444
 40
53.2000000000002728
  0
CIRCLE
  5
24514
  8
0
  6
CONTINUOUS
 62
     0
 10
-69.9999999999996305
 20
200.0
 30
-0.0000000000000444
 40
48.7296797270312396
  0
CIRCLE
  5
24515
  8
0
  6
CONTINUOUS
 62
     0
 10
-69.9999999999997726
 20
200.0
 30
0.0
 40
49.6000000000001577
210
0.0
220
-0.0000000000000002
230
-1.0
  0
CIRCLE
  5
24516
  8
0
  6
CONTINUOUS
 62
     0
 10
-70.0000000000003411
 20
200.0000000000001137
 30
0.0
 40
52.7000000000000384
210
0.0
220
-0.0000000000000002
230
-1.0
  0
CIRCLE
  5
24517
  8
0
  6
CONTINUOUS
 62
     0
 10
-70.0000000000003411
 20
200.0000000000001137
 30
0.0
 40
57.9000000000003183
210
0.0
220
-0.0000000000000002
230
-1.0
  0
CIRCLE
  5
24518
  8
0
  6
CONTINUOUS
 62
     0
 10
-70.0000000000003411
 20
200.0000000000001137
 30
0.0
 40
54.287569344444357
210
0.0
220
-0.0000000000000002
230
-1.0
  0
CIRCLE
  5
24519
  8
0
  6
CONTINUOUS
 62
     0
 10
-70.0000000000003411
 20
200.0000000000001137
 30
0.0
 40
53.2000000000002728
210
0.0
220
-0.0000000000000002
230
-1.0
  0
CIRCLE
  5
2451A
  8
0
  6
CONTINUOUS
 62
     0
 10
-69.9999999999997726
 20
200.0
 30
0.0
 40
48.7296797270312396
210
0.0
220
-0.0000000000000002
230
-1.0
  0
CIRCLE
  5
2451B
  8
0
  6
CONTINUOUS
 62
     0
 10
-70.0000000000006253
 20
200.0
 30
-0.0000000000000444
 40
57.9995501064835324
  0
CIRCLE
  5
2451C
  8
0
  6
CONTINUOUS
 62
     0
 10
69.9999999999994031
 20
200.0
 30
-0.0000000000000444
 40
57.9995501064835324
  0
CIRCLE
  5
2451D
  8
0
  6
CONTINUOUS
 62
     0
 10
250.0
 20
380.0000000000002274
 30
0.0
 40
3.0
210
0.0
220
-0.0000000000000002
230
-1.0
  0
CIRCLE
  5
2451E
  8
0
  6
CONTINUOUS
 62
     0
 10
-250.0000000000001137
 20
20.0
 30
0.0
 40
3.0
210
0.0
220
-0.0000000000000002
230
-1.0
  0
CIRCLE
  5
2451F
  8
0
  6
CONTINUOUS
 62
     0
 10
-250.0000000000001137
 20
380.0000000000002274
 30
0.0
 40
3.0
210
0.0
220
-0.0000000000000002
230
-1.0
  0
CIRCLE
  5
24520
  8
0
  6
CONTINUOUS
 62
     0
 10
250.0
 20
20.0
 30
0.0
 40
3.0
210
0.0
220
-0.0000000000000002
230
-1.0
  0
ARC
  5
24521
  8
0
  6
CONTINUOUS
 62
     0
 10
-250.0000000000001137
 20
380.0000000000001137
 30
0.0
 40
20.0000000000000107
210
0.0
220
-0.0000000000000002
230
-1.0
 50
89.9999999999999432
 51
180.0
  0
LINE
  5
24522
  8
0
  6
CONTINUOUS
 62
     0
 10
270.0000000000001137
 20
20.0
 30
-0.0000000000000044
 11
270.0000000000001137
 21
380.0000000000001137
 31
-0.0000000000000844
210
0.0
220
1.0
230
-0.0000000000000002
  0
ARC
  5
24523
  8
0
  6
CONTINUOUS
 62
     0
 10
-250.0000000000001137
 20
20.0
 30
0.0
 40
20.0
210
0.0
220
-0.0000000000000002
230
-1.0
 50
180.0
 51
270.0
  0
ARC
  5
24524
  8
0
  6
CONTINUOUS
 62
     0
 10
250.0
 20
380.0000000000001137
 30
0.0
 40
20.0
210
0.0
220
-0.0000000000000002
230
-1.0
 50
0.0
 51
90.0
  0
LINE
  5
24525
  8
0
  6
CONTINUOUS
 62
     0
 10
-269.9999999999998863
 20
380.0000000000001137
 30
-0.0000000000000844
 11
-269.9999999999998863
 21
20.0
 31
-0.0000000000000044
210
0.0
220
1.0
230
-0.0000000000000002
  0
ARC
  5
24526
  8
0
  6
CONTINUOUS
 62
     0
 10
250.0
 20
20.0
 30
0.0
 40
20.0
210
0.0
220
-0.0000000000000002
230
-1.0
 50
270.0
 51
0.0
  0
LINE
  5
24527
  8
0
  6
CONTINUOUS
 62
     0
 10
-250.0
 20
0.0
 30
0.0
 11
250.0
 21
0.0
 31
0.0
210
0.0
220
1.0
230
-0.0000000000000002
  0
LINE
  5
24528
  8
0
  6
CONTINUOUS
 62
     0
 10
250.0000000000001137
 20
400.0
 30
-0.0000000000000888
 11
-249.9999999999998863
 21
400.0
 31
-0.0000000000000888
210
0.0
220
1.0
230
-0.0000000000000002
  0
CIRCLE
  5
24529
  8
0
  6
VERDECKT
 62
     1
 10
69.9999999999996305
 20
200.0
 30
0.0
 40
50.7999999999999687
210
0.0
220
-0.0000000000000002
230
-1.0
  0
CIRCLE
  5
2452A
  8
0
  6
VERDECKT
 62
     1
 10
-70.000000000000199
 20
200.0000000000001137
 30
-0.0000000000000444
 40
53.9000000000000909
  0
CIRCLE
  5
2452B
  8
0
  6
VERDECKT
 62
     1
 10
-70.000000000000199
 20
200.0000000000001137
 30
-0.0000000000000444
 40
56.7000000000000526
  0
CIRCLE
  5
2452C
  8
0
  6
VERDECKT
 62
     1
 10
-69.9999999999996305
 20
200.0
 30
-0.0000000000000444
 40
49.925113364741037
  0
CIRCLE
  5
2452D
  8
0
  6
VERDECKT
 62
     1
 10
69.9999999999997726
 20
200.0
 30
-0.0000000000000444
 40
50.7999999999999687
  0
CIRCLE
  5
2452E
  8
0
  6
VERDECKT
 62
     1
 10
-70.0000000000003411
 20
200.0000000000001137
 30
0.0
 40
53.9000000000000909
210
0.0
220
-0.0000000000000002
230
-1.0
  0
CIRCLE
  5
2452F
  8
0
  6
VERDECKT
 62
     1
 10
-70.0000000000003411
 20
200.0000000000001137
 30
0.0
 40
56.7000000000000526
210
0.0
220
-0.0000000000000002
230
-1.0
  0
CIRCLE
  5
24530
  8
0
  6
VERDECKT
 62
     1
 10
-69.9999999999997726
 20
200.0
 30
0.0
 40
49.925113364741037
210
0.0
220
-0.0000000000000002
230
-1.0
  0
CIRCLE
  5
24531
  8
0
  6
VERDECKT
 62
     1
 10
-70.0000000000006253
 20
200.0
 30
-0.0000000000000444
 40
58.9957448045752173
  0
CIRCLE
  5
24532
  8
0
  6
VERDECKT
 62
     1
 10
69.9999999999994031
 20
200.0
 30
-0.0000000000000444
 40
58.9957448045752173
  0
ENDBLK
  5
24534
  8
0
  0
BLOCK
  8
0
  2
A$C3CD5957E
 70
     0
 10
0.0
 20
0.0
 30
0.0
  3
A$C3CD5957E
  1

  0
LINE
  5
24538
  8
0
  6
CONTINUOUS
 62
     0
 10
-1.9999999999989639
 20
145.7124306555556927
 30
-0.0000000000000324
 11
-1.999999999998932
 21
200.0000000000001137
 31
-0.0000000000000444
210
0.0000000000000002
220
1.0
230
-0.0000000000000002
  0
LINE
  5
24539
  8
0
  6
CONTINUOUS
 62
     0
 10
-1.999999999998932
 20
200.0000000000001137
 30
-0.0000000000000444
 11
-1.9999999999989
 21
254.2875693444445062
 31
-0.0000000000000565
210
0.0000000000000002
220
1.0
230
-0.0000000000000002
  0
LINE
  5
2453A
  8
0
  6
CONTINUOUS
 62
     0
 10
398.0000000000014211
 20
150.0748866352587925
 30
-0.0000000000000333
 11
398.0000000000014211
 21
199.9999990577344136
 31
-0.0000000000000444
210
0.0000000000000002
220
1.0
230
-0.0000000000000002
  0
LINE
  5
2453B
  8
0
  6
CONTINUOUS
 62
     0
 10
398.0000000000014211
 20
199.9999990577344136
 30
-0.0000000000000444
 11
398.0000000000014211
 21
249.9251133647410086
 31
-0.0000000000000555
210
0.0000000000000002
220
1.0
230
-0.0000000000000002
  0
ARC
  5
2453C
  8
0
  6
CONTINUOUS
 62
     0
 10
-153.0000000000007958
 20
141.2000000000022908
 30
0.0
 40
7.9999999999976978
210
0.0
220
-0.0000000000000002
230
-1.0
 50
59.3570682370460574
 51
90.0000000000014637
  0
ARC
  5
2453D
  8
0
  6
CONTINUOUS
 62
     0
 10
-153.0000000000009095
 20
258.7999999999976808
 30
0.0
 40
7.999999999997784
210
0.0
220
-0.0000000000000002
230
-1.0
 50
270.0
 51
300.6429317629550724
  0
ARC
  5
2453E
  8
0
  6
CONTINUOUS
 62
     0
 10
-141.6849657534785081
 20
160.2999999999987892
 30
0.0
 40
14.1999999999986599
210
0.0
220
-0.0000000000000002
230
-1.0
 50
239.3570682370686882
 51
270.0000000000205773
  0
ARC
  5
2453F
  8
0
  6
CONTINUOUS
 62
     0
 10
-141.6849657534785933
 20
239.700000000001296
 30
0.0
 40
14.1999999999986493
210
0.0
220
-0.0000000000000002
230
-1.0
 50
89.9999999999793658
 51
120.6429317629312976
  0
LINE
  5
24540
  8
0
  6
CONTINUOUS
 62
     0
 10
42.5002005306826618
 20
253.9000000000000057
 30
-0.0000000000000564
 11
141.6849657534735059
 21
253.899999999999892
 31
-0.0000000000000564
210
0.0000000000000002
220
1.0
230
-0.0000000000000002
  0
LINE
  5
24541
  8
0
  6
CONTINUOUS
 62
     0
 10
42.5002005306826405
 20
146.1000000000001933
 30
-0.0000000000000324
 11
141.6849657534733922
 21
146.100000000000108
 31
-0.0000000000000324
210
0.0000000000000002
220
1.0
230
-0.0000000000000002
  0
ARC
  5
24542
  8
0
  6
CONTINUOUS
 62
     0
 10
-42.5002005306823705
 20
133.299999999998704
 30
0.0
 40
12.8000000000012104
210
0.0
220
-0.0000000000000002
230
-1.0
 50
63.1119523822805277
 51
90.0000000000011511
  0
ARC
  5
24543
  8
0
  6
CONTINUOUS
 62
     0
 10
-42.5002005306824273
 20
266.700000000001296
 30
0.0
 40
12.80000000000115
210
0.0
220
-0.0000000000000002
230
-1.0
 50
270.0
 51
296.8880476177207015
  0
ARC
  5
24544
  8
0
  6
CONTINUOUS
 62
     0
 10
-25.7670000000008592
 20
166.3000000000010061
 30
0.0
 40
24.2000000000007987
210
0.0
220
-0.0000000000000002
230
-1.0
 50
243.1119523822758879
 51
269.9999999999992042
  0
ARC
  5
24545
  8
0
  6
CONTINUOUS
 62
     0
 10
-25.7670000000010901
 20
233.6999999999997044
 30
0.0
 40
24.2000000000002302
210
0.0
220
-0.0000000000000002
230
-1.0
 50
90.0000000000004263
 51
116.8880476177241974
  0
LINE
  5
24546
  8
0
  6
CONTINUOUS
 62
     0
 10
13.0000000000000497
 20
257.9000000000000909
 30
-0.0000000000000573
 11
25.76700000000125
 21
257.9000000000000909
 31
-0.0000000000000573
210
0.0000000000000002
220
1.0
230
-0.0000000000000002
  0
LINE
  5
24547
  8
0
  6
CONTINUOUS
 62
     0
 10
13.0000000000000302
 20
142.0999999999999091
 30
-0.0000000000000316
 11
25.7670000000012109
 21
142.0999999999999091
 31
-0.0000000000000316
210
0.0000000000000002
220
1.0
230
-0.0000000000000002
  0
LINE
  5
24548
  8
0
  6
CONTINUOUS
 62
     0
 10
-1.9999999999988569
 20
254.2875693444443925
 30
-0.0000000000000565
 11
-0.0000000000000552
 21
255.2201846607538016
 31
-0.0000000000000567
210
0.0000000000000002
220
1.0
230
-0.0000000000000002
  0
LINE
  5
24549
  8
0
  6
CONTINUOUS
 62
     0
 10
-1.9999999999988951
 20
145.7124306555558064
 30
-0.0000000000000324
 11
-0.0000000000000733
 21
144.7798153392463973
 31
-0.0000000000000321
210
0.0000000000000002
220
1.0
230
-0.0000000000000002
  0
LINE
  5
2454A
  8
0
  6
CONTINUOUS
 62
     0
 10
398.0000000000014779
 20
150.0748866352585082
 30
-0.0000000000000333
 11
388.043494799842108
 21
149.2038053019080905
 31
-0.0000000000000331
210
0.0000000000000002
220
1.0
230
-0.0000000000000002
  0
LINE
  5
2454B
  8
0
  6
CONTINUOUS
 62
     0
 10
398.0000000000014779
 20
249.9251133647414065
 30
-0.0000000000000555
 11
388.043494799842108
 21
250.7961946980917105
 31
-0.0000000000000557
210
0.0000000000000002
220
1.0
230
-0.0000000000000002
  0
ARC
  5
2454C
  8
0
  6
CONTINUOUS
 62
     0
 10
-387.9563390570945103
 20
150.200000000003314
 30
0.0
 40
1.0000000000034071
210
0.0
220
-0.0000000000000002
230
-1.0
 50
265.0000000000172804
 51
269.9999999999968168
  0
ARC
  5
2454D
  8
0
  6
CONTINUOUS
 62
     0
 10
-387.9563390570945103
 20
249.7999999999964871
 30
0.0
 40
1.0000000000034099
210
0.0
220
-0.0000000000000002
230
-1.0
 50
90.0000000000032827
 51
94.9999999999827338
  0
LINE
  5
2454E
  8
0
  6
CONTINUOUS
 62
     0
 10
153.0000000000011084
 20
250.8000000000000114
 30
-0.0000000000000557
 11
387.9563390570945103
 21
250.7999999999998977
 31
-0.0000000000000557
210
0.0000000000000002
220
1.0
230
-0.0000000000000002
  0
LINE
  5
2454F
  8
0
  6
CONTINUOUS
 62
     0
 10
153.0000000000009948
 20
149.1999999999999886
 30
-0.0000000000000331
 11
387.9563390570945103
 21
149.1999999999999034
 31
-0.0000000000000331
210
0.0000000000000002
220
1.0
230
-0.0000000000000002
  0
LINE
  5
24550
  8
0
  6
CONTINUOUS
 62
     0
 10
13.0000000000000604
 20
258.9957448045752813
 30
-0.0000000000000575
 11
13.0000000000000302
 21
141.004255195424804
 31
-0.0000000000000313
210
0.0000000000000002
220
1.0
230
-0.0000000000000002
  0
LINE
  5
24551
  8
0
  6
CONTINUOUS
 62
     0
 10
-0.000000000000033
 20
380.0000000000001137
 30
-0.0000000000000844
 11
-0.0000000000000249
 21
400.0
 31
-0.0000000000000888
210
0.0000000000000002
220
1.0
230
-0.0000000000000002
  0
LINE
  5
24552
  8
0
  6
CONTINUOUS
 62
     0
 10
0.9999999999998614
 20
400.0
 30
-0.0000000000000888
 11
0.9999999999998532
 21
380.0000000000001137
 31
-0.0000000000000844
210
0.0000000000000002
220
1.0
230
-0.0000000000000002
  0
LINE
  5
24553
  8
0
  6
CONTINUOUS
 62
     0
 10
0.9999999999999751
 20
400.0
 30
-0.0000000000000888
 11
-0.0000000000000249
 21
400.0
 31
-0.0000000000000888
210
0.0000000000000002
220
1.0
230
-0.0000000000000002
  0
LINE
  5
24554
  8
0
  6
CONTINUOUS
 62
     0
 10
0.9999999999999706
 20
380.0000000000001137
 30
-0.0000000000000844
 11
0.9999999999998908
 21
20.0
 31
-0.0000000000000044
210
0.0000000000000002
220
1.0
230
-0.0000000000000002
  0
LINE
  5
24555
  8
0
  6
CONTINUOUS
 62
     0
 10
0.9999999999997733
 20
20.0
 30
-0.0000000000000044
 11
0.9999999999997726
 21
-0.0000000000000002
 31
0.0
210
0.0000000000000002
220
1.0
230
-0.0000000000000002
  0
LINE
  5
24556
  8
0
  6
CONTINUOUS
 62
     0
 10
-0.0000000000001092
 20
20.0
 30
-0.0000000000000044
 11
-0.0000000000000293
 21
380.0000000000001137
 31
-0.0000000000000844
210
0.0000000000000002
220
1.0
230
-0.0000000000000002
  0
LINE
  5
24557
  8
0
  6
CONTINUOUS
 62
     0
 10
-0.0000000000001137
 20
0.0
 30
0.0
 11
-0.0000000000001129
 21
20.0
 31
-0.0000000000000044
210
0.0000000000000002
220
1.0
230
-0.0000000000000002
  0
LINE
  5
24558
  8
0
  6
CONTINUOUS
 62
     0
 10
-0.0000000000001137
 20
0.0
 30
0.0
 11
0.9999999999998863
 21
-0.0000000000000002
 31
0.0
210
0.0000000000000002
220
1.0
230
-0.0000000000000002
  0
LINE
  5
24559
  8
0
  6
CONTINUOUS
 62
     0
 10
13.0000000000000302
 20
141.004255195424804
 30
-0.0000000000000313
 11
1.456422128626194
 21
139.9943229951508954
 31
-0.0000000000000311
210
0.0000000000000002
220
1.0
230
-0.0000000000000002
  0
LINE
  5
2455A
  8
0
  6
CONTINUOUS
 62
     0
 10
13.0000000000000497
 20
258.9957448045752813
 30
-0.0000000000000575
 11
1.4564221286262209
 21
260.0056770048491899
 31
-0.0000000000000577
210
0.0000000000000002
220
1.0
230
-0.0000000000000002
  0
ARC
  5
2455B
  8
0
  6
CONTINUOUS
 62
     0
 10
-1.4999999999999269
 20
260.5037743538949826
 30
0.0
 40
0.4999999999998527
210
0.0
220
-0.0000000000000002
230
-1.0
 50
274.9999999999868123
 51
0.0000000000065281
  0
ARC
  5
2455C
  8
0
  6
CONTINUOUS
 62
     0
 10
-1.4999999999999469
 20
139.4962256461051027
 30
0.0
 40
0.4999999999999166
210
0.0
220
-0.0000000000000002
230
-1.0
 50
359.9999999999968168
 51
85.0000000000086544
  0
LINE
  5
2455D
  8
0
  6
VERDECKT
 62
     1
 10
-1.492858085910129
 20
146.7999999999998124
 30
-0.0000000000000326
 11
-1.4928580859100979
 21
200.0000000000001137
 31
-0.0000000000000444
210
0.0000000000000002
220
1.0
230
-0.0000000000000002
  0
LINE
  5
2455E
  8
0
  6
VERDECKT
 62
     1
 10
-1.4928580859100979
 20
200.0000000000001137
 30
-0.0000000000000444
 11
-1.4928580859100671
 21
253.2000000000003865
 31
-0.0000000000000562
210
0.0000000000000002
220
1.0
230
-0.0000000000000002
  0
LINE
  5
2455F
  8
0
  6
VERDECKT
 62
     1
 10
397.8954131087041901
 20
151.2703202729686893
 30
-0.0000000000000336
 11
397.8954131087041901
 21
199.9999990577344136
 31
-0.0000000000000444
210
0.0000000000000002
220
1.0
230
-0.0000000000000002
  0
LINE
  5
24560
  8
0
  6
VERDECKT
 62
     1
 10
397.8954131087041901
 20
199.9999990577344136
 30
-0.0000000000000444
 11
397.8954131087041901
 21
248.729679727031197
 31
-0.0000000000000552
210
0.0000000000000002
220
1.0
230
-0.0000000000000002
  0
ARC
  5
24561
  8
0
  6
VERDECKT
 62
     1
 10
-141.6849657534748133
 20
160.2999999999994998
 30
0.0
 40
12.9999999999995204
210
0.0
220
-0.0000000000000002
230
-1.0
 50
239.357068237066386
 51
270.0000000000060254
  0
ARC
  5
24562
  8
0
  6
VERDECKT
 62
     1
 10
-141.6849657534748133
 20
239.7000000000006139
 30
0.0
 40
12.9999999999995204
210
0.0
220
-0.0000000000000002
230
-1.0
 50
89.999999999994003
 51
120.6429317629335003
  0
ARC
  5
24563
  8
0
  6
VERDECKT
 62
     1
 10
-152.9999999999972999
 20
141.2000000000006992
 30
0.0
 40
9.1999999999989281
210
0.0
220
-0.0000000000000002
230
-1.0
 50
59.3570682370583
 51
90.0000000000232063
  0
ARC
  5
24564
  8
0
  6
VERDECKT
 62
     1
 10
-152.9999999999972999
 20
258.7999999999992724
 30
0.0
 40
9.1999999999989104
210
0.0
220
-0.0000000000000002
230
-1.0
 50
270.0
 51
300.64293176296502
  0
LINE
  5
24565
  8
0
  6
VERDECKT
 62
     1
 10
42.5002005306826618
 20
252.7000000000001023
 30
-0.0000000000000561
 11
141.6849657534735059
 21
252.7000000000001023
 31
-0.0000000000000561
210
0.0000000000000002
220
1.0
230
-0.0000000000000002
  0
LINE
  5
24566
  8
0
  6
VERDECKT
 62
     1
 10
42.5002005306826405
 20
147.3000000000000114
 30
-0.0000000000000327
 11
141.6849657534733922
 21
147.3000000000000114
 31
-0.0000000000000327
210
0.0000000000000002
220
1.0
230
-0.0000000000000002
  0
LINE
  5
24567
  8
0
  6
VERDECKT
 62
     1
 10
11.1118933766610493
 20
257.9000000000000909
 30
-0.0000000000000573
 11
13.0000000000000497
 21
257.9000000000000909
 31
-0.0000000000000573
210
0.0000000000000002
220
1.0
230
-0.0000000000000002
  0
LINE
  5
24568
  8
0
  6
VERDECKT
 62
     1
 10
11.1118933766610102
 20
142.0999999999999091
 30
-0.0000000000000316
 11
13.0000000000000302
 21
142.0999999999999091
 31
-0.0000000000000316
210
0.0000000000000002
220
1.0
230
-0.0000000000000002
  0
ARC
  5
24569
  8
0
  6
VERDECKT
 62
     1
 10
-11.1118933766610706
 20
166.3000000000002956
 30
0.0
 40
24.200000000000589
210
0.0
220
-0.0000000000000002
230
-1.0
 50
270.0
 51
294.9999999999997158
  0
ARC
  5
2456A
  8
0
  6
VERDECKT
 62
     1
 10
-11.1118933766615999
 20
233.6999999999976865
 30
0.0
 40
24.2000000000027313
210
0.0
220
-0.0000000000000002
230
-1.0
 50
65.0000000000012932
 51
89.9999999999987068
  0
LINE
  5
2456B
  8
0
  6
VERDECKT
 62
     1
 10
-0.0000000000000552
 20
255.2201846607538016
 30
-0.0000000000000567
 11
0.8845314425360594
 21
255.6326484462871917
 31
-0.0000000000000568
210
0.0000000000000002
220
1.0
230
-0.0000000000000002
  0
LINE
  5
2456C
  8
0
  6
VERDECKT
 62
     1
 10
-0.0000000000000733
 20
144.7798153392463973
 30
-0.0000000000000321
 11
0.8845314425360215
 21
144.3673515537128935
 31
-0.0000000000000321
210
0.0000000000000002
220
1.0
230
-0.0000000000000002
  0
LINE
  5
2456D
  8
0
  6
VERDECKT
 62
     1
 10
-1.492858085910117
 20
146.7999999999998124
 30
-0.0000000000000326
 11
-1.9999999999989511
 21
145.7124306555556927
 31
-0.0000000000000324
210
0.0000000000000002
220
1.0
230
-0.0000000000000002
  0
LINE
  5
2456E
  8
0
  6
VERDECKT
 62
     1
 10
-1.49285808591008
 20
253.2000000000003865
 30
-0.0000000000000562
 11
-1.9999999999989131
 21
254.2875693444445062
 31
-0.0000000000000565
210
0.0000000000000002
220
1.0
230
-0.0000000000000002
  0
LINE
  5
2456F
  8
0
  6
VERDECKT
 62
     1
 10
-1.4928580859100291
 20
253.2000000000003013
 30
-0.0000000000000562
 11
1.391673356624898
 21
254.5450791018431005
 31
-0.0000000000000565
210
0.0000000000000002
220
1.0
230
-0.0000000000000002
  0
LINE
  5
24570
  8
0
  6
VERDECKT
 62
     1
 10
-1.4928580859100651
 20
146.7999999999998977
 30
-0.0000000000000326
 11
1.39167335662486
 21
145.4549208981570132
 31
-0.0000000000000323
210
0.0000000000000002
220
1.0
230
-0.0000000000000002
  0
ARC
  5
24571
  8
0
  6
VERDECKT
 62
     1
 10
-11.1118933766603796
 20
166.2999999999989029
 30
0.0
 40
22.99999999999892
210
0.0
220
-0.0000000000000002
230
-1.0
 50
270.0
 51
295.0000000000014211
  0
ARC
  5
24572
  8
0
  6
VERDECKT
 62
     1
 10
-11.1118933766608396
 20
233.6999999999995907
 30
0.0
 40
23.0000000000005684
210
0.0
220
-0.0000000000000002
230
-1.0
 50
65.0000000000009521
 51
90.0000000000004832
  0
LINE
  5
24573
  8
0
  6
VERDECKT
 62
     1
 10
11.1118933766610493
 20
256.7000000000001023
 30
-0.000000000000057
 11
25.76700000000125
 21
256.7000000000001023
 31
-0.000000000000057
210
0.0000000000000002
220
1.0
230
-0.0000000000000002
  0
LINE
  5
24574
  8
0
  6
VERDECKT
 62
     1
 10
11.1118933766610102
 20
143.3000000000000114
 30
-0.0000000000000318
 11
25.7670000000012109
 21
143.3000000000000114
 31
-0.0000000000000318
210
0.0000000000000002
220
1.0
230
-0.0000000000000002
  0
ARC
  5
24575
  8
0
  6
VERDECKT
 62
     1
 10
-25.7670000000024402
 20
166.2999999999966008
 30
0.0
 40
22.9999999999964011
210
0.0
220
-0.0000000000000002
230
-1.0
 50
243.1119523822754047
 51
270.0000000000031264
  0
ARC
  5
24576
  8
0
  6
VERDECKT
 62
     1
 10
-25.7670000000028914
 20
233.7000000000049909
 30
0.0
 40
22.9999999999948592
210
0.0
220
-0.0000000000000002
230
-1.0
 50
89.9999999999959357
 51
116.8880476177253058
  0
ARC
  5
24577
  8
0
  6
VERDECKT
 62
     1
 10
-42.5002005306823918
 20
133.3000000000010914
 30
0.0
 40
13.9999999999988596
210
0.0
220
-0.0000000000000002
230
-1.0
 50
63.1119523822740618
 51
90.0000000000008953
  0
ARC
  5
24578
  8
0
  6
VERDECKT
 62
     1
 10
-42.5002005306824273
 20
266.6999999999989086
 30
0.0
 40
13.99999999999884
210
0.0
220
-0.0000000000000002
230
-1.0
 50
270.0
 51
296.8880476177270111
  0
LINE
  5
24579
  8
0
  6
VERDECKT
 62
     1
 10
398.0000000000014211
 20
150.0748866352587072
 30
-0.0000000000000333
 11
397.8954131087043038
 21
151.2703202729684051
 31
-0.0000000000000336
210
0.0000000000000002
220
1.0
230
-0.0000000000000002
  0
LINE
  5
2457A
  8
0
  6
VERDECKT
 62
     1
 10
397.8954131087043038
 20
248.7296797270313959
 30
-0.0000000000000552
 11
398.0000000000014211
 21
249.9251133647410938
 31
-0.0000000000000555
210
0.0000000000000002
220
1.0
230
-0.0000000000000002
  0
LINE
  5
2457B
  8
0
  6
VERDECKT
 62
     1
 10
397.8954131087043038
 20
151.270320272968803
 30
-0.0000000000000336
 11
387.9912017850851953
 21
150.4038053777393031
 31
-0.0000000000000334
210
0.0000000000000002
220
1.0
230
-0.0000000000000002
  0
LINE
  5
2457C
  8
0
  6
VERDECKT
 62
     1
 10
397.8954131087043038
 20
248.7296797270311117
 30
-0.0000000000000552
 11
387.9912017850851953
 21
249.5961946222604979
 31
-0.0000000000000554
210
0.0000000000000002
220
1.0
230
-0.0000000000000002
  0
ARC
  5
2457D
  8
0
  6
VERDECKT
 62
     1
 10
-387.9040451755856225
 20
151.3999999999959982
 30
0.0
 40
0.9999999999963053
210
0.0
220
-0.0000000000000002
230
-1.0
 50
264.9999501490585203
 51
270.0000000000163141
  0
ARC
  5
2457E
  8
0
  6
VERDECKT
 62
     1
 10
-387.9040451755856225
 20
248.6000000000038028
 30
0.0
 40
0.9999999999963053
210
0.0
220
-0.0000000000000002
230
-1.0
 50
89.9999999999837144
 51
95.000049850941565
  0
LINE
  5
2457F
  8
0
  6
VERDECKT
 62
     1
 10
153.0000000000011084
 20
249.6000000000001933
 30
-0.0000000000000554
 11
387.9040451755852814
 21
249.600000000000108
 31
-0.0000000000000554
210
0.0000000000000002
220
1.0
230
-0.0000000000000002
  0
LINE
  5
24580
  8
0
  6
VERDECKT
 62
     1
 10
153.0000000000009948
 20
150.3999999999998067
 30
-0.0000000000000334
 11
387.9040451755852814
 21
150.399999999999693
 31
-0.0000000000000334
210
0.0000000000000002
220
1.0
230
-0.0000000000000002
  0
LINE
  5
24581
  8
0
  6
VERDECKT
 62
     1
 10
12.9128442572524005
 20
257.9995501064835821
 30
-0.0000000000000573
 11
12.9128442572523792
 21
142.0004498935165032
 31
-0.0000000000000315
210
0.0000000000000002
220
1.0
230
-0.0000000000000002
  0
ARC
  5
24582
  8
0
  6
VERDECKT
 62
     1
 10
-1.500000000000153
 20
260.5037743538950963
 30
0.0
 40
1.5000000000000471
210
0.0
220
-0.0000000000000002
230
-1.0
 50
275.00000000000108
 51
359.9999999999977831
  0
ARC
  5
24583
  8
0
  6
VERDECKT
 62
     1
 10
-1.5000000000000719
 20
139.496225646104989
 30
0.0
 40
1.4999999999999709
210
0.0
220
-0.0000000000000002
230
-1.0
 50
0.0000000000000127
 51
85.000000000000739
  0
LINE
  5
24584
  8
0
  6
VERDECKT
 62
     1
 10
12.9128442572523792
 20
142.0004498935165032
 30
-0.0000000000000315
 11
1.3692663858786061
 21
140.9905176932425945
 31
-0.0000000000000313
210
0.0000000000000002
220
1.0
230
-0.0000000000000002
  0
LINE
  5
24585
  8
0
  6
VERDECKT
 62
     1
 10
12.9128442572524005
 20
257.9995501064835821
 30
-0.0000000000000573
 11
1.369266385878632
 21
259.009482306757377
 31
-0.0000000000000575
210
0.0000000000000002
220
1.0
230
-0.0000000000000002
  0
LINE
  5
24586
  8
0
  6
VERDECKT
 62
     1
 10
12.9128442572524005
 20
257.9995501064835821
 30
-0.0000000000000573
 11
13.0000000000000604
 21
258.9957448045752813
 31
-0.0000000000000575
210
0.0000000000000002
220
1.0
230
-0.0000000000000002
  0
LINE
  5
24587
  8
0
  6
VERDECKT
 62
     1
 10
12.9128442572523792
 20
142.0004498935165032
 30
-0.0000000000000315
 11
13.0000000000000302
 21
141.004255195424804
 31
-0.0000000000000313
210
0.0000000000000002
220
1.0
230
-0.0000000000000002
  0
LINE
  5
24588
  8
0
  6
VERDECKT
 62
     1
 10
0.9999999999997763
 20
17.0
 30
-0.0000000000000038
 11
-0.0000000000001099
 21
17.0
 31
-0.0000000000000038
210
0.0000000000000002
220
1.0
230
-0.0000000000000002
  0
LINE
  5
24589
  8
0
  6
VERDECKT
 62
     1
 10
0.9999999999997777
 20
23.0
 30
-0.0000000000000051
 11
-0.0000000000001086
 21
23.0
 31
-0.0000000000000051
210
0.0000000000000002
220
1.0
230
-0.0000000000000002
  0
LINE
  5
2458A
  8
0
  6
VERDECKT
 62
     1
 10
-0.0000000000000286
 20
383.0000000000002274
 30
-0.000000000000085
 11
0.9999999999998577
 21
383.0000000000002274
 31
-0.000000000000085
210
0.0000000000000002
220
1.0
230
-0.0000000000000002
  0
LINE
  5
2458B
  8
0
  6
VERDECKT
 62
     1
 10
-0.00000000000003
 20
377.0000000000002274
 30
-0.0000000000000837
 11
0.9999999999998562
 21
377.0000000000002274
 31
-0.0000000000000837
210
0.0000000000000002
220
1.0
230
-0.0000000000000002
  0
ENDBLK
  5
2458D
  8
0
  0
BLOCK
  8
0
  2
A$C4A2B6461
 70
     0
 10
0.0
 20
0.0
 30
0.0
  3
A$C4A2B6461
  1

  0
LINE
  5
24591
  8
0
  6
CONTINUOUS
 62
     0
 10
-124.2875693444445062
 20
-1.9999999999989759
 30
0.0
 11
-15.7124306555558295
 21
-1.9999999999989759
 31
0.0
  0
LINE
  5
24592
  8
0
  6
CONTINUOUS
 62
     0
 10
-119.9251133647405965
 20
398.0000000000014211
 30
0.0
 11
-20.07488663525859
 21
398.0000000000014211
 31
0.0
  0
ARC
  5
24593
  8
0
  6
CONTINUOUS
 62
     0
 10
-11.2000000000026301
 20
153.0000000000007958
 30
0.0
 40
7.9999999999976117
 50
179.9999999999986073
 51
210.642931762954305
  0
ARC
  5
24594
  8
0
  6
CONTINUOUS
 62
     0
 10
-128.7999999999977092
 20
153.0000000000007958
 30
0.0
 40
7.9999999999975842
 50
329.3570682370456097
 51
0.0000000000014249
  0
ARC
  5
24595
  8
0
  6
CONTINUOUS
 62
     0
 10
-30.2999999999989811
 20
141.6849657534785081
 30
0.0
 40
14.1999999999986404
 50
359.9999999999794227
 51
30.6429317629313402
  0
ARC
  5
24596
  8
0
  6
CONTINUOUS
 62
     0
 10
-109.7000000000013955
 20
141.6849657534785081
 30
0.0
 40
14.1999999999986404
 50
149.3570682370686882
 51
180.0000000000206057
  0
LINE
  5
24597
  8
0
  6
CONTINUOUS
 62
     0
 10
-16.1000000000003283
 20
141.6849657534733922
 30
0.0
 11
-16.1000000000003283
 21
42.5002005306826121
 31
0.0
  0
LINE
  5
24598
  8
0
  6
CONTINUOUS
 62
     0
 10
-123.9000000000000057
 20
141.6849657534733922
 30
0.0
 11
-123.9000000000000057
 21
42.5002005306826121
 31
0.0
  0
ARC
  5
24599
  8
0
  6
CONTINUOUS
 62
     0
 10
-3.299999999998759
 20
42.5002005306823776
 30
0.0
 40
12.8000000000013507
 50
179.9999999999990052
 51
206.8880476177193088
  0
ARC
  5
2459A
  8
0
  6
CONTINUOUS
 62
     0
 10
-136.7000000000016939
 20
42.5002005306823918
 30
0.0
 40
12.8000000000014005
 50
333.1119523822808901
 51
0.0000000000009669
  0
ARC
  5
2459B
  8
0
  6
CONTINUOUS
 62
     0
 10
-36.3000000000016172
 20
25.76700000000071
 30
0.0
 40
24.2000000000012889
 50
0.000000000001145
 51
26.8880476177238705
  0
ARC
  5
2459C
  8
0
  6
CONTINUOUS
 62
     0
 10
-103.6999999999987949
 20
25.7670000000007313
 30
0.0
 40
24.2000000000012108
 50
153.1119523822760868
 51
179.9999999999988916
  0
LINE
  5
2459D
  8
0
  6
CONTINUOUS
 62
     0
 10
-12.1000000000001098
 20
25.7670000000011896
 30
0.0
 11
-12.1000000000001098
 21
13.0000000000000409
 31
0.0
  0
LINE
  5
2459E
  8
0
  6
CONTINUOUS
 62
     0
 10
-127.9000000000003041
 20
25.7670000000011896
 30
0.0
 11
-127.9000000000003041
 21
13.0000000000000693
 31
0.0
  0
LINE
  5
2459F
  8
0
  6
CONTINUOUS
 62
     0
 10
-124.2875693444444067
 20
-1.99999999999892
 30
0.0
 11
-125.2201846607539011
 21
-0.000000000000036
 31
0.0
  0
LINE
  5
245A0
  8
0
  6
CONTINUOUS
 62
     0
 10
-15.7124306555559503
 20
-1.99999999999892
 30
0.0
 11
-14.7798153392465004
 21
-0.0000000000000586
 31
0.0
  0
LINE
  5
245A1
  8
0
  6
CONTINUOUS
 62
     0
 10
-20.0748866352582382
 20
398.0000000000014211
 30
0.0
 11
-19.2038053019079094
 21
388.043494799842108
 31
0.0
  0
LINE
  5
245A2
  8
0
  6
CONTINUOUS
 62
     0
 10
-119.9251133647409944
 20
398.0000000000014211
 30
0.0
 11
-120.7961946980912984
 21
388.043494799842108
 31
0.0
  0
ARC
  5
245A3
  8
0
  6
CONTINUOUS
 62
     0
 10
-20.2000000000012108
 20
387.9563390570943966
 30
0.0
 40
1.000000000001549
 50
0.0000000000032823
 51
4.9999999999920552
  0
ARC
  5
245A4
  8
0
  6
CONTINUOUS
 62
     0
 10
-119.7999999999962029
 20
387.9563390570943966
 30
0.0
 40
1.0000000000034099
 50
175.0000000000173088
 51
179.9999999999967031
  0
LINE
  5
245A5
  8
0
  6
CONTINUOUS
 62
     0
 10
-19.1999999999996582
 20
387.9563390570943966
 30
0.0
 11
-19.1999999999996582
 21
153.0000000000009948
 31
0.0
  0
LINE
  5
245A6
  8
0
  6
CONTINUOUS
 62
     0
 10
-120.7999999999995993
 20
387.9563390570945103
 30
0.0
 11
-120.7999999999995993
 21
153.0000000000009948
 31
0.0
  0
LINE
  5
245A7
  8
0
  6
CONTINUOUS
 62
     0
 10
124.2875693444447052
 20
-1.9999999999989759
 30
0.0
 11
15.7124306555559805
 21
-1.9999999999989759
 31
0.0
  0
LINE
  5
245A8
  8
0
  6
CONTINUOUS
 62
     0
 10
119.9251133647407954
 20
398.0000000000014211
 30
0.0
 11
20.0748866352587392
 21
398.0000000000014211
 31
0.0
  0
ARC
  5
245A9
  8
0
  6
CONTINUOUS
 62
     0
 10
128.7999999999977945
 20
153.0000000000007958
 30
0.0
 40
7.9999999999975859
 50
179.9999999999986073
 51
210.6429317629543903
  0
ARC
  5
245AA
  8
0
  6
CONTINUOUS
 62
     0
 10
11.2000000000027793
 20
153.0000000000007958
 30
0.0
 40
7.999999999997609
 50
329.3570682370457234
 51
0.0000000000014249
  0
ARC
  5
245AB
  8
0
  6
CONTINUOUS
 62
     0
 10
109.700000000001495
 20
141.6849657534785081
 30
0.0
 40
14.1999999999986404
 50
359.9999999999794227
 51
30.6429317629313402
  0
ARC
  5
245AC
  8
0
  6
CONTINUOUS
 62
     0
 10
30.2999999999990699
 20
141.6849657534785081
 30
0.0
 40
14.1999999999985906
 50
149.3570682370686882
 51
180.000000000020691
  0
LINE
  5
245AD
  8
0
  6
CONTINUOUS
 62
     0
 10
16.100000000000481
 20
42.5002005306826121
 30
0.0
 11
16.100000000000481
 21
141.6849657534733922
 31
0.0
  0
LINE
  5
245AE
  8
0
  6
CONTINUOUS
 62
     0
 10
123.9000000000002046
 20
42.5002005306826121
 30
0.0
 11
123.9000000000002046
 21
141.6849657534733922
 31
0.0
  0
ARC
  5
245AF
  8
0
  6
CONTINUOUS
 62
     0
 10
136.7000000000016087
 20
42.5002005306823492
 30
0.0
 40
12.8000000000011696
 50
179.9999999999988063
 51
206.8880476177195078
  0
ARC
  5
245B0
  8
0
  6
CONTINUOUS
 62
     0
 10
3.2999999999989398
 20
42.5002005306823705
 30
0.0
 40
12.8000000000013099
 50
333.1119523822807196
 51
0.0000000000010178
  0
ARC
  5
245B1
  8
0
  6
CONTINUOUS
 62
     0
 10
103.6999999999988944
 20
25.76700000000071
 30
0.0
 40
24.2000000000013316
 50
0.0000000000011196
 51
26.8880476177238101
  0
ARC
  5
245B2
  8
0
  6
CONTINUOUS
 62
     0
 10
36.3000000000017167
 20
25.7670000000007207
 30
0.0
 40
24.2000000000012392
 50
153.1119523822760868
 51
179.9999999999988916
  0
LINE
  5
245B3
  8
0
  6
CONTINUOUS
 62
     0
 10
12.1000000000002501
 20
13.0000000000000107
 30
0.0
 11
12.1000000000002501
 21
25.7670000000011896
 31
0.0
  0
LINE
  5
245B4
  8
0
  6
CONTINUOUS
 62
     0
 10
127.9000000000004036
 20
12.9999999999999893
 30
0.0
 11
127.9000000000004036
 21
25.7670000000011896
 31
0.0
  0
LINE
  5
245B5
  8
0
  6
CONTINUOUS
 62
     0
 10
15.7124306555560906
 20
-1.99999999999892
 30
0.0
 11
14.7798153392466496
 21
-0.0000000000000657
 31
0.0
  0
LINE
  5
245B6
  8
0
  6
CONTINUOUS
 62
     0
 10
124.2875693444446057
 20
-1.99999999999892
 30
0.0
 11
125.2201846607540006
 21
-0.0000000000000984
 31
0.0
  0
LINE
  5
245B7
  8
0
  6
CONTINUOUS
 62
     0
 10
119.9251133647410938
 20
398.0000000000014211
 30
0.0
 11
120.7961946980914973
 21
388.043494799842108
 31
0.0
  0
LINE
  5
245B8
  8
0
  6
CONTINUOUS
 62
     0
 10
20.074886635258391
 20
398.0000000000014211
 30
0.0
 11
19.2038053019080515
 21
388.043494799842108
 31
0.0
  0
ARC
  5
245B9
  8
0
  6
CONTINUOUS
 62
     0
 10
119.7999999999963023
 20
387.9563390570943966
 30
0.0
 40
1.0000000000034071
 50
0.0000000000032314
 51
4.9999999999826921
  0
ARC
  5
245BA
  8
0
  6
CONTINUOUS
 62
     0
 10
20.2000000000013493
 20
387.9563390570943966
 30
0.0
 40
1.0000000000015481
 50
175.0000000000079012
 51
179.9999999999967031
  0
LINE
  5
245BB
  8
0
  6
CONTINUOUS
 62
     0
 10
19.1999999999998003
 20
153.0000000000009948
 30
0.0
 11
19.1999999999998003
 21
387.9563390570943966
 31
0.0
  0
LINE
  5
245BC
  8
0
  6
CONTINUOUS
 62
     0
 10
120.7999999999996987
 20
153.0000000000009948
 30
0.0
 11
120.7999999999996987
 21
387.9563390570945103
 31
0.0
  0
LINE
  5
245BD
  8
0
  6
CONTINUOUS
 62
     0
 10
-128.9957448045757928
 20
13.0000000000000693
 30
0.0
 11
-11.0042551954254009
 21
13.0000000000000409
 31
0.0
  0
LINE
  5
245BE
  8
0
  6
CONTINUOUS
 62
     0
 10
11.0042551954241805
 20
13.0000000000000107
 30
0.0
 11
128.9957448045745991
 21
12.9999999999999893
 31
0.0
  0
LINE
  5
245BF
  8
0
  6
CONTINUOUS
 62
     0
 10
270.0000000000001137
 20
-0.0000000000001174
 30
0.0
 11
250.0000000000001137
 21
-0.0000000000001137
 31
0.0
  0
LINE
  5
245C0
  8
0
  6
CONTINUOUS
 62
     0
 10
270.0000000000001137
 20
-0.0000000000001137
 30
0.0
 11
270.0000000000001137
 21
0.9999999999998863
 31
0.0
  0
LINE
  5
245C1
  8
0
  6
CONTINUOUS
 62
     0
 10
250.0000000000001137
 20
0.9999999999997726
 30
0.0
 11
270.0000000000001137
 21
0.9999999999997689
 31
0.0
  0
LINE
  5
245C2
  8
0
  6
CONTINUOUS
 62
     0
 10
-269.9999999999998863
 20
0.99999999999989
 30
0.0
 11
-250.0
 21
0.9999999999998863
 31
0.0
  0
LINE
  5
245C3
  8
0
  6
CONTINUOUS
 62
     0
 10
-250.0
 20
1.0
 30
0.0
 11
250.0
 21
0.9999999999999081
 31
0.0
  0
LINE
  5
245C4
  8
0
  6
CONTINUOUS
 62
     0
 10
-250.0
 20
0.0
 30
0.0
 11
-269.9999999999998863
 21
0.0000000000000037
 31
0.0
  0
LINE
  5
245C5
  8
0
  6
CONTINUOUS
 62
     0
 10
-269.9999999999998863
 20
1.0
 30
0.0
 11
-269.9999999999998863
 21
0.0
 31
0.0
  0
LINE
  5
245C6
  8
0
  6
CONTINUOUS
 62
     0
 10
250.0000000000001137
 20
-0.0000000000001137
 30
0.0
 11
-249.9999999999998863
 21
-0.0000000000000218
 31
0.0
  0
LINE
  5
245C7
  8
0
  6
CONTINUOUS
 62
     0
 10
-11.0042551954254204
 20
13.0000000000000409
 30
0.0
 11
-9.9943229951515207
 21
1.45642212862621
 31
0.0
  0
LINE
  5
245C8
  8
0
  6
CONTINUOUS
 62
     0
 10
-128.9957448045757928
 20
13.0000000000000497
 30
0.0
 11
-130.0056770048497015
 21
1.45642212862622
 31
0.0
  0
ARC
  5
245C9
  8
0
  6
CONTINUOUS
 62
     0
 10
-130.5037743538954942
 20
1.499999999999978
 30
0.0
 40
0.4999999999999135
 50
269.9999999999968168
 51
355.0000000000080718
  0
ARC
  5
245CA
  8
0
  6
CONTINUOUS
 62
     0
 10
-9.4962256461056391
 20
1.4999999999999909
 30
0.0
 40
0.4999999999999454
 50
184.9999999999944862
 51
270.0
  0
LINE
  5
245CB
  8
0
  6
CONTINUOUS
 62
     0
 10
128.9957448045745991
 20
12.9999999999999893
 30
0.0
 11
130.0056770048485077
 21
1.4564221286261529
 31
0.0
  0
LINE
  5
245CC
  8
0
  6
CONTINUOUS
 62
     0
 10
11.0042551954242107
 20
13.0000000000000497
 30
0.0
 11
9.9943229951503003
 21
1.45642212862622
 31
0.0
  0
ARC
  5
245CD
  8
0
  6
CONTINUOUS
 62
     0
 10
9.4962256461044205
 20
1.4999999999999529
 30
0.0
 40
0.4999999999999432
 50
270.0
 51
355.0000000000111982
  0
ARC
  5
245CE
  8
0
  6
CONTINUOUS
 62
     0
 10
130.5037743538944142
 20
1.4999999999999221
 30
0.0
 40
0.4999999999999339
 50
184.9999999999930083
 51
270.0
  0
LINE
  5
245CF
  8
0
  6
VERDECKT
 62
     1
 10
-123.2000000000004007
 20
-1.492858085910143
 30
0.0
 11
-16.799999999999919
 21
-1.492858085910143
 31
0.0
  0
LINE
  5
245D0
  8
0
  6
VERDECKT
 62
     1
 10
-118.7296797270307991
 20
397.8954131087041901
 30
0.0
 11
-21.2703202729684087
 21
397.8954131087041901
 31
0.0
  0
ARC
  5
245D1
  8
0
  6
VERDECKT
 62
     1
 10
-30.3000000000000789
 20
141.6849657534746996
 30
0.0
 40
12.9999999999999201
 50
359.9999999999943725
 51
30.6429317629329212
  0
ARC
  5
245D2
  8
0
  6
VERDECKT
 62
     1
 10
-109.7000000000002018
 20
141.6849657534745859
 30
0.0
 40
13.0000000000000497
 50
149.3570682370670966
 51
180.0000000000054001
  0
ARC
  5
245D3
  8
0
  6
VERDECKT
 62
     1
 10
-11.2000000000008697
 20
152.9999999999971863
 30
0.0
 40
9.1999999999989441
 50
179.9999999999766089
 51
210.6429317629414868
  0
ARC
  5
245D4
  8
0
  6
VERDECKT
 62
     1
 10
-128.7999999999993008
 20
152.9999999999971863
 30
0.0
 40
9.1999999999987505
 50
329.3570682370582858
 51
0.0000000000014249
  0
LINE
  5
245D5
  8
0
  6
VERDECKT
 62
     1
 10
-17.3000000000001499
 20
141.6849657534733922
 30
0.0
 11
-17.3000000000001499
 21
42.5002005306826121
 31
0.0
  0
LINE
  5
245D6
  8
0
  6
VERDECKT
 62
     1
 10
-122.7000000000002018
 20
141.6849657534733922
 30
0.0
 11
-122.7000000000002018
 21
42.5002005306826121
 31
0.0
  0
LINE
  5
245D7
  8
0
  6
VERDECKT
 62
     1
 10
-12.1000000000001098
 20
13.0000000000000409
 30
0.0
 11
-12.1000000000001098
 21
11.1118933766609906
 31
0.0
  0
LINE
  5
245D8
  8
0
  6
VERDECKT
 62
     1
 10
-127.9000000000003041
 20
13.0000000000000693
 30
0.0
 11
-127.9000000000003041
 21
11.1118933766609906
 31
0.0
  0
ARC
  5
245D9
  8
0
  6
VERDECKT
 62
     1
 10
-36.3000000000007574
 20
11.1118933766610795
 30
0.0
 40
24.2000000000008804
 50
335.0000000000003979
 51
359.9999999999997726
  0
ARC
  5
245DA
  8
0
  6
VERDECKT
 62
     1
 10
-103.6999999999995055
 20
11.1118933766611008
 30
0.0
 40
24.2000000000010083
 50
180.000000000000199
 51
204.9999999999994031
  0
LINE
  5
245DB
  8
0
  6
VERDECKT
 62
     1
 10
-125.2201846607539011
 20
-0.000000000000036
 30
0.0
 11
-125.6326484462873054
 21
0.8845314425359962
 31
0.0
  0
LINE
  5
245DC
  8
0
  6
VERDECKT
 62
     1
 10
-14.7798153392465004
 20
-0.0000000000000586
 30
0.0
 11
-14.3673515537130605
 21
0.8845314425359962
 31
0.0
  0
LINE
  5
245DD
  8
0
  6
VERDECKT
 62
     1
 10
-16.799999999999919
 20
-1.492858085910143
 30
0.0
 11
-15.7124306555558295
 21
-1.9999999999989759
 31
0.0
  0
LINE
  5
245DE
  8
0
  6
VERDECKT
 62
     1
 10
-123.2000000000004007
 20
-1.492858085910143
 30
0.0
 11
-124.2875693444445062
 21
-1.9999999999989759
 31
0.0
  0
LINE
  5
245DF
  8
0
  6
VERDECKT
 62
     1
 10
-123.2000000000003013
 20
-1.4928580859100911
 30
0.0
 11
-124.5450791018432
 21
1.391673356624834
 31
0.0
  0
LINE
  5
245E0
  8
0
  6
VERDECKT
 62
     1
 10
-16.8000000000000291
 20
-1.4928580859100911
 30
0.0
 11
-15.4549208981571606
 21
1.391673356624834
 31
0.0
  0
ARC
  5
245E1
  8
0
  6
VERDECKT
 62
     1
 10
-36.2999999999991871
 20
11.1118933766604098
 30
0.0
 40
22.9999999999990408
 50
335.0000000000001137
 51
0.0000000000014249
  0
ARC
  5
245E2
  8
0
  6
VERDECKT
 62
     1
 10
-103.700000000001296
 20
11.1118933766603494
 30
0.0
 40
22.9999999999988809
 50
179.9999999999984084
 51
204.999999999999801
  0
LINE
  5
245E3
  8
0
  6
VERDECKT
 62
     1
 10
-13.3000000000001499
 20
25.7670000000011896
 30
0.0
 11
-13.3000000000001499
 21
11.1118933766609906
 31
0.0
  0
LINE
  5
245E4
  8
0
  6
VERDECKT
 62
     1
 10
-126.7000000000002018
 20
25.7670000000011896
 30
0.0
 11
-126.7000000000002018
 21
11.1118933766609906
 31
0.0
  0
ARC
  5
245E5
  8
0
  6
VERDECKT
 62
     1
 10
-36.2999999999966931
 20
25.7670000000024508
 30
0.0
 40
22.9999999999963087
 50
359.9999999999968168
 51
26.8880476177245811
  0
ARC
  5
245E6
  8
0
  6
VERDECKT
 62
     1
 10
-103.7000000000033992
 20
25.7670000000023904
 30
0.0
 40
22.9999999999965716
 50
153.1119523822756037
 51
180.000000000002899
  0
ARC
  5
245E7
  8
0
  6
VERDECKT
 62
     1
 10
-3.3000000000017589
 20
42.5002005306822497
 30
0.0
 40
13.9999999999984102
 50
179.9999999999986073
 51
206.8880476177263006
  0
ARC
  5
245E8
  8
0
  6
VERDECKT
 62
     1
 10
-136.6999999999987949
 20
42.5002005306822923
 30
0.0
 40
13.9999999999985594
 50
333.1119523822738984
 51
0.0000000000013231
  0
LINE
  5
245E9
  8
0
  6
VERDECKT
 62
     1
 10
-118.7296797270310975
 20
397.8954131087041901
 30
0.0
 11
-119.9251133647407954
 21
398.0000000000014211
 31
0.0
  0
LINE
  5
245EA
  8
0
  6
VERDECKT
 62
     1
 10
-20.0748866352584514
 20
398.0000000000014211
 30
0.0
 11
-21.2703202729681493
 21
397.8954131087041901
 31
0.0
  0
LINE
  5
245EB
  8
0
  6
VERDECKT
 62
     1
 10
-21.270320272968501
 20
397.8954131087041901
 30
0.0
 11
-20.40380537773909
 21
387.9912017850850816
 31
0.0
  0
LINE
  5
245EC
  8
0
  6
VERDECKT
 62
     1
 10
-118.7296797270306996
 20
397.8954131087041901
 30
0.0
 11
-119.5961946222601
 21
387.9912017850850816
 31
0.0
  0
ARC
  5
245ED
  8
0
  6
VERDECKT
 62
     1
 10
-21.3999999999976609
 20
387.9040451755852814
 30
0.0
 40
0.9999999999981831
 50
359.9999999999968168
 51
5.000049850945202
  0
ARC
  5
245EE
  8
0
  6
VERDECKT
 62
     1
 10
-118.5999999999960011
 20
387.9040451755851109
 30
0.0
 40
1.000000000003765
 50
174.9999501490663931
 51
179.9999999999870113
  0
LINE
  5
245EF
  8
0
  6
VERDECKT
 62
     1
 10
-20.3999999999994692
 20
387.9040451755852246
 30
0.0
 11
-20.3999999999994692
 21
153.0000000000009948
 31
0.0
  0
LINE
  5
245F0
  8
0
  6
VERDECKT
 62
     1
 10
-119.5999999999997954
 20
387.9040451755852814
 30
0.0
 11
-119.5999999999997954
 21
152.9999999999974136
 31
0.0
  0
LINE
  5
245F1
  8
0
  6
VERDECKT
 62
     1
 10
123.2000000000005997
 20
-1.492858085910143
 30
0.0
 11
16.8000000000000611
 21
-1.492858085910143
 31
0.0
  0
LINE
  5
245F2
  8
0
  6
VERDECKT
 62
     1
 10
118.729679727030998
 20
397.8954131087041901
 30
0.0
 11
21.2703202729685508
 21
397.8954131087041901
 31
0.0
  0
ARC
  5
245F3
  8
0
  6
VERDECKT
 62
     1
 10
109.7000000000003013
 20
141.6849657534745859
 30
0.0
 40
13.0000000000000693
 50
359.9999999999947136
 51
30.6429317629328715
  0
ARC
  5
245F4
  8
0
  6
VERDECKT
 62
     1
 10
30.3000000000003098
 20
141.6849657534745859
 30
0.0
 40
13.0000000000000195
 50
149.3570682370672102
 51
180.0000000000055138
  0
ARC
  5
245F5
  8
0
  6
VERDECKT
 62
     1
 10
128.7999999999993861
 20
152.9999999999971863
 30
0.0
 40
9.1999999999987505
 50
179.9999999999986073
 51
210.6429317629417994
  0
ARC
  5
245F6
  8
0
  6
VERDECKT
 62
     1
 10
11.2000000000009603
 20
152.9999999999971863
 30
0.0
 40
9.1999999999990028
 50
329.3570682370586837
 51
0.000000000023358
  0
LINE
  5
245F7
  8
0
  6
VERDECKT
 62
     1
 10
17.3000000000002885
 20
42.5002005306826121
 30
0.0
 11
17.3000000000002885
 21
141.6849657534733922
 31
0.0
  0
LINE
  5
245F8
  8
0
  6
VERDECKT
 62
     1
 10
122.7000000000004007
 20
42.5002005306826121
 30
0.0
 11
122.7000000000004007
 21
141.6849657534733922
 31
0.0
  0
LINE
  5
245F9
  8
0
  6
VERDECKT
 62
     1
 10
12.1000000000002501
 20
11.1118933766609906
 30
0.0
 11
12.1000000000002501
 21
13.0000000000000107
 31
0.0
  0
LINE
  5
245FA
  8
0
  6
VERDECKT
 62
     1
 10
127.9000000000004036
 20
11.1118933766609906
 30
0.0
 11
127.9000000000004036
 21
12.9999999999999893
 31
0.0
  0
ARC
  5
245FB
  8
0
  6
VERDECKT
 62
     1
 10
103.6999999999996049
 20
11.1118933766611008
 30
0.0
 40
24.2000000000009905
 50
335.0000000000005116
 51
359.9999999999997158
  0
ARC
  5
245FC
  8
0
  6
VERDECKT
 62
     1
 10
36.3000000000010417
 20
11.1118933766611097
 30
0.0
 40
24.2000000000010189
 50
180.0000000000003126
 51
204.9999999999994884
  0
LINE
  5
245FD
  8
0
  6
VERDECKT
 62
     1
 10
14.7798153392466496
 20
-0.0000000000000657
 30
0.0
 11
14.3673515537132008
 21
0.8845314425359962
 31
0.0
  0
LINE
  5
245FE
  8
0
  6
VERDECKT
 62
     1
 10
125.2201846607540006
 20
-0.0000000000000984
 30
0.0
 11
125.6326484462874049
 21
0.8845314425359962
 31
0.0
  0
LINE
  5
245FF
  8
0
  6
VERDECKT
 62
     1
 10
123.2000000000005997
 20
-1.492858085910143
 30
0.0
 11
124.2875693444447052
 21
-1.9999999999989759
 31
0.0
  0
LINE
  5
24600
  8
0
  6
VERDECKT
 62
     1
 10
16.8000000000000611
 20
-1.492858085910143
 30
0.0
 11
15.7124306555559805
 21
-1.9999999999989759
 31
0.0
  0
LINE
  5
24601
  8
0
  6
VERDECKT
 62
     1
 10
16.8000000000001783
 20
-1.4928580859100911
 30
0.0
 11
15.4549208981572992
 21
1.391673356624834
 31
0.0
  0
LINE
  5
24602
  8
0
  6
VERDECKT
 62
     1
 10
123.2000000000005002
 20
-1.4928580859100911
 30
0.0
 11
124.5450791018433989
 21
1.391673356624834
 31
0.0
  0
ARC
  5
24603
  8
0
  6
VERDECKT
 62
     1
 10
103.700000000001495
 20
11.1118933766603405
 30
0.0
 40
22.9999999999988916
 50
335.0000000000002274
 51
0.0000000000016284
  0
ARC
  5
24604
  8
0
  6
VERDECKT
 62
     1
 10
36.2999999999993221
 20
11.1118933766604098
 30
0.0
 40
22.9999999999990301
 50
179.9999999999986073
 51
204.999999999999801
  0
LINE
  5
24605
  8
0
  6
VERDECKT
 62
     1
 10
13.3000000000002903
 20
11.1118933766609906
 30
0.0
 11
13.3000000000002903
 21
25.7670000000011896
 31
0.0
  0
LINE
  5
24606
  8
0
  6
VERDECKT
 62
     1
 10
126.7000000000004007
 20
11.1118933766609906
 30
0.0
 11
126.7000000000004007
 21
25.7670000000011896
 31
0.0
  0
ARC
  5
24607
  8
0
  6
VERDECKT
 62
     1
 10
103.7000000000040956
 20
25.7670000000025112
 30
0.0
 40
22.9999999999960707
 50
359.9999999999968168
 51
26.8880476177247303
  0
ARC
  5
24608
  8
0
  6
VERDECKT
 62
     1
 10
36.2999999999969276
 20
25.7670000000024402
 30
0.0
 40
22.9999999999964011
 50
153.1119523822754047
 51
180.000000000003098
  0
ARC
  5
24609
  8
0
  6
VERDECKT
 62
     1
 10
136.6999999999987097
 20
42.5002005306822426
 30
0.0
 40
13.9999999999983302
 50
179.9999999999984936
 51
206.8880476177263859
  0
ARC
  5
2460A
  8
0
  6
VERDECKT
 62
     1
 10
3.300000000002032
 20
42.500200530682207
 30
0.0
 40
13.9999999999982805
 50
333.1119523822736141
 51
0.0000000000016284
  0
LINE
  5
2460B
  8
0
  6
VERDECKT
 62
     1
 10
119.9251133647408949
 20
398.0000000000014211
 30
0.0
 11
118.729679727031197
 21
397.8954131087041901
 31
0.0
  0
LINE
  5
2460C
  8
0
  6
VERDECKT
 62
     1
 10
21.2703202729682914
 20
397.8954131087043038
 30
0.0
 11
20.0748866352586006
 21
398.0000000000014211
 31
0.0
  0
LINE
  5
2460D
  8
0
  6
VERDECKT
 62
     1
 10
118.7296797270308986
 20
397.8954131087041901
 30
0.0
 11
119.596194622260299
 21
387.9912017850850816
 31
0.0
  0
LINE
  5
2460E
  8
0
  6
VERDECKT
 62
     1
 10
21.2703202729686502
 20
397.8954131087041901
 30
0.0
 11
20.4038053777392285
 21
387.9912017850850816
 31
0.0
  0
ARC
  5
2460F
  8
0
  6
VERDECKT
 62
     1
 10
118.5999999999961005
 20
387.9040451755851109
 30
0.0
 40
1.000000000003767
 50
0.0000000000130276
 51
5.0000498509335731
  0
ARC
  5
24610
  8
0
  6
VERDECKT
 62
     1
 10
21.3999999999977994
 20
387.9040451755852814
 30
0.0
 40
0.999999999998181
 50
174.9999501490515001
 51
180.0
  0
LINE
  5
24611
  8
0
  6
VERDECKT
 62
     1
 10
20.3999999999996113
 20
153.0000000000009948
 30
0.0
 11
20.3999999999996113
 21
387.9040451755852246
 31
0.0
  0
LINE
  5
24612
  8
0
  6
VERDECKT
 62
     1
 10
119.5999999999998948
 20
152.9999999999974136
 30
0.0
 11
119.5999999999998948
 21
387.9040451755852814
 31
0.0
  0
LINE
  5
24613
  8
0
  6
VERDECKT
 62
     1
 10
-127.9995501064840937
 20
12.9128442572524094
 30
0.0
 11
-12.0004498935171
 21
12.9128442572523898
 31
0.0
  0
LINE
  5
24614
  8
0
  6
VERDECKT
 62
     1
 10
12.0004498935158797
 20
12.9128442572523507
 30
0.0
 11
127.9995501064829
 21
12.9128442572523294
 31
0.0
  0
ARC
  5
24615
  8
0
  6
VERDECKT
 62
     1
 10
-130.5037743538956079
 20
1.5000000000001039
 30
0.0
 40
1.4999999999999849
 50
270.0
 51
355.0000000000005116
  0
ARC
  5
24616
  8
0
  6
VERDECKT
 62
     1
 10
-9.4962256461056427
 20
1.5000000000001039
 30
0.0
 40
1.499999999999988
 50
184.999999999999801
 51
270.0
  0
LINE
  5
24617
  8
0
  6
VERDECKT
 62
     1
 10
-12.0004498935171
 20
12.9128442572523898
 30
0.0
 11
-10.99051769324325
 21
1.3692663858786209
 31
0.0
  0
LINE
  5
24618
  8
0
  6
VERDECKT
 62
     1
 10
-127.9995501064840937
 20
12.9128442572524005
 30
0.0
 11
-129.0094823067580023
 21
1.3692663858786309
 31
0.0
  0
LINE
  5
24619
  8
0
  6
VERDECKT
 62
     1
 10
-127.9995501064840937
 20
12.9128442572524094
 30
0.0
 11
-128.9957448045757928
 21
13.0000000000000693
 31
0.0
  0
LINE
  5
2461A
  8
0
  6
VERDECKT
 62
     1
 10
-12.0004498935171
 20
12.9128442572523898
 30
0.0
 11
-11.0042551954254009
 21
13.0000000000000409
 31
0.0
  0
ARC
  5
2461B
  8
0
  6
VERDECKT
 62
     1
 10
9.4962256461044188
 20
1.5000000000000679
 30
0.0
 40
1.499999999999988
 50
270.0000000000001137
 51
355.0000000000018758
  0
ARC
  5
2461C
  8
0
  6
VERDECKT
 62
     1
 10
130.5037743538943005
 20
1.50000000000003
 30
0.0
 40
1.4999999999999709
 50
184.9999999999982094
 51
270.0
  0
LINE
  5
2461D
  8
0
  6
VERDECKT
 62
     1
 10
127.9995501064829
 20
12.9128442572523294
 30
0.0
 11
129.0094823067566949
 21
1.3692663858785641
 31
0.0
  0
LINE
  5
2461E
  8
0
  6
VERDECKT
 62
     1
 10
12.0004498935158797
 20
12.9128442572524005
 30
0.0
 11
10.9905176932420297
 21
1.3692663858786309
 31
0.0
  0
LINE
  5
2461F
  8
0
  6
VERDECKT
 62
     1
 10
12.0004498935158708
 20
12.9128442572523507
 30
0.0
 11
11.0042551954241699
 21
13.0000000000000107
 31
0.0
  0
LINE
  5
24620
  8
0
  6
VERDECKT
 62
     1
 10
127.9995501064829
 20
12.9128442572523294
 30
0.0
 11
128.9957448045745991
 21
12.9999999999999893
 31
0.0
  0
LINE
  5
24621
  8
0
  6
VERDECKT
 62
     1
 10
-246.9999999999998863
 20
0.9999999999998863
 30
0.0
 11
-246.9999999999998863
 21
0.0
 31
0.0
  0
LINE
  5
24622
  8
0
  6
VERDECKT
 62
     1
 10
-252.9999999999998863
 20
0.9999999999998872
 30
0.0
 11
-252.9999999999998863
 21
0.0000000000000009
 31
0.0
  0
LINE
  5
24623
  8
0
  6
VERDECKT
 62
     1
 10
247.0000000000001137
 20
-0.0000000000001137
 30
0.0
 11
247.0000000000001137
 21
0.9999999999997726
 31
0.0
  0
LINE
  5
24624
  8
0
  6
VERDECKT
 62
     1
 10
253.0000000000001137
 20
-0.0000000000001146
 30
0.0
 11
253.0000000000001137
 21
0.9999999999997717
 31
0.0
  0
ENDBLK
  5
24626
  8
0
  0
ENDSEC
  0
SECTION
  2
ENTITIES
  0
TEXT
  5
5DDE
  8
VOLL
 10
78.076754716981128
 20
31.025947764705851
 30
0.0
 40
1.8
  1

  7
GREEKS
  0
INSERT
  5
5DDF
  8
ADSK_ASSOC_ENTITY_BACKUPS
  2
*S1
 10
0.0
 20
0.0
 30
0.0
  0
INSERT
  5
24535
  8
STEMPEL
  2
A$CEF4803CC
 10
0.0
 20
0.0
 30
0.0
  0
INSERT
  5
2458E
  8
STEMPEL
  2
A$C3CD5957E
 10
-750.0
 20
0.0
 30
0.0
  0
INSERT
  5
24627
  8
STEMPEL
  2
A$C4A2B6461
 10
0.0
 20
-500.0
 30
0.0
  0
VIEWPORT
  5
1571
 67
     1
  8
0
 10
114.2499995017517023
 20
210.7999997469748052
 30
0.0
 40
9.4724810589247213
 41
5.0257734815371569
 68
     1
 69
     1
1001
ACAD
1000
MVIEW
1002
{
1070
    16
1010
0.0
1020
0.0
1030
0.0
1010
0.0
1020
0.0
1030
1.0
1040
0.0
1040
5.0257734815371569
1040
114.2499995017517023
1040
210.7999997469748052
1040
50.0
1040
0.0
1040
0.0
1070
     0
1070
  1500
1070
     1
1070
     1
1070
     0
1070
     0
1070
     0
1070
     0
1040
0.0
1040
0.0
1040
0.0
1040
10.0
1040
10.0
1040
10.0
1040
10.0
1070
     0
1002
{
1002
}
1002
}
1001
GENIUS_GENOBJ-N-SDF_13
1002
{
1000
OWNER
1000
GEN
1002
}
1001
GENIUS_GENODEF_13
1002
{
1000
HIER
1070
     0
1002
}
1002
{
1000
MANEDIT
1070
     0
1002
}
1002
{
1000
NOSEL
1070
     0
1002
}
1002
{
1000
BEHIND
1070
     0
1002
}
1002
{
1000
OTHER
1070
     0
1002
}
1002
{
1000
REACTOR
1002
}
1001
GENIUS_GENSCREG_15
1000
PF
1040
1.0
1000
DF
1040
1.0
1000
MIN
1011
-98.3237311841076007
1021
0.0
1031
0.0
1021
-84.5929851452383446
1031
0.0
1000
MAX
1011
756.7695330154733711
1021
0.0
1031
0.0
1021
339.8977580961391141
1031
0.0
1000
FLAGS
1070
     4
  0
CIRCLE
  5
24243
 67
     1
  8
INDEX
 62
   150
 10
114.2499999999943014
 20
210.7999999999973966
 30
0.0000000000004547
 40
2.5
  0
TEXT
  5
24244
 67
     1
  8
INDEX
 62
   150
 10
113.3357142857086046
 20
209.2999999999973966
 30
0.0000000000004547
 40
3.0
  1
A
 41
0.8
 72
     4
 11
114.2499999999943014
 21
210.7999999999973966
 31
0.0000000000004547
  0
ENDSEC
  0
EOF
